ISO-10303-21;
HEADER;
FILE_DESCRIPTION( ( 'Unknown' ), '1' );
FILE_NAME( '//SBS2003/HD_Usb/Disegni/08_LIB/Users_3D/PROD_GAMM_3D/APP-I/7747216_APP_14_IR.stp', 'Unknown', ( 'Unknown' ), ( 'Unknown' ), 'PSStep 14.0', 'Unknown', '  ' );
FILE_SCHEMA( ( 'AUTOMOTIVE_DESIGN { 1 0 10303 214 1 1 1 1 }' ) );
ENDSEC;
DATA;
#1 = MECHANICAL_DESIGN_GEOMETRIC_PRESENTATION_REPRESENTATION( ' ', ( #10, #11, #12, #13, #14, #15, #16, #17, #18, #19, #20, #21, #22 ), #6 );
#2 = PRODUCT_DEFINITION_CONTEXT( '', #23, 'design' );
#3 = APPLICATION_PROTOCOL_DEFINITION( 'international standard', 'automotive_design', 2001, #23 );
#4 = PRODUCT_CATEGORY_RELATIONSHIP( 'NONE', 'NONE', #24, #25 );
#5 = SHAPE_DEFINITION_REPRESENTATION( #26, #27 );
#6 =  ( GEOMETRIC_REPRESENTATION_CONTEXT( 3 )GLOBAL_UNCERTAINTY_ASSIGNED_CONTEXT( ( #30 ) )GLOBAL_UNIT_ASSIGNED_CONTEXT( ( #32, #33, #34 ) )REPRESENTATION_CONTEXT( 'NONE', 'WORKSPACE' ) );
#10 = STYLED_ITEM( '', ( #36 ), #37 );
#11 = STYLED_ITEM( '', ( #38 ), #39 );
#12 = STYLED_ITEM( '', ( #40 ), #41 );
#13 = STYLED_ITEM( '', ( #42 ), #43 );
#14 = STYLED_ITEM( '', ( #44 ), #45 );
#15 = STYLED_ITEM( '', ( #46 ), #47 );
#16 = STYLED_ITEM( '', ( #48 ), #49 );
#17 = STYLED_ITEM( '', ( #50 ), #51 );
#18 = STYLED_ITEM( '', ( #52 ), #53 );
#19 = STYLED_ITEM( '', ( #54 ), #55 );
#20 = STYLED_ITEM( '', ( #56 ), #57 );
#21 = STYLED_ITEM( '', ( #58 ), #59 );
#22 = STYLED_ITEM( '', ( #60 ), #61 );
#23 = APPLICATION_CONTEXT( 'core data for automotive mechanical design processes' );
#24 = PRODUCT_CATEGORY( 'part', 'NONE' );
#25 = PRODUCT_RELATED_PRODUCT_CATEGORY( 'detail', ' ', ( #62 ) );
#26 = PRODUCT_DEFINITION_SHAPE( 'NONE', 'NONE', #63 );
#27 = ADVANCED_BREP_SHAPE_REPRESENTATION( '1', ( #64, #65 ), #6 );
#30 = UNCERTAINTY_MEASURE_WITH_UNIT( LENGTH_MEASURE( 0.00100000000000000 ), #32, '', '' );
#32 =  ( CONVERSION_BASED_UNIT( 'MILLIMETRE', #68 )LENGTH_UNIT(  )NAMED_UNIT( #71 ) );
#33 =  ( NAMED_UNIT( #73 )PLANE_ANGLE_UNIT(  )SI_UNIT( $, .RADIAN. ) );
#34 =  ( NAMED_UNIT( #73 )SI_UNIT( $, .STERADIAN. )SOLID_ANGLE_UNIT(  ) );
#36 = PRESENTATION_STYLE_ASSIGNMENT( ( #79 ) );
#37 = ADVANCED_FACE( '', ( #80, #81 ), #82, .T. );
#38 = PRESENTATION_STYLE_ASSIGNMENT( ( #83 ) );
#39 = ADVANCED_FACE( '', ( #84, #85 ), #86, .F. );
#40 = PRESENTATION_STYLE_ASSIGNMENT( ( #87 ) );
#41 = ADVANCED_FACE( '', ( #88, #89 ), #90, .T. );
#42 = PRESENTATION_STYLE_ASSIGNMENT( ( #91 ) );
#43 = ADVANCED_FACE( '', ( #92 ), #93, .F. );
#44 = PRESENTATION_STYLE_ASSIGNMENT( ( #94 ) );
#45 = ADVANCED_FACE( '', ( #95, #96 ), #97, .T. );
#46 = PRESENTATION_STYLE_ASSIGNMENT( ( #98 ) );
#47 = ADVANCED_FACE( '', ( #99 ), #100, .T. );
#48 = PRESENTATION_STYLE_ASSIGNMENT( ( #101 ) );
#49 = ADVANCED_FACE( '', ( #102 ), #103, .T. );
#50 = PRESENTATION_STYLE_ASSIGNMENT( ( #104 ) );
#51 = ADVANCED_FACE( '', ( #105 ), #106, .T. );
#52 = PRESENTATION_STYLE_ASSIGNMENT( ( #107 ) );
#53 = ADVANCED_FACE( '', ( #108, #109 ), #110, .T. );
#54 = PRESENTATION_STYLE_ASSIGNMENT( ( #111 ) );
#55 = ADVANCED_FACE( '', ( #112 ), #113, .T. );
#56 = PRESENTATION_STYLE_ASSIGNMENT( ( #114 ) );
#57 = ADVANCED_FACE( '', ( #115 ), #116, .F. );
#58 = PRESENTATION_STYLE_ASSIGNMENT( ( #117 ) );
#59 = ADVANCED_FACE( '', ( #118 ), #119, .T. );
#60 = PRESENTATION_STYLE_ASSIGNMENT( ( #120 ) );
#61 = ADVANCED_FACE( '', ( #121 ), #122, .T. );
#62 = PRODUCT( '1', '1', 'PART-1-DESC', ( #123 ) );
#63 = PRODUCT_DEFINITION( 'NONE', 'NONE', #124, #2 );
#64 = MANIFOLD_SOLID_BREP( '1', #125 );
#65 = AXIS2_PLACEMENT_3D( '', #126, #127, #128 );
#68 = LENGTH_MEASURE_WITH_UNIT( LENGTH_MEASURE( 1.00000000000000 ), #129 );
#71 = DIMENSIONAL_EXPONENTS( 1.00000000000000, 0.000000000000000, 0.000000000000000, 0.000000000000000, 0.000000000000000, 0.000000000000000, 0.000000000000000 );
#73 = DIMENSIONAL_EXPONENTS( 0.000000000000000, 0.000000000000000, 0.000000000000000, 0.000000000000000, 0.000000000000000, 0.000000000000000, 0.000000000000000 );
#79 = SURFACE_STYLE_USAGE( .BOTH., #130 );
#80 = FACE_OUTER_BOUND( '', #131, .T. );
#81 = FACE_OUTER_BOUND( '', #132, .T. );
#82 = CYLINDRICAL_SURFACE( '', #133, 2.00000000000000 );
#83 = SURFACE_STYLE_USAGE( .BOTH., #134 );
#84 = FACE_OUTER_BOUND( '', #135, .T. );
#85 = FACE_BOUND( '', #136, .T. );
#86 = PLANE( '', #137 );
#87 = SURFACE_STYLE_USAGE( .BOTH., #138 );
#88 = FACE_OUTER_BOUND( '', #139, .T. );
#89 = FACE_OUTER_BOUND( '', #140, .T. );
#90 = CYLINDRICAL_SURFACE( '', #141, 1.35000000000000 );
#91 = SURFACE_STYLE_USAGE( .BOTH., #142 );
#92 = FACE_OUTER_BOUND( '', #143, .T. );
#93 = PLANE( '', #144 );
#94 = SURFACE_STYLE_USAGE( .BOTH., #145 );
#95 = FACE_OUTER_BOUND( '', #146, .T. );
#96 = FACE_OUTER_BOUND( '', #147, .T. );
#97 = CYLINDRICAL_SURFACE( '', #148, 3.00000000000000 );
#98 = SURFACE_STYLE_USAGE( .BOTH., #149 );
#99 = FACE_OUTER_BOUND( '', #150, .T. );
#100 = SPHERICAL_SURFACE( '', #151, 1.35000000000000 );
#101 = SURFACE_STYLE_USAGE( .BOTH., #152 );
#102 = FACE_OUTER_BOUND( '', #153, .T. );
#103 = CONICAL_SURFACE( '', #154, 2.50000000000000, 0.785398163397448 );
#104 = SURFACE_STYLE_USAGE( .BOTH., #155 );
#105 = FACE_OUTER_BOUND( '', #156, .T. );
#106 = CONICAL_SURFACE( '', #157, 2.50000000000000, 0.785398163397448 );
#107 = SURFACE_STYLE_USAGE( .BOTH., #158 );
#108 = FACE_BOUND( '', #159, .T. );
#109 = FACE_OUTER_BOUND( '', #160, .T. );
#110 = CONICAL_SURFACE( '', #161, 3.00000000000000, 0.785398163397449 );
#111 = SURFACE_STYLE_USAGE( .BOTH., #162 );
#112 = FACE_OUTER_BOUND( '', #163, .T. );
#113 = PLANE( '', #164 );
#114 = SURFACE_STYLE_USAGE( .BOTH., #165 );
#115 = FACE_OUTER_BOUND( '', #166, .T. );
#116 = PLANE( '', #167 );
#117 = SURFACE_STYLE_USAGE( .BOTH., #168 );
#118 = FACE_OUTER_BOUND( '', #169, .T. );
#119 = PLANE( '', #170 );
#120 = SURFACE_STYLE_USAGE( .BOTH., #171 );
#121 = FACE_OUTER_BOUND( '', #172, .T. );
#122 = PLANE( '', #173 );
#123 = PRODUCT_CONTEXT( '', #23, 'mechanical' );
#124 = PRODUCT_DEFINITION_FORMATION_WITH_SPECIFIED_SOURCE( ' ', 'NONE', #62, .NOT_KNOWN. );
#125 = CLOSED_SHELL( '', ( #45, #51, #61, #59, #49, #53, #47, #41, #43, #39, #37, #57, #55 ) );
#126 = CARTESIAN_POINT( '', ( 0.000000000000000, 0.000000000000000, 0.000000000000000 ) );
#127 = DIRECTION( '', ( 0.000000000000000, 0.000000000000000, 1.00000000000000 ) );
#128 = DIRECTION( '', ( 1.00000000000000, 0.000000000000000, 0.000000000000000 ) );
#129 =  ( LENGTH_UNIT(  )NAMED_UNIT( #71 )SI_UNIT( .MILLI., .METRE. ) );
#130 = SURFACE_SIDE_STYLE( '', ( #175 ) );
#131 = EDGE_LOOP( '', ( #176 ) );
#132 = EDGE_LOOP( '', ( #177 ) );
#133 = AXIS2_PLACEMENT_3D( '', #178, #179, #180 );
#134 = SURFACE_SIDE_STYLE( '', ( #181 ) );
#135 = EDGE_LOOP( '', ( #182 ) );
#136 = EDGE_LOOP( '', ( #183 ) );
#137 = AXIS2_PLACEMENT_3D( '', #184, #185, #186 );
#138 = SURFACE_SIDE_STYLE( '', ( #187 ) );
#139 = EDGE_LOOP( '', ( #188 ) );
#140 = EDGE_LOOP( '', ( #189 ) );
#141 = AXIS2_PLACEMENT_3D( '', #190, #191, #192 );
#142 = SURFACE_SIDE_STYLE( '', ( #193 ) );
#143 = EDGE_LOOP( '', ( #194, #195 ) );
#144 = AXIS2_PLACEMENT_3D( '', #196, #197, #198 );
#145 = SURFACE_SIDE_STYLE( '', ( #199 ) );
#146 = EDGE_LOOP( '', ( #200 ) );
#147 = EDGE_LOOP( '', ( #201, #202, #203, #204, #205, #206, #207, #208 ) );
#148 = AXIS2_PLACEMENT_3D( '', #209, #210, #211 );
#149 = SURFACE_SIDE_STYLE( '', ( #212 ) );
#150 = EDGE_LOOP( '', ( #213 ) );
#151 = AXIS2_PLACEMENT_3D( '', #214, #215, #216 );
#152 = SURFACE_SIDE_STYLE( '', ( #217 ) );
#153 = EDGE_LOOP( '', ( #218, #219, #220, #221 ) );
#154 = AXIS2_PLACEMENT_3D( '', #222, #223, #224 );
#155 = SURFACE_SIDE_STYLE( '', ( #225 ) );
#156 = EDGE_LOOP( '', ( #226, #227, #228, #229 ) );
#157 = AXIS2_PLACEMENT_3D( '', #230, #231, #232 );
#158 = SURFACE_SIDE_STYLE( '', ( #233 ) );
#159 = EDGE_LOOP( '', ( #234 ) );
#160 = EDGE_LOOP( '', ( #235 ) );
#161 = AXIS2_PLACEMENT_3D( '', #236, #237, #238 );
#162 = SURFACE_SIDE_STYLE( '', ( #239 ) );
#163 = EDGE_LOOP( '', ( #240, #241, #242, #243, #244, #245 ) );
#164 = AXIS2_PLACEMENT_3D( '', #246, #247, #248 );
#165 = SURFACE_SIDE_STYLE( '', ( #249 ) );
#166 = EDGE_LOOP( '', ( #250, #251 ) );
#167 = AXIS2_PLACEMENT_3D( '', #252, #253, #254 );
#168 = SURFACE_SIDE_STYLE( '', ( #255 ) );
#169 = EDGE_LOOP( '', ( #256, #257, #258, #259, #260, #261 ) );
#170 = AXIS2_PLACEMENT_3D( '', #262, #263, #264 );
#171 = SURFACE_SIDE_STYLE( '', ( #265 ) );
#172 = EDGE_LOOP( '', ( #266, #267, #268, #269 ) );
#173 = AXIS2_PLACEMENT_3D( '', #270, #271, #272 );
#175 = SURFACE_STYLE_FILL_AREA( #273 );
#176 = ORIENTED_EDGE( '', *, *, #274, .F. );
#177 = ORIENTED_EDGE( '', *, *, #275, .T. );
#178 = CARTESIAN_POINT( '', ( 7.24113640316170E-017, 0.000000000000000, 10.5000000000000 ) );
#179 = DIRECTION( '', ( -1.37926407679271E-017, -0.000000000000000, -1.00000000000000 ) );
#180 = DIRECTION( '', ( 1.00000000000000, 0.000000000000000, -1.37926407679271E-017 ) );
#181 = SURFACE_STYLE_FILL_AREA( #276 );
#182 = ORIENTED_EDGE( '', *, *, #275, .F. );
#183 = ORIENTED_EDGE( '', *, *, #277, .T. );
#184 = CARTESIAN_POINT( '', ( 1.35000000000000, 0.000000000000000, 2.00000000000000 ) );
#185 = DIRECTION( '', ( 1.37926407679271E-017, 0.000000000000000, 1.00000000000000 ) );
#186 = DIRECTION( '', ( 1.00000000000000, 0.000000000000000, -1.37926407679271E-017 ) );
#187 = SURFACE_STYLE_FILL_AREA( #278 );
#188 = ORIENTED_EDGE( '', *, *, #277, .F. );
#189 = ORIENTED_EDGE( '', *, *, #279, .T. );
#190 = CARTESIAN_POINT( '', ( 7.24113640316170E-017, 0.000000000000000, 10.5000000000000 ) );
#191 = DIRECTION( '', ( -1.37926407679271E-017, -0.000000000000000, -1.00000000000000 ) );
#192 = DIRECTION( '', ( 1.00000000000000, 0.000000000000000, -1.37926407679271E-017 ) );
#193 = SURFACE_STYLE_FILL_AREA( #280 );
#194 = ORIENTED_EDGE( '', *, *, #281, .F. );
#195 = ORIENTED_EDGE( '', *, *, #282, .T. );
#196 = CARTESIAN_POINT( '', ( 3.00000000000000, 0.000000000000000, 16.0000000000000 ) );
#197 = DIRECTION( '', ( -1.37926407679271E-017, 0.000000000000000, -1.00000000000000 ) );
#198 = DIRECTION( '', ( -1.00000000000000, 0.000000000000000, 1.37926407679271E-017 ) );
#199 = SURFACE_STYLE_FILL_AREA( #283 );
#200 = ORIENTED_EDGE( '', *, *, #284, .T. );
#201 = ORIENTED_EDGE( '', *, *, #285, .F. );
#202 = ORIENTED_EDGE( '', *, *, #286, .T. );
#203 = ORIENTED_EDGE( '', *, *, #287, .F. );
#204 = ORIENTED_EDGE( '', *, *, #288, .F. );
#205 = ORIENTED_EDGE( '', *, *, #289, .F. );
#206 = ORIENTED_EDGE( '', *, *, #290, .T. );
#207 = ORIENTED_EDGE( '', *, *, #291, .F. );
#208 = ORIENTED_EDGE( '', *, *, #292, .F. );
#209 = CARTESIAN_POINT( '', ( 7.24113640316170E-017, 0.000000000000000, 10.5000000000000 ) );
#210 = DIRECTION( '', ( -1.37926407679271E-017, -0.000000000000000, -1.00000000000000 ) );
#211 = DIRECTION( '', ( 1.00000000000000, 0.000000000000000, -1.37926407679271E-017 ) );
#212 = SURFACE_STYLE_FILL_AREA( #293 );
#213 = ORIENTED_EDGE( '', *, *, #279, .F. );
#214 = CARTESIAN_POINT( '', ( 0.000000000000000, 0.000000000000000, 1.35000000000000 ) );
#215 = DIRECTION( '', ( 1.37926407679271E-017, 0.000000000000000, 1.00000000000000 ) );
#216 = DIRECTION( '', ( 1.00000000000000, 0.000000000000000, -1.37926407679271E-017 ) );
#217 = SURFACE_STYLE_FILL_AREA( #294 );
#218 = ORIENTED_EDGE( '', *, *, #295, .F. );
#219 = ORIENTED_EDGE( '', *, *, #286, .F. );
#220 = ORIENTED_EDGE( '', *, *, #296, .F. );
#221 = ORIENTED_EDGE( '', *, *, #282, .F. );
#222 = CARTESIAN_POINT( '', ( 1.48270888255216E-016, 0.000000000000000, 16.0000000000000 ) );
#223 = DIRECTION( '', ( -1.37926407679270E-017, 0.000000000000000, -1.00000000000000 ) );
#224 = DIRECTION( '', ( -1.00000000000000, 0.000000000000000, 1.37926407679270E-017 ) );
#225 = SURFACE_STYLE_FILL_AREA( #297 );
#226 = ORIENTED_EDGE( '', *, *, #298, .F. );
#227 = ORIENTED_EDGE( '', *, *, #290, .F. );
#228 = ORIENTED_EDGE( '', *, *, #299, .F. );
#229 = ORIENTED_EDGE( '', *, *, #300, .F. );
#230 = CARTESIAN_POINT( '', ( 1.48270888255216E-016, 0.000000000000000, 16.0000000000000 ) );
#231 = DIRECTION( '', ( -1.37926407679270E-017, 0.000000000000000, -1.00000000000000 ) );
#232 = DIRECTION( '', ( -1.00000000000000, 0.000000000000000, 1.37926407679270E-017 ) );
#233 = SURFACE_STYLE_FILL_AREA( #301 );
#234 = ORIENTED_EDGE( '', *, *, #274, .T. );
#235 = ORIENTED_EDGE( '', *, *, #284, .F. );
#236 = CARTESIAN_POINT( '', ( -2.41371213438723E-017, 0.000000000000000, 3.50000000000000 ) );
#237 = DIRECTION( '', ( 1.37926407679270E-017, -0.000000000000000, 1.00000000000000 ) );
#238 = DIRECTION( '', ( 1.00000000000000, 0.000000000000000, -1.37926407679270E-017 ) );
#239 = SURFACE_STYLE_FILL_AREA( #302 );
#240 = ORIENTED_EDGE( '', *, *, #303, .F. );
#241 = ORIENTED_EDGE( '', *, *, #299, .T. );
#242 = ORIENTED_EDGE( '', *, *, #289, .T. );
#243 = ORIENTED_EDGE( '', *, *, #304, .T. );
#244 = ORIENTED_EDGE( '', *, *, #291, .T. );
#245 = ORIENTED_EDGE( '', *, *, #298, .T. );
#246 = CARTESIAN_POINT( '', ( -0.500000000000000, -12.5000000000000, 16.0000000000000 ) );
#247 = DIRECTION( '', ( 1.00000000000000, 0.000000000000000, 1.08420217248550E-016 ) );
#248 = DIRECTION( '', ( 1.08420217248550E-016, 0.000000000000000, -1.00000000000000 ) );
#249 = SURFACE_STYLE_FILL_AREA( #305 );
#250 = ORIENTED_EDGE( '', *, *, #303, .T. );
#251 = ORIENTED_EDGE( '', *, *, #300, .T. );
#252 = CARTESIAN_POINT( '', ( 3.00000000000000, 0.000000000000000, 16.0000000000000 ) );
#253 = DIRECTION( '', ( -1.37926407679271E-017, 0.000000000000000, -1.00000000000000 ) );
#254 = DIRECTION( '', ( -1.00000000000000, 0.000000000000000, 1.37926407679271E-017 ) );
#255 = SURFACE_STYLE_FILL_AREA( #306 );
#256 = ORIENTED_EDGE( '', *, *, #281, .T. );
#257 = ORIENTED_EDGE( '', *, *, #296, .T. );
#258 = ORIENTED_EDGE( '', *, *, #285, .T. );
#259 = ORIENTED_EDGE( '', *, *, #307, .F. );
#260 = ORIENTED_EDGE( '', *, *, #287, .T. );
#261 = ORIENTED_EDGE( '', *, *, #295, .T. );
#262 = CARTESIAN_POINT( '', ( 0.500000000000000, -12.5000000000000, 15.0000000000000 ) );
#263 = DIRECTION( '', ( -1.00000000000000, 0.000000000000000, 1.08420217248550E-016 ) );
#264 = DIRECTION( '', ( 1.08420217248550E-016, 0.000000000000000, 1.00000000000000 ) );
#265 = SURFACE_STYLE_FILL_AREA( #308 );
#266 = ORIENTED_EDGE( '', *, *, #292, .T. );
#267 = ORIENTED_EDGE( '', *, *, #304, .F. );
#268 = ORIENTED_EDGE( '', *, *, #288, .T. );
#269 = ORIENTED_EDGE( '', *, *, #307, .T. );
#270 = CARTESIAN_POINT( '', ( -0.500000000000000, -12.5000000000000, 15.0000000000000 ) );
#271 = DIRECTION( '', ( 0.000000000000000, 0.000000000000000, 1.00000000000000 ) );
#272 = DIRECTION( '', ( 1.00000000000000, 0.000000000000000, 0.000000000000000 ) );
#273 = FILL_AREA_STYLE( '', ( #309 ) );
#274 = EDGE_CURVE( '', #310, #310, #311, .T. );
#275 = EDGE_CURVE( '', #312, #312, #313, .T. );
#276 = FILL_AREA_STYLE( '', ( #314 ) );
#277 = EDGE_CURVE( '', #315, #315, #316, .T. );
#278 = FILL_AREA_STYLE( '', ( #317 ) );
#279 = EDGE_CURVE( '', #318, #318, #319, .T. );
#280 = FILL_AREA_STYLE( '', ( #320 ) );
#281 = EDGE_CURVE( '', #321, #322, #323, .T. );
#282 = EDGE_CURVE( '', #321, #322, #324, .F. );
#283 = FILL_AREA_STYLE( '', ( #325 ) );
#284 = EDGE_CURVE( '', #326, #326, #327, .T. );
#285 = EDGE_CURVE( '', #328, #329, #330, .F. );
#286 = EDGE_CURVE( '', #328, #331, #332, .T. );
#287 = EDGE_CURVE( '', #333, #331, #334, .T. );
#288 = EDGE_CURVE( '', #335, #333, #336, .T. );
#289 = EDGE_CURVE( '', #337, #335, #338, .F. );
#290 = EDGE_CURVE( '', #337, #339, #340, .T. );
#291 = EDGE_CURVE( '', #341, #339, #342, .T. );
#292 = EDGE_CURVE( '', #329, #341, #343, .T. );
#293 = FILL_AREA_STYLE( '', ( #344 ) );
#294 = FILL_AREA_STYLE( '', ( #345 ) );
#295 = EDGE_CURVE( '', #331, #321, #346, .T. );
#296 = EDGE_CURVE( '', #322, #328, #347, .T. );
#297 = FILL_AREA_STYLE( '', ( #348 ) );
#298 = EDGE_CURVE( '', #339, #349, #350, .T. );
#299 = EDGE_CURVE( '', #351, #337, #352, .T. );
#300 = EDGE_CURVE( '', #349, #351, #353, .F. );
#301 = FILL_AREA_STYLE( '', ( #354 ) );
#302 = FILL_AREA_STYLE( '', ( #355 ) );
#303 = EDGE_CURVE( '', #351, #349, #356, .T. );
#304 = EDGE_CURVE( '', #335, #341, #357, .T. );
#305 = FILL_AREA_STYLE( '', ( #358 ) );
#306 = FILL_AREA_STYLE( '', ( #359 ) );
#307 = EDGE_CURVE( '', #333, #329, #360, .T. );
#308 = FILL_AREA_STYLE( '', ( #361 ) );
#309 = FILL_AREA_STYLE_COLOUR( '', #362 );
#310 = VERTEX_POINT( '', #363 );
#311 = CIRCLE( '', #364, 2.00000000000000 );
#312 = VERTEX_POINT( '', #365 );
#313 = CIRCLE( '', #366, 2.00000000000000 );
#314 = FILL_AREA_STYLE_COLOUR( '', #367 );
#315 = VERTEX_POINT( '', #368 );
#316 = CIRCLE( '', #369, 1.35000000000000 );
#317 = FILL_AREA_STYLE_COLOUR( '', #370 );
#318 = VERTEX_POINT( '', #371 );
#319 = CIRCLE( '', #372, 1.35000000000000 );
#320 = FILL_AREA_STYLE_COLOUR( '', #373 );
#321 = VERTEX_POINT( '', #374 );
#322 = VERTEX_POINT( '', #375 );
#323 = LINE( '', #376, #377 );
#324 = CIRCLE( '', #378, 2.50000000000000 );
#325 = FILL_AREA_STYLE_COLOUR( '', #379 );
#326 = VERTEX_POINT( '', #380 );
#327 = CIRCLE( '', #381, 3.00000000000000 );
#328 = VERTEX_POINT( '', #382 );
#329 = VERTEX_POINT( '', #383 );
#330 = LINE( '', #384, #385 );
#331 = VERTEX_POINT( '', #386 );
#332 = CIRCLE( '', #387, 3.00000000000000 );
#333 = VERTEX_POINT( '', #388 );
#334 = LINE( '', #389, #390 );
#335 = VERTEX_POINT( '', #391 );
#336 = CIRCLE( '', #392, 3.00000000000000 );
#337 = VERTEX_POINT( '', #393 );
#338 = LINE( '', #394, #395 );
#339 = VERTEX_POINT( '', #396 );
#340 = CIRCLE( '', #397, 3.00000000000000 );
#341 = VERTEX_POINT( '', #398 );
#342 = LINE( '', #399, #400 );
#343 = CIRCLE( '', #401, 3.00000000000000 );
#344 = FILL_AREA_STYLE_COLOUR( '', #402 );
#345 = FILL_AREA_STYLE_COLOUR( '', #403 );
#346 = B_SPLINE_CURVE_WITH_KNOTS( '', 3, ( #404, #405, #406, #407 ), .UNSPECIFIED., .F., .F., ( 4, 4 ), ( 0.000000000000000, 0.000713178276317053 ), .UNSPECIFIED. );
#347 = B_SPLINE_CURVE_WITH_KNOTS( '', 3, ( #408, #409, #410, #411 ), .UNSPECIFIED., .F., .F., ( 4, 4 ), ( 0.000000000000000, 0.000713178276317053 ), .UNSPECIFIED. );
#348 = FILL_AREA_STYLE_COLOUR( '', #412 );
#349 = VERTEX_POINT( '', #413 );
#350 = B_SPLINE_CURVE_WITH_KNOTS( '', 3, ( #414, #415, #416, #417 ), .UNSPECIFIED., .F., .F., ( 4, 4 ), ( 0.000000000000000, 0.000713178276317053 ), .UNSPECIFIED. );
#351 = VERTEX_POINT( '', #418 );
#352 = B_SPLINE_CURVE_WITH_KNOTS( '', 3, ( #419, #420, #421, #422 ), .UNSPECIFIED., .F., .F., ( 4, 4 ), ( 0.000000000000000, 0.000713178276317053 ), .UNSPECIFIED. );
#353 = CIRCLE( '', #423, 2.50000000000000 );
#354 = FILL_AREA_STYLE_COLOUR( '', #424 );
#355 = FILL_AREA_STYLE_COLOUR( '', #425 );
#356 = LINE( '', #426, #427 );
#357 = LINE( '', #428, #429 );
#358 = FILL_AREA_STYLE_COLOUR( '', #430 );
#359 = FILL_AREA_STYLE_COLOUR( '', #431 );
#360 = LINE( '', #432, #433 );
#361 = FILL_AREA_STYLE_COLOUR( '', #434 );
#362 = COLOUR_RGB( '', 0.800000011920929, 0.800000011920929, 0.800000011920929 );
#363 = CARTESIAN_POINT( '', ( 2.00000000000000, 0.000000000000000, 2.50000000000000 ) );
#364 = AXIS2_PLACEMENT_3D( '', #435, #436, #437 );
#365 = CARTESIAN_POINT( '', ( 2.00000000000000, 0.000000000000000, 2.00000000000000 ) );
#366 = AXIS2_PLACEMENT_3D( '', #438, #439, #440 );
#367 = COLOUR_RGB( '', 0.800000011920929, 0.800000011920929, 0.800000011920929 );
#368 = CARTESIAN_POINT( '', ( 1.35000000000000, 0.000000000000000, 2.00000000000000 ) );
#369 = AXIS2_PLACEMENT_3D( '', #441, #442, #443 );
#370 = COLOUR_RGB( '', 0.800000011920929, 0.800000011920929, 0.800000011920929 );
#371 = CARTESIAN_POINT( '', ( 1.35000000000000, 0.000000000000000, 1.35000000000000 ) );
#372 = AXIS2_PLACEMENT_3D( '', #444, #445, #446 );
#373 = COLOUR_RGB( '', 0.800000011920929, 0.800000011920929, 0.800000011920929 );
#374 = CARTESIAN_POINT( '', ( 0.500000000000000, -2.44948974278318, 16.0000000000000 ) );
#375 = CARTESIAN_POINT( '', ( 0.500000000000000, 2.44948974278318, 16.0000000000000 ) );
#376 = CARTESIAN_POINT( '', ( 0.500000000000000, -12.5000000000000, 16.0000000000000 ) );
#377 = VECTOR( '', #447, 1000.00000000000 );
#378 = AXIS2_PLACEMENT_3D( '', #448, #449, #450 );
#379 = COLOUR_RGB( '', 0.752941191196442, 0.752941191196442, 0.752941191196442 );
#380 = CARTESIAN_POINT( '', ( 3.00000000000000, 0.000000000000000, 3.50000000000000 ) );
#381 = AXIS2_PLACEMENT_3D( '', #451, #452, #453 );
#382 = CARTESIAN_POINT( '', ( 0.500000000000000, 2.95803989154981, 15.5000000000000 ) );
#383 = CARTESIAN_POINT( '', ( 0.500000000000000, 2.95803989154981, 15.0000000000000 ) );
#384 = CARTESIAN_POINT( '', ( 0.500000000000000, 2.95803989154981, 10.5000000000000 ) );
#385 = VECTOR( '', #454, 1000.00000000000 );
#386 = CARTESIAN_POINT( '', ( 0.500000000000000, -2.95803989154981, 15.5000000000000 ) );
#387 = AXIS2_PLACEMENT_3D( '', #455, #456, #457 );
#388 = CARTESIAN_POINT( '', ( 0.500000000000000, -2.95803989154981, 15.0000000000000 ) );
#389 = CARTESIAN_POINT( '', ( 0.500000000000000, -2.95803989154981, 10.5000000000000 ) );
#390 = VECTOR( '', #458, 1000.00000000000 );
#391 = CARTESIAN_POINT( '', ( -0.500000000000000, -2.95803989154981, 15.0000000000000 ) );
#392 = AXIS2_PLACEMENT_3D( '', #459, #460, #461 );
#393 = CARTESIAN_POINT( '', ( -0.500000000000000, -2.95803989154981, 15.5000000000000 ) );
#394 = CARTESIAN_POINT( '', ( -0.500000000000000, -2.95803989154981, 10.5000000000000 ) );
#395 = VECTOR( '', #462, 1000.00000000000 );
#396 = CARTESIAN_POINT( '', ( -0.500000000000000, 2.95803989154981, 15.5000000000000 ) );
#397 = AXIS2_PLACEMENT_3D( '', #463, #464, #465 );
#398 = CARTESIAN_POINT( '', ( -0.500000000000000, 2.95803989154981, 15.0000000000000 ) );
#399 = CARTESIAN_POINT( '', ( -0.500000000000000, 2.95803989154981, 10.5000000000000 ) );
#400 = VECTOR( '', #466, 1000.00000000000 );
#401 = AXIS2_PLACEMENT_3D( '', #467, #468, #469 );
#402 = COLOUR_RGB( '', 0.800000011920929, 0.800000011920929, 0.800000011920929 );
#403 = COLOUR_RGB( '', 0.800000011920929, 0.800000011920929, 0.800000011920929 );
#404 = CARTESIAN_POINT( '', ( 0.500000000000000, -2.95803989154981, 15.5000000000000 ) );
#405 = CARTESIAN_POINT( '', ( 0.500000000000000, -2.78876251207873, 15.6669097470708 ) );
#406 = CARTESIAN_POINT( '', ( 0.500000000000000, -2.61929409428724, 15.8336263930843 ) );
#407 = CARTESIAN_POINT( '', ( 0.500000000000000, -2.44948974278318, 16.0000000000000 ) );
#408 = CARTESIAN_POINT( '', ( 0.500000000000000, 2.44948974278318, 16.0000000000000 ) );
#409 = CARTESIAN_POINT( '', ( 0.500000000000000, 2.61929409428724, 15.8336263930843 ) );
#410 = CARTESIAN_POINT( '', ( 0.500000000000000, 2.78876251207873, 15.6669097470708 ) );
#411 = CARTESIAN_POINT( '', ( 0.500000000000000, 2.95803989154981, 15.5000000000000 ) );
#412 = COLOUR_RGB( '', 0.800000011920929, 0.800000011920929, 0.800000011920929 );
#413 = CARTESIAN_POINT( '', ( -0.500000000000000, 2.44948974278318, 16.0000000000000 ) );
#414 = CARTESIAN_POINT( '', ( -0.500000000000000, 2.95803989154981, 15.5000000000000 ) );
#415 = CARTESIAN_POINT( '', ( -0.500000000000000, 2.78876251207873, 15.6669097470708 ) );
#416 = CARTESIAN_POINT( '', ( -0.500000000000000, 2.61929409428724, 15.8336263930843 ) );
#417 = CARTESIAN_POINT( '', ( -0.500000000000000, 2.44948974278318, 16.0000000000000 ) );
#418 = CARTESIAN_POINT( '', ( -0.500000000000000, -2.44948974278318, 16.0000000000000 ) );
#419 = CARTESIAN_POINT( '', ( -0.500000000000000, -2.44948974278318, 16.0000000000000 ) );
#420 = CARTESIAN_POINT( '', ( -0.500000000000000, -2.61929409428724, 15.8336263930843 ) );
#421 = CARTESIAN_POINT( '', ( -0.500000000000000, -2.78876251207873, 15.6669097470708 ) );
#422 = CARTESIAN_POINT( '', ( -0.500000000000000, -2.95803989154981, 15.5000000000000 ) );
#423 = AXIS2_PLACEMENT_3D( '', #470, #471, #472 );
#424 = COLOUR_RGB( '', 0.800000011920929, 0.800000011920929, 0.800000011920929 );
#425 = COLOUR_RGB( '', 0.800000011920929, 0.800000011920929, 0.800000011920929 );
#426 = CARTESIAN_POINT( '', ( -0.500000000000000, -12.5000000000000, 16.0000000000000 ) );
#427 = VECTOR( '', #473, 1000.00000000000 );
#428 = CARTESIAN_POINT( '', ( -0.500000000000000, -12.5000000000000, 15.0000000000000 ) );
#429 = VECTOR( '', #474, 1000.00000000000 );
#430 = COLOUR_RGB( '', 0.800000011920929, 0.800000011920929, 0.800000011920929 );
#431 = COLOUR_RGB( '', 0.800000011920929, 0.800000011920929, 0.800000011920929 );
#432 = CARTESIAN_POINT( '', ( 0.500000000000000, -12.5000000000000, 15.0000000000000 ) );
#433 = VECTOR( '', #475, 1000.00000000000 );
#434 = COLOUR_RGB( '', 0.800000011920929, 0.800000011920929, 0.800000011920929 );
#435 = CARTESIAN_POINT( '', ( -3.79297621117994E-017, 0.000000000000000, 2.50000000000000 ) );
#436 = DIRECTION( '', ( 1.37926407679271E-017, 0.000000000000000, 1.00000000000000 ) );
#437 = DIRECTION( '', ( 1.00000000000000, 0.000000000000000, -1.37926407679271E-017 ) );
#438 = CARTESIAN_POINT( '', ( -4.48260824957630E-017, 0.000000000000000, 2.00000000000000 ) );
#439 = DIRECTION( '', ( 1.37926407679271E-017, 0.000000000000000, 1.00000000000000 ) );
#440 = DIRECTION( '', ( 1.00000000000000, 0.000000000000000, -1.37926407679271E-017 ) );
#441 = CARTESIAN_POINT( '', ( -4.48260824957630E-017, 0.000000000000000, 2.00000000000000 ) );
#442 = DIRECTION( '', ( 1.37926407679271E-017, 0.000000000000000, 1.00000000000000 ) );
#443 = DIRECTION( '', ( 1.00000000000000, 0.000000000000000, -1.37926407679271E-017 ) );
#444 = CARTESIAN_POINT( '', ( -5.37912989949155E-017, 0.000000000000000, 1.35000000000000 ) );
#445 = DIRECTION( '', ( 1.37926407679271E-017, 0.000000000000000, 1.00000000000000 ) );
#446 = DIRECTION( '', ( 1.00000000000000, 0.000000000000000, -1.37926407679271E-017 ) );
#447 = DIRECTION( '', ( 0.000000000000000, 1.00000000000000, 0.000000000000000 ) );
#448 = CARTESIAN_POINT( '', ( 1.48270888255216E-016, 0.000000000000000, 16.0000000000000 ) );
#449 = DIRECTION( '', ( -1.37926407679271E-017, 0.000000000000000, -1.00000000000000 ) );
#450 = DIRECTION( '', ( -1.00000000000000, 0.000000000000000, 1.37926407679271E-017 ) );
#451 = CARTESIAN_POINT( '', ( -2.41371213438723E-017, 0.000000000000000, 3.50000000000000 ) );
#452 = DIRECTION( '', ( 1.37926407679270E-017, 0.000000000000000, 1.00000000000000 ) );
#453 = DIRECTION( '', ( 1.00000000000000, 0.000000000000000, -1.37926407679270E-017 ) );
#454 = DIRECTION( '', ( 1.37926407679271E-017, 0.000000000000000, 1.00000000000000 ) );
#455 = CARTESIAN_POINT( '', ( 1.41374567871252E-016, 0.000000000000000, 15.5000000000000 ) );
#456 = DIRECTION( '', ( -1.37926407679270E-017, 0.000000000000000, -1.00000000000000 ) );
#457 = DIRECTION( '', ( -1.00000000000000, 0.000000000000000, 1.37926407679270E-017 ) );
#458 = DIRECTION( '', ( 1.37926407679271E-017, 0.000000000000000, 1.00000000000000 ) );
#459 = CARTESIAN_POINT( '', ( 1.34478247487289E-016, 0.000000000000000, 15.0000000000000 ) );
#460 = DIRECTION( '', ( 0.000000000000000, 0.000000000000000, 1.00000000000000 ) );
#461 = DIRECTION( '', ( 1.00000000000000, 0.000000000000000, 0.000000000000000 ) );
#462 = DIRECTION( '', ( 1.37926407679271E-017, 0.000000000000000, 1.00000000000000 ) );
#463 = CARTESIAN_POINT( '', ( 1.41374567871252E-016, 0.000000000000000, 15.5000000000000 ) );
#464 = DIRECTION( '', ( -1.37926407679270E-017, 0.000000000000000, -1.00000000000000 ) );
#465 = DIRECTION( '', ( -1.00000000000000, 0.000000000000000, 1.37926407679270E-017 ) );
#466 = DIRECTION( '', ( 1.37926407679271E-017, 0.000000000000000, 1.00000000000000 ) );
#467 = CARTESIAN_POINT( '', ( 1.34478247487289E-016, 0.000000000000000, 15.0000000000000 ) );
#468 = DIRECTION( '', ( 0.000000000000000, 0.000000000000000, 1.00000000000000 ) );
#469 = DIRECTION( '', ( 1.00000000000000, 0.000000000000000, 0.000000000000000 ) );
#470 = CARTESIAN_POINT( '', ( 1.48270888255216E-016, 0.000000000000000, 16.0000000000000 ) );
#471 = DIRECTION( '', ( -1.37926407679271E-017, 0.000000000000000, -1.00000000000000 ) );
#472 = DIRECTION( '', ( -1.00000000000000, 0.000000000000000, 1.37926407679271E-017 ) );
#473 = DIRECTION( '', ( 0.000000000000000, 1.00000000000000, 0.000000000000000 ) );
#474 = DIRECTION( '', ( 0.000000000000000, 1.00000000000000, 0.000000000000000 ) );
#475 = DIRECTION( '', ( 0.000000000000000, 1.00000000000000, 0.000000000000000 ) );
ENDSEC;
END-ISO-10303-21;
