ISO-10303-21;
HEADER;
FILE_DESCRIPTION( ( 'Unknown' ), '1' );
FILE_NAME( '//SBS2003/HD_Usb/Disegni/08_LIB/Users_3D/PROD_GAMM_3D/APP-I/7747221_APP_16_IR.stp', 'Unknown', ( 'Unknown' ), ( 'Unknown' ), 'PSStep 14.0', 'Unknown', '  ' );
FILE_SCHEMA( ( 'AUTOMOTIVE_DESIGN { 1 0 10303 214 1 1 1 1 }' ) );
ENDSEC;
DATA;
#1 = MECHANICAL_DESIGN_GEOMETRIC_PRESENTATION_REPRESENTATION( ' ', ( #10, #11, #12, #13, #14, #15, #16, #17, #18, #19, #20, #21 ), #6 );
#2 = PRODUCT_DEFINITION_CONTEXT( '', #22, 'design' );
#3 = APPLICATION_PROTOCOL_DEFINITION( 'international standard', 'automotive_design', 2001, #22 );
#4 = PRODUCT_CATEGORY_RELATIONSHIP( 'NONE', 'NONE', #23, #24 );
#5 = SHAPE_DEFINITION_REPRESENTATION( #25, #26 );
#6 =  ( GEOMETRIC_REPRESENTATION_CONTEXT( 3 )GLOBAL_UNCERTAINTY_ASSIGNED_CONTEXT( ( #29 ) )GLOBAL_UNIT_ASSIGNED_CONTEXT( ( #31, #32, #33 ) )REPRESENTATION_CONTEXT( 'NONE', 'WORKSPACE' ) );
#10 = STYLED_ITEM( '', ( #35 ), #36 );
#11 = STYLED_ITEM( '', ( #37 ), #38 );
#12 = STYLED_ITEM( '', ( #39 ), #40 );
#13 = STYLED_ITEM( '', ( #41 ), #42 );
#14 = STYLED_ITEM( '', ( #43 ), #44 );
#15 = STYLED_ITEM( '', ( #45 ), #46 );
#16 = STYLED_ITEM( '', ( #47 ), #48 );
#17 = STYLED_ITEM( '', ( #49 ), #50 );
#18 = STYLED_ITEM( '', ( #51 ), #52 );
#19 = STYLED_ITEM( '', ( #53 ), #54 );
#20 = STYLED_ITEM( '', ( #55 ), #56 );
#21 = STYLED_ITEM( '', ( #57 ), #58 );
#22 = APPLICATION_CONTEXT( 'core data for automotive mechanical design processes' );
#23 = PRODUCT_CATEGORY( 'part', 'NONE' );
#24 = PRODUCT_RELATED_PRODUCT_CATEGORY( 'detail', ' ', ( #59 ) );
#25 = PRODUCT_DEFINITION_SHAPE( 'NONE', 'NONE', #60 );
#26 = ADVANCED_BREP_SHAPE_REPRESENTATION( '1', ( #61, #62 ), #6 );
#29 = UNCERTAINTY_MEASURE_WITH_UNIT( LENGTH_MEASURE( 0.00100000000000000 ), #31, '', '' );
#31 =  ( CONVERSION_BASED_UNIT( 'MILLIMETRE', #65 )LENGTH_UNIT(  )NAMED_UNIT( #68 ) );
#32 =  ( NAMED_UNIT( #70 )PLANE_ANGLE_UNIT(  )SI_UNIT( $, .RADIAN. ) );
#33 =  ( NAMED_UNIT( #70 )SI_UNIT( $, .STERADIAN. )SOLID_ANGLE_UNIT(  ) );
#35 = PRESENTATION_STYLE_ASSIGNMENT( ( #76 ) );
#36 = ADVANCED_FACE( '', ( #77, #78 ), #79, .T. );
#37 = PRESENTATION_STYLE_ASSIGNMENT( ( #80 ) );
#38 = ADVANCED_FACE( '', ( #81 ), #82, .T. );
#39 = PRESENTATION_STYLE_ASSIGNMENT( ( #83 ) );
#40 = ADVANCED_FACE( '', ( #84 ), #85, .T. );
#41 = PRESENTATION_STYLE_ASSIGNMENT( ( #86 ) );
#42 = ADVANCED_FACE( '', ( #87, #88 ), #89, .T. );
#43 = PRESENTATION_STYLE_ASSIGNMENT( ( #90 ) );
#44 = ADVANCED_FACE( '', ( #91, #92 ), #93, .T. );
#45 = PRESENTATION_STYLE_ASSIGNMENT( ( #94 ) );
#46 = ADVANCED_FACE( '', ( #95 ), #96, .T. );
#47 = PRESENTATION_STYLE_ASSIGNMENT( ( #97 ) );
#48 = ADVANCED_FACE( '', ( #98 ), #99, .F. );
#49 = PRESENTATION_STYLE_ASSIGNMENT( ( #100 ) );
#50 = ADVANCED_FACE( '', ( #101 ), #102, .T. );
#51 = PRESENTATION_STYLE_ASSIGNMENT( ( #103 ) );
#52 = ADVANCED_FACE( '', ( #104 ), #105, .T. );
#53 = PRESENTATION_STYLE_ASSIGNMENT( ( #106 ) );
#54 = ADVANCED_FACE( '', ( #107, #108 ), #109, .F. );
#55 = PRESENTATION_STYLE_ASSIGNMENT( ( #110 ) );
#56 = ADVANCED_FACE( '', ( #111 ), #112, .T. );
#57 = PRESENTATION_STYLE_ASSIGNMENT( ( #113 ) );
#58 = ADVANCED_FACE( '', ( #114 ), #115, .F. );
#59 = PRODUCT( '1', '1', 'PART-1-DESC', ( #116 ) );
#60 = PRODUCT_DEFINITION( 'NONE', 'NONE', #117, #2 );
#61 = MANIFOLD_SOLID_BREP( '1', #118 );
#62 = AXIS2_PLACEMENT_3D( '', #119, #120, #121 );
#65 = LENGTH_MEASURE_WITH_UNIT( LENGTH_MEASURE( 1.00000000000000 ), #122 );
#68 = DIMENSIONAL_EXPONENTS( 1.00000000000000, 0.000000000000000, 0.000000000000000, 0.000000000000000, 0.000000000000000, 0.000000000000000, 0.000000000000000 );
#70 = DIMENSIONAL_EXPONENTS( 0.000000000000000, 0.000000000000000, 0.000000000000000, 0.000000000000000, 0.000000000000000, 0.000000000000000, 0.000000000000000 );
#76 = SURFACE_STYLE_USAGE( .BOTH., #123 );
#77 = FACE_OUTER_BOUND( '', #124, .T. );
#78 = FACE_OUTER_BOUND( '', #125, .T. );
#79 = CYLINDRICAL_SURFACE( '', #126, 4.00000000000000 );
#80 = SURFACE_STYLE_USAGE( .BOTH., #127 );
#81 = FACE_OUTER_BOUND( '', #128, .T. );
#82 = CONICAL_SURFACE( '', #129, 3.50000000000000, 0.785398163397448 );
#83 = SURFACE_STYLE_USAGE( .BOTH., #130 );
#84 = FACE_OUTER_BOUND( '', #131, .T. );
#85 = PLANE( '', #132 );
#86 = SURFACE_STYLE_USAGE( .BOTH., #133 );
#87 = FACE_OUTER_BOUND( '', #134, .T. );
#88 = FACE_OUTER_BOUND( '', #135, .T. );
#89 = CYLINDRICAL_SURFACE( '', #136, 3.50000000000000 );
#90 = SURFACE_STYLE_USAGE( .BOTH., #137 );
#91 = FACE_BOUND( '', #138, .T. );
#92 = FACE_OUTER_BOUND( '', #139, .T. );
#93 = CONICAL_SURFACE( '', #140, 4.00000000000000, 0.785398163397448 );
#94 = SURFACE_STYLE_USAGE( .BOTH., #141 );
#95 = FACE_OUTER_BOUND( '', #142, .T. );
#96 = SPHERICAL_SURFACE( '', #143, 2.00000000000000 );
#97 = SURFACE_STYLE_USAGE( .BOTH., #144 );
#98 = FACE_OUTER_BOUND( '', #145, .T. );
#99 = PLANE( '', #146 );
#100 = SURFACE_STYLE_USAGE( .BOTH., #147 );
#101 = FACE_OUTER_BOUND( '', #148, .T. );
#102 = PLANE( '', #149 );
#103 = SURFACE_STYLE_USAGE( .BOTH., #150 );
#104 = FACE_OUTER_BOUND( '', #151, .T. );
#105 = CONICAL_SURFACE( '', #152, 3.50000000000000, 0.785398163397448 );
#106 = SURFACE_STYLE_USAGE( .BOTH., #153 );
#107 = FACE_OUTER_BOUND( '', #154, .T. );
#108 = FACE_BOUND( '', #155, .T. );
#109 = PLANE( '', #156 );
#110 = SURFACE_STYLE_USAGE( .BOTH., #157 );
#111 = FACE_OUTER_BOUND( '', #158, .T. );
#112 = PLANE( '', #159 );
#113 = SURFACE_STYLE_USAGE( .BOTH., #160 );
#114 = FACE_OUTER_BOUND( '', #161, .T. );
#115 = PLANE( '', #162 );
#116 = PRODUCT_CONTEXT( '', #22, 'mechanical' );
#117 = PRODUCT_DEFINITION_FORMATION_WITH_SPECIFIED_SOURCE( ' ', 'NONE', #59, .NOT_KNOWN. );
#118 = CLOSED_SHELL( '', ( #36, #38, #40, #56, #52, #44, #46, #54, #58, #42, #48, #50 ) );
#119 = CARTESIAN_POINT( '', ( 0.000000000000000, 0.000000000000000, 0.000000000000000 ) );
#120 = DIRECTION( '', ( 0.000000000000000, 0.000000000000000, 1.00000000000000 ) );
#121 = DIRECTION( '', ( 1.00000000000000, 0.000000000000000, 0.000000000000000 ) );
#122 =  ( LENGTH_UNIT(  )NAMED_UNIT( #68 )SI_UNIT( .MILLI., .METRE. ) );
#123 = SURFACE_SIDE_STYLE( '', ( #164 ) );
#124 = EDGE_LOOP( '', ( #165 ) );
#125 = EDGE_LOOP( '', ( #166, #167, #168, #169, #170, #171, #172, #173 ) );
#126 = AXIS2_PLACEMENT_3D( '', #174, #175, #176 );
#127 = SURFACE_SIDE_STYLE( '', ( #177 ) );
#128 = EDGE_LOOP( '', ( #178, #179, #180, #181 ) );
#129 = AXIS2_PLACEMENT_3D( '', #182, #183, #184 );
#130 = SURFACE_SIDE_STYLE( '', ( #185 ) );
#131 = EDGE_LOOP( '', ( #186, #187, #188, #189 ) );
#132 = AXIS2_PLACEMENT_3D( '', #190, #191, #192 );
#133 = SURFACE_SIDE_STYLE( '', ( #193 ) );
#134 = EDGE_LOOP( '', ( #194 ) );
#135 = EDGE_LOOP( '', ( #195 ) );
#136 = AXIS2_PLACEMENT_3D( '', #196, #197, #198 );
#137 = SURFACE_SIDE_STYLE( '', ( #199 ) );
#138 = EDGE_LOOP( '', ( #200 ) );
#139 = EDGE_LOOP( '', ( #201 ) );
#140 = AXIS2_PLACEMENT_3D( '', #202, #203, #204 );
#141 = SURFACE_SIDE_STYLE( '', ( #205 ) );
#142 = EDGE_LOOP( '', ( #206 ) );
#143 = AXIS2_PLACEMENT_3D( '', #207, #208, #209 );
#144 = SURFACE_SIDE_STYLE( '', ( #210 ) );
#145 = EDGE_LOOP( '', ( #211, #212 ) );
#146 = AXIS2_PLACEMENT_3D( '', #213, #214, #215 );
#147 = SURFACE_SIDE_STYLE( '', ( #216 ) );
#148 = EDGE_LOOP( '', ( #217, #218, #219, #220, #221, #222 ) );
#149 = AXIS2_PLACEMENT_3D( '', #223, #224, #225 );
#150 = SURFACE_SIDE_STYLE( '', ( #226 ) );
#151 = EDGE_LOOP( '', ( #227, #228, #229, #230 ) );
#152 = AXIS2_PLACEMENT_3D( '', #231, #232, #233 );
#153 = SURFACE_SIDE_STYLE( '', ( #234 ) );
#154 = EDGE_LOOP( '', ( #235 ) );
#155 = EDGE_LOOP( '', ( #236 ) );
#156 = AXIS2_PLACEMENT_3D( '', #237, #238, #239 );
#157 = SURFACE_SIDE_STYLE( '', ( #240 ) );
#158 = EDGE_LOOP( '', ( #241, #242, #243, #244, #245, #246 ) );
#159 = AXIS2_PLACEMENT_3D( '', #247, #248, #249 );
#160 = SURFACE_SIDE_STYLE( '', ( #250 ) );
#161 = EDGE_LOOP( '', ( #251, #252 ) );
#162 = AXIS2_PLACEMENT_3D( '', #253, #254, #255 );
#164 = SURFACE_STYLE_FILL_AREA( #256 );
#165 = ORIENTED_EDGE( '', *, *, #257, .T. );
#166 = ORIENTED_EDGE( '', *, *, #258, .F. );
#167 = ORIENTED_EDGE( '', *, *, #259, .T. );
#168 = ORIENTED_EDGE( '', *, *, #260, .F. );
#169 = ORIENTED_EDGE( '', *, *, #261, .F. );
#170 = ORIENTED_EDGE( '', *, *, #262, .F. );
#171 = ORIENTED_EDGE( '', *, *, #263, .T. );
#172 = ORIENTED_EDGE( '', *, *, #264, .F. );
#173 = ORIENTED_EDGE( '', *, *, #265, .F. );
#174 = CARTESIAN_POINT( '', ( -2.61999122617424E-016, 0.000000000000000, 16.0000000000000 ) );
#175 = DIRECTION( '', ( 3.27498903271780E-017, -0.000000000000000, -1.00000000000000 ) );
#176 = DIRECTION( '', ( 1.00000000000000, 0.000000000000000, 3.27498903271780E-017 ) );
#177 = SURFACE_STYLE_FILL_AREA( #266 );
#178 = ORIENTED_EDGE( '', *, *, #267, .F. );
#179 = ORIENTED_EDGE( '', *, *, #263, .F. );
#180 = ORIENTED_EDGE( '', *, *, #268, .F. );
#181 = ORIENTED_EDGE( '', *, *, #269, .F. );
#182 = CARTESIAN_POINT( '', ( -3.27498903271780E-016, 0.000000000000000, 18.0000000000000 ) );
#183 = DIRECTION( '', ( 3.27498903271781E-017, -0.000000000000000, -1.00000000000000 ) );
#184 = DIRECTION( '', ( -1.00000000000000, 0.000000000000000, -3.27498903271781E-017 ) );
#185 = SURFACE_STYLE_FILL_AREA( #270 );
#186 = ORIENTED_EDGE( '', *, *, #265, .T. );
#187 = ORIENTED_EDGE( '', *, *, #271, .F. );
#188 = ORIENTED_EDGE( '', *, *, #261, .T. );
#189 = ORIENTED_EDGE( '', *, *, #272, .T. );
#190 = CARTESIAN_POINT( '', ( -0.500000000000000, -12.5000000000000, 17.0000000000000 ) );
#191 = DIRECTION( '', ( 0.000000000000000, 0.000000000000000, 1.00000000000000 ) );
#192 = DIRECTION( '', ( 1.00000000000000, 0.000000000000000, 0.000000000000000 ) );
#193 = SURFACE_STYLE_FILL_AREA( #273 );
#194 = ORIENTED_EDGE( '', *, *, #274, .T. );
#195 = ORIENTED_EDGE( '', *, *, #275, .T. );
#196 = CARTESIAN_POINT( '', ( -2.61999122617424E-016, 0.000000000000000, 16.0000000000000 ) );
#197 = DIRECTION( '', ( 3.27498903271780E-017, -0.000000000000000, -1.00000000000000 ) );
#198 = DIRECTION( '', ( 1.00000000000000, 0.000000000000000, 3.27498903271780E-017 ) );
#199 = SURFACE_STYLE_FILL_AREA( #276 );
#200 = ORIENTED_EDGE( '', *, *, #274, .F. );
#201 = ORIENTED_EDGE( '', *, *, #257, .F. );
#202 = CARTESIAN_POINT( '', ( 1.47374506472301E-016, 0.000000000000000, 3.50000000000000 ) );
#203 = DIRECTION( '', ( -3.27498903271780E-017, 0.000000000000000, 1.00000000000000 ) );
#204 = DIRECTION( '', ( 1.00000000000000, 0.000000000000000, 3.27498903271780E-017 ) );
#205 = SURFACE_STYLE_FILL_AREA( #277 );
#206 = ORIENTED_EDGE( '', *, *, #278, .F. );
#207 = CARTESIAN_POINT( '', ( 0.000000000000000, 0.000000000000000, 2.00000000000000 ) );
#208 = DIRECTION( '', ( -3.27498903271780E-017, 0.000000000000000, 1.00000000000000 ) );
#209 = DIRECTION( '', ( 1.00000000000000, 0.000000000000000, 3.27498903271780E-017 ) );
#210 = SURFACE_STYLE_FILL_AREA( #279 );
#211 = ORIENTED_EDGE( '', *, *, #280, .T. );
#212 = ORIENTED_EDGE( '', *, *, #269, .T. );
#213 = CARTESIAN_POINT( '', ( 4.00000000000000, 0.000000000000000, 18.0000000000000 ) );
#214 = DIRECTION( '', ( 3.27498903271780E-017, 0.000000000000000, -1.00000000000000 ) );
#215 = DIRECTION( '', ( -1.00000000000000, 0.000000000000000, -3.27498903271780E-017 ) );
#216 = SURFACE_STYLE_FILL_AREA( #281 );
#217 = ORIENTED_EDGE( '', *, *, #280, .F. );
#218 = ORIENTED_EDGE( '', *, *, #268, .T. );
#219 = ORIENTED_EDGE( '', *, *, #262, .T. );
#220 = ORIENTED_EDGE( '', *, *, #271, .T. );
#221 = ORIENTED_EDGE( '', *, *, #264, .T. );
#222 = ORIENTED_EDGE( '', *, *, #267, .T. );
#223 = CARTESIAN_POINT( '', ( -0.500000000000000, -12.5000000000000, 18.0000000000000 ) );
#224 = DIRECTION( '', ( 1.00000000000000, 0.000000000000000, 1.08420217248550E-016 ) );
#225 = DIRECTION( '', ( 1.08420217248550E-016, 0.000000000000000, -1.00000000000000 ) );
#226 = SURFACE_STYLE_FILL_AREA( #282 );
#227 = ORIENTED_EDGE( '', *, *, #283, .F. );
#228 = ORIENTED_EDGE( '', *, *, #259, .F. );
#229 = ORIENTED_EDGE( '', *, *, #284, .F. );
#230 = ORIENTED_EDGE( '', *, *, #285, .F. );
#231 = CARTESIAN_POINT( '', ( -3.27498903271780E-016, 0.000000000000000, 18.0000000000000 ) );
#232 = DIRECTION( '', ( 3.27498903271781E-017, -0.000000000000000, -1.00000000000000 ) );
#233 = DIRECTION( '', ( -1.00000000000000, 0.000000000000000, -3.27498903271781E-017 ) );
#234 = SURFACE_STYLE_FILL_AREA( #286 );
#235 = ORIENTED_EDGE( '', *, *, #275, .F. );
#236 = ORIENTED_EDGE( '', *, *, #278, .T. );
#237 = CARTESIAN_POINT( '', ( 2.00000000000000, 0.000000000000000, 2.00000000000000 ) );
#238 = DIRECTION( '', ( -3.27498903271780E-017, 0.000000000000000, 1.00000000000000 ) );
#239 = DIRECTION( '', ( 1.00000000000000, 0.000000000000000, 3.27498903271780E-017 ) );
#240 = SURFACE_STYLE_FILL_AREA( #287 );
#241 = ORIENTED_EDGE( '', *, *, #288, .T. );
#242 = ORIENTED_EDGE( '', *, *, #284, .T. );
#243 = ORIENTED_EDGE( '', *, *, #258, .T. );
#244 = ORIENTED_EDGE( '', *, *, #272, .F. );
#245 = ORIENTED_EDGE( '', *, *, #260, .T. );
#246 = ORIENTED_EDGE( '', *, *, #283, .T. );
#247 = CARTESIAN_POINT( '', ( 0.500000000000000, -12.5000000000000, 17.0000000000000 ) );
#248 = DIRECTION( '', ( -1.00000000000000, 0.000000000000000, 1.08420217248550E-016 ) );
#249 = DIRECTION( '', ( 1.08420217248550E-016, 0.000000000000000, 1.00000000000000 ) );
#250 = SURFACE_STYLE_FILL_AREA( #289 );
#251 = ORIENTED_EDGE( '', *, *, #288, .F. );
#252 = ORIENTED_EDGE( '', *, *, #285, .T. );
#253 = CARTESIAN_POINT( '', ( 4.00000000000000, 0.000000000000000, 18.0000000000000 ) );
#254 = DIRECTION( '', ( 3.27498903271780E-017, 0.000000000000000, -1.00000000000000 ) );
#255 = DIRECTION( '', ( -1.00000000000000, 0.000000000000000, -3.27498903271780E-017 ) );
#256 = FILL_AREA_STYLE( '', ( #290 ) );
#257 = EDGE_CURVE( '', #291, #291, #292, .T. );
#258 = EDGE_CURVE( '', #293, #294, #295, .F. );
#259 = EDGE_CURVE( '', #293, #296, #297, .T. );
#260 = EDGE_CURVE( '', #298, #296, #299, .T. );
#261 = EDGE_CURVE( '', #300, #298, #301, .T. );
#262 = EDGE_CURVE( '', #302, #300, #303, .F. );
#263 = EDGE_CURVE( '', #302, #304, #305, .T. );
#264 = EDGE_CURVE( '', #306, #304, #307, .T. );
#265 = EDGE_CURVE( '', #294, #306, #308, .T. );
#266 = FILL_AREA_STYLE( '', ( #309 ) );
#267 = EDGE_CURVE( '', #304, #310, #311, .T. );
#268 = EDGE_CURVE( '', #312, #302, #313, .T. );
#269 = EDGE_CURVE( '', #310, #312, #314, .F. );
#270 = FILL_AREA_STYLE( '', ( #315 ) );
#271 = EDGE_CURVE( '', #300, #306, #316, .T. );
#272 = EDGE_CURVE( '', #298, #294, #317, .T. );
#273 = FILL_AREA_STYLE( '', ( #318 ) );
#274 = EDGE_CURVE( '', #319, #319, #320, .F. );
#275 = EDGE_CURVE( '', #321, #321, #322, .T. );
#276 = FILL_AREA_STYLE( '', ( #323 ) );
#277 = FILL_AREA_STYLE( '', ( #324 ) );
#278 = EDGE_CURVE( '', #325, #325, #326, .T. );
#279 = FILL_AREA_STYLE( '', ( #327 ) );
#280 = EDGE_CURVE( '', #312, #310, #328, .T. );
#281 = FILL_AREA_STYLE( '', ( #329 ) );
#282 = FILL_AREA_STYLE( '', ( #330 ) );
#283 = EDGE_CURVE( '', #296, #331, #332, .T. );
#284 = EDGE_CURVE( '', #333, #293, #334, .T. );
#285 = EDGE_CURVE( '', #331, #333, #335, .F. );
#286 = FILL_AREA_STYLE( '', ( #336 ) );
#287 = FILL_AREA_STYLE( '', ( #337 ) );
#288 = EDGE_CURVE( '', #331, #333, #338, .T. );
#289 = FILL_AREA_STYLE( '', ( #339 ) );
#290 = FILL_AREA_STYLE_COLOUR( '', #340 );
#291 = VERTEX_POINT( '', #341 );
#292 = CIRCLE( '', #342, 4.00000000000000 );
#293 = VERTEX_POINT( '', #343 );
#294 = VERTEX_POINT( '', #344 );
#295 = LINE( '', #345, #346 );
#296 = VERTEX_POINT( '', #347 );
#297 = CIRCLE( '', #348, 4.00000000000000 );
#298 = VERTEX_POINT( '', #349 );
#299 = LINE( '', #350, #351 );
#300 = VERTEX_POINT( '', #352 );
#301 = CIRCLE( '', #353, 4.00000000000000 );
#302 = VERTEX_POINT( '', #354 );
#303 = LINE( '', #355, #356 );
#304 = VERTEX_POINT( '', #357 );
#305 = CIRCLE( '', #358, 4.00000000000000 );
#306 = VERTEX_POINT( '', #359 );
#307 = LINE( '', #360, #361 );
#308 = CIRCLE( '', #362, 4.00000000000000 );
#309 = FILL_AREA_STYLE_COLOUR( '', #363 );
#310 = VERTEX_POINT( '', #364 );
#311 = B_SPLINE_CURVE_WITH_KNOTS( '', 3, ( #365, #366, #367, #368 ), .UNSPECIFIED., .F., .F., ( 4, 4 ), ( 0.000000000000000, 0.000710313895587687 ), .UNSPECIFIED. );
#312 = VERTEX_POINT( '', #369 );
#313 = B_SPLINE_CURVE_WITH_KNOTS( '', 3, ( #370, #371, #372, #373 ), .UNSPECIFIED., .F., .F., ( 4, 4 ), ( 0.000000000000000, 0.000710313895587687 ), .UNSPECIFIED. );
#314 = CIRCLE( '', #374, 3.50000000000000 );
#315 = FILL_AREA_STYLE_COLOUR( '', #375 );
#316 = LINE( '', #376, #377 );
#317 = LINE( '', #378, #379 );
#318 = FILL_AREA_STYLE_COLOUR( '', #380 );
#319 = VERTEX_POINT( '', #381 );
#320 = CIRCLE( '', #382, 3.50000000000000 );
#321 = VERTEX_POINT( '', #383 );
#322 = CIRCLE( '', #384, 3.50000000000000 );
#323 = FILL_AREA_STYLE_COLOUR( '', #385 );
#324 = FILL_AREA_STYLE_COLOUR( '', #386 );
#325 = VERTEX_POINT( '', #387 );
#326 = CIRCLE( '', #388, 2.00000000000000 );
#327 = FILL_AREA_STYLE_COLOUR( '', #389 );
#328 = LINE( '', #390, #391 );
#329 = FILL_AREA_STYLE_COLOUR( '', #392 );
#330 = FILL_AREA_STYLE_COLOUR( '', #393 );
#331 = VERTEX_POINT( '', #394 );
#332 = B_SPLINE_CURVE_WITH_KNOTS( '', 3, ( #395, #396, #397, #398 ), .UNSPECIFIED., .F., .F., ( 4, 4 ), ( 0.000000000000000, 0.000710313895587687 ), .UNSPECIFIED. );
#333 = VERTEX_POINT( '', #399 );
#334 = B_SPLINE_CURVE_WITH_KNOTS( '', 3, ( #400, #401, #402, #403 ), .UNSPECIFIED., .F., .F., ( 4, 4 ), ( 0.000000000000000, 0.000710313895587687 ), .UNSPECIFIED. );
#335 = CIRCLE( '', #404, 3.50000000000000 );
#336 = FILL_AREA_STYLE_COLOUR( '', #405 );
#337 = FILL_AREA_STYLE_COLOUR( '', #406 );
#338 = LINE( '', #407, #408 );
#339 = FILL_AREA_STYLE_COLOUR( '', #409 );
#340 = COLOUR_RGB( '', 0.752941191196442, 0.752941191196442, 0.752941191196442 );
#341 = CARTESIAN_POINT( '', ( 4.00000000000000, 0.000000000000000, 3.50000000000000 ) );
#342 = AXIS2_PLACEMENT_3D( '', #410, #411, #412 );
#343 = CARTESIAN_POINT( '', ( 0.500000000000000, 3.96862696659689, 17.5000000000000 ) );
#344 = CARTESIAN_POINT( '', ( 0.500000000000000, 3.96862696659689, 17.0000000000000 ) );
#345 = CARTESIAN_POINT( '', ( 0.500000000000000, 3.96862696659689, 16.0000000000000 ) );
#346 = VECTOR( '', #413, 1000.00000000000 );
#347 = CARTESIAN_POINT( '', ( 0.500000000000000, -3.96862696659689, 17.5000000000000 ) );
#348 = AXIS2_PLACEMENT_3D( '', #414, #415, #416 );
#349 = CARTESIAN_POINT( '', ( 0.500000000000000, -3.96862696659689, 17.0000000000000 ) );
#350 = CARTESIAN_POINT( '', ( 0.500000000000000, -3.96862696659689, 16.0000000000000 ) );
#351 = VECTOR( '', #417, 1000.00000000000 );
#352 = CARTESIAN_POINT( '', ( -0.500000000000000, -3.96862696659689, 17.0000000000000 ) );
#353 = AXIS2_PLACEMENT_3D( '', #418, #419, #420 );
#354 = CARTESIAN_POINT( '', ( -0.500000000000000, -3.96862696659689, 17.5000000000000 ) );
#355 = CARTESIAN_POINT( '', ( -0.500000000000000, -3.96862696659689, 16.0000000000000 ) );
#356 = VECTOR( '', #421, 1000.00000000000 );
#357 = CARTESIAN_POINT( '', ( -0.500000000000000, 3.96862696659689, 17.5000000000000 ) );
#358 = AXIS2_PLACEMENT_3D( '', #422, #423, #424 );
#359 = CARTESIAN_POINT( '', ( -0.500000000000000, 3.96862696659689, 17.0000000000000 ) );
#360 = CARTESIAN_POINT( '', ( -0.500000000000000, 3.96862696659689, 16.0000000000000 ) );
#361 = VECTOR( '', #425, 1000.00000000000 );
#362 = AXIS2_PLACEMENT_3D( '', #426, #427, #428 );
#363 = COLOUR_RGB( '', 0.800000011920929, 0.800000011920929, 0.800000011920929 );
#364 = CARTESIAN_POINT( '', ( -0.500000000000000, 3.46410161513775, 18.0000000000000 ) );
#365 = CARTESIAN_POINT( '', ( -0.500000000000000, 3.96862696659689, 17.5000000000000 ) );
#366 = CARTESIAN_POINT( '', ( -0.500000000000000, 3.80054652420263, 17.6667621440608 ) );
#367 = CARTESIAN_POINT( '', ( -0.500000000000000, 3.63238499612051, 17.8334426480391 ) );
#368 = CARTESIAN_POINT( '', ( -0.500000000000000, 3.46410161513775, 18.0000000000000 ) );
#369 = CARTESIAN_POINT( '', ( -0.500000000000000, -3.46410161513775, 18.0000000000000 ) );
#370 = CARTESIAN_POINT( '', ( -0.500000000000000, -3.46410161513775, 18.0000000000000 ) );
#371 = CARTESIAN_POINT( '', ( -0.500000000000000, -3.63238499612051, 17.8334426480391 ) );
#372 = CARTESIAN_POINT( '', ( -0.500000000000000, -3.80054652420263, 17.6667621440608 ) );
#373 = CARTESIAN_POINT( '', ( -0.500000000000000, -3.96862696659689, 17.5000000000000 ) );
#374 = AXIS2_PLACEMENT_3D( '', #429, #430, #431 );
#375 = COLOUR_RGB( '', 0.800000011920929, 0.800000011920929, 0.800000011920929 );
#376 = CARTESIAN_POINT( '', ( -0.500000000000000, -12.5000000000000, 17.0000000000000 ) );
#377 = VECTOR( '', #432, 1000.00000000000 );
#378 = CARTESIAN_POINT( '', ( 0.500000000000000, -12.5000000000000, 17.0000000000000 ) );
#379 = VECTOR( '', #433, 1000.00000000000 );
#380 = COLOUR_RGB( '', 0.800000011920929, 0.800000011920929, 0.800000011920929 );
#381 = CARTESIAN_POINT( '', ( 3.50000000000000, 0.000000000000000, 3.00000000000000 ) );
#382 = AXIS2_PLACEMENT_3D( '', #434, #435, #436 );
#383 = CARTESIAN_POINT( '', ( 3.50000000000000, 0.000000000000000, 2.00000000000000 ) );
#384 = AXIS2_PLACEMENT_3D( '', #437, #438, #439 );
#385 = COLOUR_RGB( '', 0.800000011920929, 0.800000011920929, 0.800000011920929 );
#386 = COLOUR_RGB( '', 0.800000011920929, 0.800000011920929, 0.800000011920929 );
#387 = CARTESIAN_POINT( '', ( 2.00000000000000, 0.000000000000000, 2.00000000000000 ) );
#388 = AXIS2_PLACEMENT_3D( '', #440, #441, #442 );
#389 = COLOUR_RGB( '', 0.800000011920929, 0.800000011920929, 0.800000011920929 );
#390 = CARTESIAN_POINT( '', ( -0.500000000000000, -12.5000000000000, 18.0000000000000 ) );
#391 = VECTOR( '', #443, 1000.00000000000 );
#392 = COLOUR_RGB( '', 0.800000011920929, 0.800000011920929, 0.800000011920929 );
#393 = COLOUR_RGB( '', 0.800000011920929, 0.800000011920929, 0.800000011920929 );
#394 = CARTESIAN_POINT( '', ( 0.500000000000000, -3.46410161513775, 18.0000000000000 ) );
#395 = CARTESIAN_POINT( '', ( 0.500000000000000, -3.96862696659689, 17.5000000000000 ) );
#396 = CARTESIAN_POINT( '', ( 0.500000000000000, -3.80054652420263, 17.6667621440608 ) );
#397 = CARTESIAN_POINT( '', ( 0.500000000000000, -3.63238499612051, 17.8334426480391 ) );
#398 = CARTESIAN_POINT( '', ( 0.500000000000000, -3.46410161513775, 18.0000000000000 ) );
#399 = CARTESIAN_POINT( '', ( 0.500000000000000, 3.46410161513775, 18.0000000000000 ) );
#400 = CARTESIAN_POINT( '', ( 0.500000000000000, 3.46410161513775, 18.0000000000000 ) );
#401 = CARTESIAN_POINT( '', ( 0.500000000000000, 3.63238499612051, 17.8334426480391 ) );
#402 = CARTESIAN_POINT( '', ( 0.500000000000000, 3.80054652420263, 17.6667621440608 ) );
#403 = CARTESIAN_POINT( '', ( 0.500000000000000, 3.96862696659689, 17.5000000000000 ) );
#404 = AXIS2_PLACEMENT_3D( '', #444, #445, #446 );
#405 = COLOUR_RGB( '', 0.800000011920929, 0.800000011920929, 0.800000011920929 );
#406 = COLOUR_RGB( '', 0.800000011920929, 0.800000011920929, 0.800000011920929 );
#407 = CARTESIAN_POINT( '', ( 0.500000000000000, -12.5000000000000, 18.0000000000000 ) );
#408 = VECTOR( '', #447, 1000.00000000000 );
#409 = COLOUR_RGB( '', 0.800000011920929, 0.800000011920929, 0.800000011920929 );
#410 = CARTESIAN_POINT( '', ( 1.47374506472301E-016, 0.000000000000000, 3.50000000000000 ) );
#411 = DIRECTION( '', ( -3.27498903271780E-017, 0.000000000000000, 1.00000000000000 ) );
#412 = DIRECTION( '', ( 1.00000000000000, 0.000000000000000, 3.27498903271780E-017 ) );
#413 = DIRECTION( '', ( -3.27498903271780E-017, 0.000000000000000, 1.00000000000000 ) );
#414 = CARTESIAN_POINT( '', ( -3.11123958108191E-016, 0.000000000000000, 17.5000000000000 ) );
#415 = DIRECTION( '', ( 3.27498903271781E-017, 0.000000000000000, -1.00000000000000 ) );
#416 = DIRECTION( '', ( -1.00000000000000, 0.000000000000000, -3.27498903271781E-017 ) );
#417 = DIRECTION( '', ( -3.27498903271780E-017, 0.000000000000000, 1.00000000000000 ) );
#418 = CARTESIAN_POINT( '', ( -2.94749012944602E-016, 0.000000000000000, 17.0000000000000 ) );
#419 = DIRECTION( '', ( 0.000000000000000, 0.000000000000000, 1.00000000000000 ) );
#420 = DIRECTION( '', ( 1.00000000000000, 0.000000000000000, 0.000000000000000 ) );
#421 = DIRECTION( '', ( -3.27498903271780E-017, 0.000000000000000, 1.00000000000000 ) );
#422 = CARTESIAN_POINT( '', ( -3.11123958108191E-016, 0.000000000000000, 17.5000000000000 ) );
#423 = DIRECTION( '', ( 3.27498903271781E-017, 0.000000000000000, -1.00000000000000 ) );
#424 = DIRECTION( '', ( -1.00000000000000, 0.000000000000000, -3.27498903271781E-017 ) );
#425 = DIRECTION( '', ( -3.27498903271780E-017, 0.000000000000000, 1.00000000000000 ) );
#426 = CARTESIAN_POINT( '', ( -2.94749012944602E-016, 0.000000000000000, 17.0000000000000 ) );
#427 = DIRECTION( '', ( 0.000000000000000, 0.000000000000000, 1.00000000000000 ) );
#428 = DIRECTION( '', ( 1.00000000000000, 0.000000000000000, 0.000000000000000 ) );
#429 = CARTESIAN_POINT( '', ( -3.27498903271780E-016, 0.000000000000000, 18.0000000000000 ) );
#430 = DIRECTION( '', ( 3.27498903271780E-017, 0.000000000000000, -1.00000000000000 ) );
#431 = DIRECTION( '', ( -1.00000000000000, 0.000000000000000, -3.27498903271780E-017 ) );
#432 = DIRECTION( '', ( 0.000000000000000, 1.00000000000000, 0.000000000000000 ) );
#433 = DIRECTION( '', ( 0.000000000000000, 1.00000000000000, 0.000000000000000 ) );
#434 = CARTESIAN_POINT( '', ( 1.63749451635890E-016, 0.000000000000000, 3.00000000000000 ) );
#435 = DIRECTION( '', ( -3.27498903271780E-017, 0.000000000000000, 1.00000000000000 ) );
#436 = DIRECTION( '', ( 1.00000000000000, 0.000000000000000, 3.27498903271780E-017 ) );
#437 = CARTESIAN_POINT( '', ( 1.96499341963068E-016, 0.000000000000000, 2.00000000000000 ) );
#438 = DIRECTION( '', ( -3.27498903271780E-017, 0.000000000000000, 1.00000000000000 ) );
#439 = DIRECTION( '', ( 1.00000000000000, 0.000000000000000, 3.27498903271780E-017 ) );
#440 = CARTESIAN_POINT( '', ( 1.96499341963068E-016, 0.000000000000000, 2.00000000000000 ) );
#441 = DIRECTION( '', ( -3.27498903271780E-017, 0.000000000000000, 1.00000000000000 ) );
#442 = DIRECTION( '', ( 1.00000000000000, 0.000000000000000, 3.27498903271780E-017 ) );
#443 = DIRECTION( '', ( 0.000000000000000, 1.00000000000000, 0.000000000000000 ) );
#444 = CARTESIAN_POINT( '', ( -3.27498903271780E-016, 0.000000000000000, 18.0000000000000 ) );
#445 = DIRECTION( '', ( 3.27498903271780E-017, 0.000000000000000, -1.00000000000000 ) );
#446 = DIRECTION( '', ( -1.00000000000000, 0.000000000000000, -3.27498903271780E-017 ) );
#447 = DIRECTION( '', ( 0.000000000000000, 1.00000000000000, 0.000000000000000 ) );
ENDSEC;
END-ISO-10303-21;
