ISO-10303-21;
HEADER;
FILE_DESCRIPTION( ( 'Unknown' ), '1' );
FILE_NAME( '//SBS2003/HD_Usb/Disegni/08_LIB/Users_3D/PROD_GAMM_3D/APP-I/7747225_APP_19_I.stp', 'Unknown', ( 'Unknown' ), ( 'Unknown' ), 'PSStep 14.0', 'Unknown', '  ' );
FILE_SCHEMA( ( 'AUTOMOTIVE_DESIGN { 1 0 10303 214 1 1 1 1 }' ) );
ENDSEC;
DATA;
#1 = MECHANICAL_DESIGN_GEOMETRIC_PRESENTATION_REPRESENTATION( ' ', ( #10, #11, #12, #13, #14, #15, #16, #17, #18, #19, #20, #21, #22 ), #6 );
#2 = PRODUCT_DEFINITION_CONTEXT( '', #23, 'design' );
#3 = APPLICATION_PROTOCOL_DEFINITION( 'international standard', 'automotive_design', 2001, #23 );
#4 = PRODUCT_CATEGORY_RELATIONSHIP( 'NONE', 'NONE', #24, #25 );
#5 = SHAPE_DEFINITION_REPRESENTATION( #26, #27 );
#6 =  ( GEOMETRIC_REPRESENTATION_CONTEXT( 3 )GLOBAL_UNCERTAINTY_ASSIGNED_CONTEXT( ( #30 ) )GLOBAL_UNIT_ASSIGNED_CONTEXT( ( #32, #33, #34 ) )REPRESENTATION_CONTEXT( 'NONE', 'WORKSPACE' ) );
#10 = STYLED_ITEM( '', ( #36 ), #37 );
#11 = STYLED_ITEM( '', ( #38 ), #39 );
#12 = STYLED_ITEM( '', ( #40 ), #41 );
#13 = STYLED_ITEM( '', ( #42 ), #43 );
#14 = STYLED_ITEM( '', ( #44 ), #45 );
#15 = STYLED_ITEM( '', ( #46 ), #47 );
#16 = STYLED_ITEM( '', ( #48 ), #49 );
#17 = STYLED_ITEM( '', ( #50 ), #51 );
#18 = STYLED_ITEM( '', ( #52 ), #53 );
#19 = STYLED_ITEM( '', ( #54 ), #55 );
#20 = STYLED_ITEM( '', ( #56 ), #57 );
#21 = STYLED_ITEM( '', ( #58 ), #59 );
#22 = STYLED_ITEM( '', ( #60 ), #61 );
#23 = APPLICATION_CONTEXT( 'core data for automotive mechanical design processes' );
#24 = PRODUCT_CATEGORY( 'part', 'NONE' );
#25 = PRODUCT_RELATED_PRODUCT_CATEGORY( 'detail', ' ', ( #62 ) );
#26 = PRODUCT_DEFINITION_SHAPE( 'NONE', 'NONE', #63 );
#27 = ADVANCED_BREP_SHAPE_REPRESENTATION( '1', ( #64, #65 ), #6 );
#30 = UNCERTAINTY_MEASURE_WITH_UNIT( LENGTH_MEASURE( 0.00100000000000000 ), #32, '', '' );
#32 =  ( CONVERSION_BASED_UNIT( 'MILLIMETRE', #68 )LENGTH_UNIT(  )NAMED_UNIT( #71 ) );
#33 =  ( NAMED_UNIT( #73 )PLANE_ANGLE_UNIT(  )SI_UNIT( $, .RADIAN. ) );
#34 =  ( NAMED_UNIT( #73 )SI_UNIT( $, .STERADIAN. )SOLID_ANGLE_UNIT(  ) );
#36 = PRESENTATION_STYLE_ASSIGNMENT( ( #79 ) );
#37 = ADVANCED_FACE( '', ( #80, #81 ), #82, .T. );
#38 = PRESENTATION_STYLE_ASSIGNMENT( ( #83 ) );
#39 = ADVANCED_FACE( '', ( #84 ), #85, .T. );
#40 = PRESENTATION_STYLE_ASSIGNMENT( ( #86 ) );
#41 = ADVANCED_FACE( '', ( #87 ), #88, .T. );
#42 = PRESENTATION_STYLE_ASSIGNMENT( ( #89 ) );
#43 = ADVANCED_FACE( '', ( #90 ), #91, .F. );
#44 = PRESENTATION_STYLE_ASSIGNMENT( ( #92 ) );
#45 = ADVANCED_FACE( '', ( #93 ), #94, .T. );
#46 = PRESENTATION_STYLE_ASSIGNMENT( ( #95 ) );
#47 = ADVANCED_FACE( '', ( #96 ), #97, .T. );
#48 = PRESENTATION_STYLE_ASSIGNMENT( ( #98 ) );
#49 = ADVANCED_FACE( '', ( #99 ), #100, .T. );
#50 = PRESENTATION_STYLE_ASSIGNMENT( ( #101 ) );
#51 = ADVANCED_FACE( '', ( #102, #103 ), #104, .T. );
#52 = PRESENTATION_STYLE_ASSIGNMENT( ( #105 ) );
#53 = ADVANCED_FACE( '', ( #106, #107 ), #108, .T. );
#54 = PRESENTATION_STYLE_ASSIGNMENT( ( #109 ) );
#55 = ADVANCED_FACE( '', ( #110, #111 ), #112, .T. );
#56 = PRESENTATION_STYLE_ASSIGNMENT( ( #113 ) );
#57 = ADVANCED_FACE( '', ( #114, #115 ), #116, .F. );
#58 = PRESENTATION_STYLE_ASSIGNMENT( ( #117 ) );
#59 = ADVANCED_FACE( '', ( #118 ), #119, .T. );
#60 = PRESENTATION_STYLE_ASSIGNMENT( ( #120 ) );
#61 = ADVANCED_FACE( '', ( #121 ), #122, .F. );
#62 = PRODUCT( '1', '1', 'PART-1-DESC', ( #123 ) );
#63 = PRODUCT_DEFINITION( 'NONE', 'NONE', #124, #2 );
#64 = MANIFOLD_SOLID_BREP( '1', #125 );
#65 = AXIS2_PLACEMENT_3D( '', #126, #127, #128 );
#68 = LENGTH_MEASURE_WITH_UNIT( LENGTH_MEASURE( 1.00000000000000 ), #129 );
#71 = DIMENSIONAL_EXPONENTS( 1.00000000000000, 0.000000000000000, 0.000000000000000, 0.000000000000000, 0.000000000000000, 0.000000000000000, 0.000000000000000 );
#73 = DIMENSIONAL_EXPONENTS( 0.000000000000000, 0.000000000000000, 0.000000000000000, 0.000000000000000, 0.000000000000000, 0.000000000000000, 0.000000000000000 );
#79 = SURFACE_STYLE_USAGE( .BOTH., #130 );
#80 = FACE_OUTER_BOUND( '', #131, .T. );
#81 = FACE_OUTER_BOUND( '', #132, .T. );
#82 = CYLINDRICAL_SURFACE( '', #133, 5.00000000000000 );
#83 = SURFACE_STYLE_USAGE( .BOTH., #134 );
#84 = FACE_OUTER_BOUND( '', #135, .T. );
#85 = CONICAL_SURFACE( '', #136, 4.00000000000000, 0.785398163397448 );
#86 = SURFACE_STYLE_USAGE( .BOTH., #137 );
#87 = FACE_OUTER_BOUND( '', #138, .T. );
#88 = PLANE( '', #139 );
#89 = SURFACE_STYLE_USAGE( .BOTH., #140 );
#90 = FACE_OUTER_BOUND( '', #141, .T. );
#91 = PLANE( '', #142 );
#92 = SURFACE_STYLE_USAGE( .BOTH., #143 );
#93 = FACE_OUTER_BOUND( '', #144, .T. );
#94 = PLANE( '', #145 );
#95 = SURFACE_STYLE_USAGE( .BOTH., #146 );
#96 = FACE_OUTER_BOUND( '', #147, .T. );
#97 = PLANE( '', #148 );
#98 = SURFACE_STYLE_USAGE( .BOTH., #149 );
#99 = FACE_OUTER_BOUND( '', #150, .T. );
#100 = SPHERICAL_SURFACE( '', #151, 2.25000000000000 );
#101 = SURFACE_STYLE_USAGE( .BOTH., #152 );
#102 = FACE_OUTER_BOUND( '', #153, .T. );
#103 = FACE_OUTER_BOUND( '', #154, .T. );
#104 = CYLINDRICAL_SURFACE( '', #155, 3.25000000000000 );
#105 = SURFACE_STYLE_USAGE( .BOTH., #156 );
#106 = FACE_BOUND( '', #157, .T. );
#107 = FACE_OUTER_BOUND( '', #158, .T. );
#108 = CONICAL_SURFACE( '', #159, 5.00000000000000, 0.785398163397448 );
#109 = SURFACE_STYLE_USAGE( .BOTH., #160 );
#110 = FACE_OUTER_BOUND( '', #161, .T. );
#111 = FACE_OUTER_BOUND( '', #162, .T. );
#112 = CYLINDRICAL_SURFACE( '', #163, 2.25000000000000 );
#113 = SURFACE_STYLE_USAGE( .BOTH., #164 );
#114 = FACE_OUTER_BOUND( '', #165, .T. );
#115 = FACE_BOUND( '', #166, .T. );
#116 = PLANE( '', #167 );
#117 = SURFACE_STYLE_USAGE( .BOTH., #168 );
#118 = FACE_OUTER_BOUND( '', #169, .T. );
#119 = CONICAL_SURFACE( '', #170, 4.00000000000000, 0.785398163397448 );
#120 = SURFACE_STYLE_USAGE( .BOTH., #171 );
#121 = FACE_OUTER_BOUND( '', #172, .T. );
#122 = PLANE( '', #173 );
#123 = PRODUCT_CONTEXT( '', #23, 'mechanical' );
#124 = PRODUCT_DEFINITION_FORMATION_WITH_SPECIFIED_SOURCE( ' ', 'NONE', #62, .NOT_KNOWN. );
#125 = CLOSED_SHELL( '', ( #37, #39, #41, #45, #59, #53, #55, #57, #61, #51, #49, #43, #47 ) );
#126 = CARTESIAN_POINT( '', ( 0.000000000000000, 0.000000000000000, 0.000000000000000 ) );
#127 = DIRECTION( '', ( 0.000000000000000, 0.000000000000000, 1.00000000000000 ) );
#128 = DIRECTION( '', ( 1.00000000000000, 0.000000000000000, 0.000000000000000 ) );
#129 =  ( LENGTH_UNIT(  )NAMED_UNIT( #71 )SI_UNIT( .MILLI., .METRE. ) );
#130 = SURFACE_SIDE_STYLE( '', ( #175 ) );
#131 = EDGE_LOOP( '', ( #176 ) );
#132 = EDGE_LOOP( '', ( #177, #178, #179, #180, #181, #182, #183, #184 ) );
#133 = AXIS2_PLACEMENT_3D( '', #185, #186, #187 );
#134 = SURFACE_SIDE_STYLE( '', ( #188 ) );
#135 = EDGE_LOOP( '', ( #189, #190, #191, #192 ) );
#136 = AXIS2_PLACEMENT_3D( '', #193, #194, #195 );
#137 = SURFACE_SIDE_STYLE( '', ( #196 ) );
#138 = EDGE_LOOP( '', ( #197, #198, #199, #200 ) );
#139 = AXIS2_PLACEMENT_3D( '', #201, #202, #203 );
#140 = SURFACE_SIDE_STYLE( '', ( #204 ) );
#141 = EDGE_LOOP( '', ( #205, #206 ) );
#142 = AXIS2_PLACEMENT_3D( '', #207, #208, #209 );
#143 = SURFACE_SIDE_STYLE( '', ( #210 ) );
#144 = EDGE_LOOP( '', ( #211, #212, #213, #214, #215, #216 ) );
#145 = AXIS2_PLACEMENT_3D( '', #217, #218, #219 );
#146 = SURFACE_SIDE_STYLE( '', ( #220 ) );
#147 = EDGE_LOOP( '', ( #221, #222, #223, #224, #225, #226 ) );
#148 = AXIS2_PLACEMENT_3D( '', #227, #228, #229 );
#149 = SURFACE_SIDE_STYLE( '', ( #230 ) );
#150 = EDGE_LOOP( '', ( #231 ) );
#151 = AXIS2_PLACEMENT_3D( '', #232, #233, #234 );
#152 = SURFACE_SIDE_STYLE( '', ( #235 ) );
#153 = EDGE_LOOP( '', ( #236 ) );
#154 = EDGE_LOOP( '', ( #237 ) );
#155 = AXIS2_PLACEMENT_3D( '', #238, #239, #240 );
#156 = SURFACE_SIDE_STYLE( '', ( #241 ) );
#157 = EDGE_LOOP( '', ( #242 ) );
#158 = EDGE_LOOP( '', ( #243 ) );
#159 = AXIS2_PLACEMENT_3D( '', #244, #245, #246 );
#160 = SURFACE_SIDE_STYLE( '', ( #247 ) );
#161 = EDGE_LOOP( '', ( #248 ) );
#162 = EDGE_LOOP( '', ( #249 ) );
#163 = AXIS2_PLACEMENT_3D( '', #250, #251, #252 );
#164 = SURFACE_SIDE_STYLE( '', ( #253 ) );
#165 = EDGE_LOOP( '', ( #254 ) );
#166 = EDGE_LOOP( '', ( #255 ) );
#167 = AXIS2_PLACEMENT_3D( '', #256, #257, #258 );
#168 = SURFACE_SIDE_STYLE( '', ( #259 ) );
#169 = EDGE_LOOP( '', ( #260, #261, #262, #263 ) );
#170 = AXIS2_PLACEMENT_3D( '', #264, #265, #266 );
#171 = SURFACE_SIDE_STYLE( '', ( #267 ) );
#172 = EDGE_LOOP( '', ( #268, #269 ) );
#173 = AXIS2_PLACEMENT_3D( '', #270, #271, #272 );
#175 = SURFACE_STYLE_FILL_AREA( #273 );
#176 = ORIENTED_EDGE( '', *, *, #274, .T. );
#177 = ORIENTED_EDGE( '', *, *, #275, .F. );
#178 = ORIENTED_EDGE( '', *, *, #276, .T. );
#179 = ORIENTED_EDGE( '', *, *, #277, .F. );
#180 = ORIENTED_EDGE( '', *, *, #278, .F. );
#181 = ORIENTED_EDGE( '', *, *, #279, .F. );
#182 = ORIENTED_EDGE( '', *, *, #280, .T. );
#183 = ORIENTED_EDGE( '', *, *, #281, .F. );
#184 = ORIENTED_EDGE( '', *, *, #282, .F. );
#185 = CARTESIAN_POINT( '', ( -2.61999122617424E-016, 0.000000000000000, 16.0000000000000 ) );
#186 = DIRECTION( '', ( 3.27498903271780E-017, -0.000000000000000, -1.00000000000000 ) );
#187 = DIRECTION( '', ( 1.00000000000000, 0.000000000000000, 3.27498903271780E-017 ) );
#188 = SURFACE_STYLE_FILL_AREA( #283 );
#189 = ORIENTED_EDGE( '', *, *, #284, .F. );
#190 = ORIENTED_EDGE( '', *, *, #280, .F. );
#191 = ORIENTED_EDGE( '', *, *, #285, .F. );
#192 = ORIENTED_EDGE( '', *, *, #286, .F. );
#193 = CARTESIAN_POINT( '', ( -4.42123519416903E-016, 0.000000000000000, 21.5000000000000 ) );
#194 = DIRECTION( '', ( 3.27498903271780E-017, -0.000000000000000, -1.00000000000000 ) );
#195 = DIRECTION( '', ( -1.00000000000000, 0.000000000000000, -3.27498903271780E-017 ) );
#196 = SURFACE_STYLE_FILL_AREA( #287 );
#197 = ORIENTED_EDGE( '', *, *, #282, .T. );
#198 = ORIENTED_EDGE( '', *, *, #288, .F. );
#199 = ORIENTED_EDGE( '', *, *, #278, .T. );
#200 = ORIENTED_EDGE( '', *, *, #289, .T. );
#201 = CARTESIAN_POINT( '', ( -0.750000000000000, -12.5000000000000, 20.2000000000000 ) );
#202 = DIRECTION( '', ( 0.000000000000000, 0.000000000000000, 1.00000000000000 ) );
#203 = DIRECTION( '', ( 1.00000000000000, 0.000000000000000, 0.000000000000000 ) );
#204 = SURFACE_STYLE_FILL_AREA( #290 );
#205 = ORIENTED_EDGE( '', *, *, #291, .T. );
#206 = ORIENTED_EDGE( '', *, *, #286, .T. );
#207 = CARTESIAN_POINT( '', ( 5.00000000000000, 0.000000000000000, 21.5000000000000 ) );
#208 = DIRECTION( '', ( 3.27498903271780E-017, 0.000000000000000, -1.00000000000000 ) );
#209 = DIRECTION( '', ( -1.00000000000000, 0.000000000000000, -3.27498903271780E-017 ) );
#210 = SURFACE_STYLE_FILL_AREA( #292 );
#211 = ORIENTED_EDGE( '', *, *, #293, .T. );
#212 = ORIENTED_EDGE( '', *, *, #294, .T. );
#213 = ORIENTED_EDGE( '', *, *, #275, .T. );
#214 = ORIENTED_EDGE( '', *, *, #289, .F. );
#215 = ORIENTED_EDGE( '', *, *, #277, .T. );
#216 = ORIENTED_EDGE( '', *, *, #295, .T. );
#217 = CARTESIAN_POINT( '', ( 0.750000000000000, -12.5000000000000, 20.2000000000000 ) );
#218 = DIRECTION( '', ( -1.00000000000000, 0.000000000000000, 8.34001671142696E-017 ) );
#219 = DIRECTION( '', ( 8.34001671142696E-017, 0.000000000000000, 1.00000000000000 ) );
#220 = SURFACE_STYLE_FILL_AREA( #296 );
#221 = ORIENTED_EDGE( '', *, *, #291, .F. );
#222 = ORIENTED_EDGE( '', *, *, #285, .T. );
#223 = ORIENTED_EDGE( '', *, *, #279, .T. );
#224 = ORIENTED_EDGE( '', *, *, #288, .T. );
#225 = ORIENTED_EDGE( '', *, *, #281, .T. );
#226 = ORIENTED_EDGE( '', *, *, #284, .T. );
#227 = CARTESIAN_POINT( '', ( -0.750000000000000, -12.5000000000000, 21.5000000000000 ) );
#228 = DIRECTION( '', ( 1.00000000000000, 0.000000000000000, 8.34001671142696E-017 ) );
#229 = DIRECTION( '', ( 8.34001671142696E-017, 0.000000000000000, -1.00000000000000 ) );
#230 = SURFACE_STYLE_FILL_AREA( #297 );
#231 = ORIENTED_EDGE( '', *, *, #298, .F. );
#232 = CARTESIAN_POINT( '', ( 2.35744508835865E-015, 0.000000000000000, 2.25000000000000 ) );
#233 = DIRECTION( '', ( -3.27498903271780E-017, 0.000000000000000, 1.00000000000000 ) );
#234 = DIRECTION( '', ( -1.00000000000000, 0.000000000000000, -3.27498903271780E-017 ) );
#235 = SURFACE_STYLE_FILL_AREA( #299 );
#236 = ORIENTED_EDGE( '', *, *, #300, .T. );
#237 = ORIENTED_EDGE( '', *, *, #301, .T. );
#238 = CARTESIAN_POINT( '', ( -2.61999122617424E-016, 0.000000000000000, 16.0000000000000 ) );
#239 = DIRECTION( '', ( 3.27498903271780E-017, -0.000000000000000, -1.00000000000000 ) );
#240 = DIRECTION( '', ( 1.00000000000000, 0.000000000000000, 3.27498903271780E-017 ) );
#241 = SURFACE_STYLE_FILL_AREA( #302 );
#242 = ORIENTED_EDGE( '', *, *, #300, .F. );
#243 = ORIENTED_EDGE( '', *, *, #274, .F. );
#244 = CARTESIAN_POINT( '', ( 9.82496709815340E-017, 0.000000000000000, 5.00000000000000 ) );
#245 = DIRECTION( '', ( -3.27498903271780E-017, 0.000000000000000, 1.00000000000000 ) );
#246 = DIRECTION( '', ( 1.00000000000000, 0.000000000000000, 3.27498903271780E-017 ) );
#247 = SURFACE_STYLE_FILL_AREA( #303 );
#248 = ORIENTED_EDGE( '', *, *, #304, .F. );
#249 = ORIENTED_EDGE( '', *, *, #298, .T. );
#250 = CARTESIAN_POINT( '', ( -2.61999122617424E-016, 0.000000000000000, 16.0000000000000 ) );
#251 = DIRECTION( '', ( 3.27498903271780E-017, -0.000000000000000, -1.00000000000000 ) );
#252 = DIRECTION( '', ( 1.00000000000000, 0.000000000000000, 3.27498903271780E-017 ) );
#253 = SURFACE_STYLE_FILL_AREA( #305 );
#254 = ORIENTED_EDGE( '', *, *, #301, .F. );
#255 = ORIENTED_EDGE( '', *, *, #304, .T. );
#256 = CARTESIAN_POINT( '', ( 2.25000000000000, 0.000000000000000, 2.50000000000000 ) );
#257 = DIRECTION( '', ( -3.27498903271780E-017, 0.000000000000000, 1.00000000000000 ) );
#258 = DIRECTION( '', ( 1.00000000000000, 0.000000000000000, 3.27498903271780E-017 ) );
#259 = SURFACE_STYLE_FILL_AREA( #306 );
#260 = ORIENTED_EDGE( '', *, *, #295, .F. );
#261 = ORIENTED_EDGE( '', *, *, #276, .F. );
#262 = ORIENTED_EDGE( '', *, *, #294, .F. );
#263 = ORIENTED_EDGE( '', *, *, #307, .F. );
#264 = CARTESIAN_POINT( '', ( -4.42123519416903E-016, 0.000000000000000, 21.5000000000000 ) );
#265 = DIRECTION( '', ( 3.27498903271780E-017, -0.000000000000000, -1.00000000000000 ) );
#266 = DIRECTION( '', ( -1.00000000000000, 0.000000000000000, -3.27498903271780E-017 ) );
#267 = SURFACE_STYLE_FILL_AREA( #308 );
#268 = ORIENTED_EDGE( '', *, *, #293, .F. );
#269 = ORIENTED_EDGE( '', *, *, #307, .T. );
#270 = CARTESIAN_POINT( '', ( 5.00000000000000, 0.000000000000000, 21.5000000000000 ) );
#271 = DIRECTION( '', ( 3.27498903271780E-017, 0.000000000000000, -1.00000000000000 ) );
#272 = DIRECTION( '', ( -1.00000000000000, 0.000000000000000, -3.27498903271780E-017 ) );
#273 = FILL_AREA_STYLE( '', ( #309 ) );
#274 = EDGE_CURVE( '', #310, #310, #311, .T. );
#275 = EDGE_CURVE( '', #312, #313, #314, .F. );
#276 = EDGE_CURVE( '', #312, #315, #316, .T. );
#277 = EDGE_CURVE( '', #317, #315, #318, .T. );
#278 = EDGE_CURVE( '', #319, #317, #320, .T. );
#279 = EDGE_CURVE( '', #321, #319, #322, .F. );
#280 = EDGE_CURVE( '', #321, #323, #324, .T. );
#281 = EDGE_CURVE( '', #325, #323, #326, .T. );
#282 = EDGE_CURVE( '', #313, #325, #327, .T. );
#283 = FILL_AREA_STYLE( '', ( #328 ) );
#284 = EDGE_CURVE( '', #323, #329, #330, .T. );
#285 = EDGE_CURVE( '', #331, #321, #332, .T. );
#286 = EDGE_CURVE( '', #329, #331, #333, .F. );
#287 = FILL_AREA_STYLE( '', ( #334 ) );
#288 = EDGE_CURVE( '', #319, #325, #335, .T. );
#289 = EDGE_CURVE( '', #317, #313, #336, .T. );
#290 = FILL_AREA_STYLE( '', ( #337 ) );
#291 = EDGE_CURVE( '', #331, #329, #338, .T. );
#292 = FILL_AREA_STYLE( '', ( #339 ) );
#293 = EDGE_CURVE( '', #340, #341, #342, .T. );
#294 = EDGE_CURVE( '', #341, #312, #343, .T. );
#295 = EDGE_CURVE( '', #315, #340, #344, .T. );
#296 = FILL_AREA_STYLE( '', ( #345 ) );
#297 = FILL_AREA_STYLE( '', ( #346 ) );
#298 = EDGE_CURVE( '', #347, #347, #348, .T. );
#299 = FILL_AREA_STYLE( '', ( #349 ) );
#300 = EDGE_CURVE( '', #350, #350, #351, .F. );
#301 = EDGE_CURVE( '', #352, #352, #353, .T. );
#302 = FILL_AREA_STYLE( '', ( #354 ) );
#303 = FILL_AREA_STYLE( '', ( #355 ) );
#304 = EDGE_CURVE( '', #356, #356, #357, .T. );
#305 = FILL_AREA_STYLE( '', ( #358 ) );
#306 = FILL_AREA_STYLE( '', ( #359 ) );
#307 = EDGE_CURVE( '', #340, #341, #360, .F. );
#308 = FILL_AREA_STYLE( '', ( #361 ) );
#309 = FILL_AREA_STYLE_COLOUR( '', #362 );
#310 = VERTEX_POINT( '', #363 );
#311 = CIRCLE( '', #364, 5.00000000000000 );
#312 = VERTEX_POINT( '', #365 );
#313 = VERTEX_POINT( '', #366 );
#314 = LINE( '', #367, #368 );
#315 = VERTEX_POINT( '', #369 );
#316 = CIRCLE( '', #370, 5.00000000000000 );
#317 = VERTEX_POINT( '', #371 );
#318 = LINE( '', #372, #373 );
#319 = VERTEX_POINT( '', #374 );
#320 = CIRCLE( '', #375, 5.00000000000000 );
#321 = VERTEX_POINT( '', #376 );
#322 = LINE( '', #377, #378 );
#323 = VERTEX_POINT( '', #379 );
#324 = CIRCLE( '', #380, 5.00000000000000 );
#325 = VERTEX_POINT( '', #381 );
#326 = LINE( '', #382, #383 );
#327 = CIRCLE( '', #384, 5.00000000000000 );
#328 = FILL_AREA_STYLE_COLOUR( '', #385 );
#329 = VERTEX_POINT( '', #386 );
#330 = B_SPLINE_CURVE_WITH_KNOTS( '', 3, ( #387, #388, #389, #390 ), .UNSPECIFIED., .F., .F., ( 4, 4 ), ( 0.000000000000000, 0.00142441204922309 ), .UNSPECIFIED. );
#331 = VERTEX_POINT( '', #391 );
#332 = B_SPLINE_CURVE_WITH_KNOTS( '', 3, ( #392, #393, #394, #395 ), .UNSPECIFIED., .F., .F., ( 4, 4 ), ( 0.000000000000000, 0.00142441204922309 ), .UNSPECIFIED. );
#333 = CIRCLE( '', #396, 4.00000000000000 );
#334 = FILL_AREA_STYLE_COLOUR( '', #397 );
#335 = LINE( '', #398, #399 );
#336 = LINE( '', #400, #401 );
#337 = FILL_AREA_STYLE_COLOUR( '', #402 );
#338 = LINE( '', #403, #404 );
#339 = FILL_AREA_STYLE_COLOUR( '', #405 );
#340 = VERTEX_POINT( '', #406 );
#341 = VERTEX_POINT( '', #407 );
#342 = LINE( '', #408, #409 );
#343 = B_SPLINE_CURVE_WITH_KNOTS( '', 3, ( #410, #411, #412, #413 ), .UNSPECIFIED., .F., .F., ( 4, 4 ), ( 0.000000000000000, 0.00142441204922309 ), .UNSPECIFIED. );
#344 = B_SPLINE_CURVE_WITH_KNOTS( '', 3, ( #414, #415, #416, #417 ), .UNSPECIFIED., .F., .F., ( 4, 4 ), ( 0.000000000000000, 0.00142441204922309 ), .UNSPECIFIED. );
#345 = FILL_AREA_STYLE_COLOUR( '', #418 );
#346 = FILL_AREA_STYLE_COLOUR( '', #419 );
#347 = VERTEX_POINT( '', #420 );
#348 = CIRCLE( '', #421, 2.25000000000000 );
#349 = FILL_AREA_STYLE_COLOUR( '', #422 );
#350 = VERTEX_POINT( '', #423 );
#351 = CIRCLE( '', #424, 3.25000000000000 );
#352 = VERTEX_POINT( '', #425 );
#353 = CIRCLE( '', #426, 3.25000000000000 );
#354 = FILL_AREA_STYLE_COLOUR( '', #427 );
#355 = FILL_AREA_STYLE_COLOUR( '', #428 );
#356 = VERTEX_POINT( '', #429 );
#357 = CIRCLE( '', #430, 2.25000000000000 );
#358 = FILL_AREA_STYLE_COLOUR( '', #431 );
#359 = FILL_AREA_STYLE_COLOUR( '', #432 );
#360 = CIRCLE( '', #433, 4.00000000000000 );
#361 = FILL_AREA_STYLE_COLOUR( '', #434 );
#362 = COLOUR_RGB( '', 0.752941191196442, 0.752941191196442, 0.752941191196442 );
#363 = CARTESIAN_POINT( '', ( 5.00000000000000, 0.000000000000000, 5.00000000000000 ) );
#364 = AXIS2_PLACEMENT_3D( '', #435, #436, #437 );
#365 = CARTESIAN_POINT( '', ( 0.750000000000000, 4.94342998332130, 20.5000000000000 ) );
#366 = CARTESIAN_POINT( '', ( 0.750000000000000, 4.94342998332130, 20.2000000000000 ) );
#367 = CARTESIAN_POINT( '', ( 0.750000000000000, 4.94342998332130, 16.0000000000000 ) );
#368 = VECTOR( '', #438, 1000.00000000000 );
#369 = CARTESIAN_POINT( '', ( 0.750000000000000, -4.94342998332130, 20.5000000000000 ) );
#370 = AXIS2_PLACEMENT_3D( '', #439, #440, #441 );
#371 = CARTESIAN_POINT( '', ( 0.750000000000000, -4.94342998332130, 20.2000000000000 ) );
#372 = CARTESIAN_POINT( '', ( 0.750000000000000, -4.94342998332130, 16.0000000000000 ) );
#373 = VECTOR( '', #442, 1000.00000000000 );
#374 = CARTESIAN_POINT( '', ( -0.750000000000000, -4.94342998332130, 20.2000000000000 ) );
#375 = AXIS2_PLACEMENT_3D( '', #443, #444, #445 );
#376 = CARTESIAN_POINT( '', ( -0.750000000000000, -4.94342998332130, 20.5000000000000 ) );
#377 = CARTESIAN_POINT( '', ( -0.750000000000000, -4.94342998332130, 16.0000000000000 ) );
#378 = VECTOR( '', #446, 1000.00000000000 );
#379 = CARTESIAN_POINT( '', ( -0.750000000000000, 4.94342998332130, 20.5000000000000 ) );
#380 = AXIS2_PLACEMENT_3D( '', #447, #448, #449 );
#381 = CARTESIAN_POINT( '', ( -0.750000000000000, 4.94342998332130, 20.2000000000000 ) );
#382 = CARTESIAN_POINT( '', ( -0.750000000000000, 4.94342998332130, 16.0000000000000 ) );
#383 = VECTOR( '', #450, 1000.00000000000 );
#384 = AXIS2_PLACEMENT_3D( '', #451, #452, #453 );
#385 = COLOUR_RGB( '', 0.800000011920929, 0.800000011920929, 0.800000011920929 );
#386 = CARTESIAN_POINT( '', ( -0.750000000000000, 3.92905841137543, 21.5000000000000 ) );
#387 = CARTESIAN_POINT( '', ( -0.750000000000000, 4.94342998332130, 20.5000000000000 ) );
#388 = CARTESIAN_POINT( '', ( -0.750000000000000, 4.60578823690384, 20.8338216665722 ) );
#389 = CARTESIAN_POINT( '', ( -0.750000000000000, 4.26778584692331, 21.1672800300492 ) );
#390 = CARTESIAN_POINT( '', ( -0.750000000000000, 3.92905841137543, 21.5000000000000 ) );
#391 = CARTESIAN_POINT( '', ( -0.750000000000000, -3.92905841137543, 21.5000000000000 ) );
#392 = CARTESIAN_POINT( '', ( -0.750000000000000, -3.92905841137543, 21.5000000000000 ) );
#393 = CARTESIAN_POINT( '', ( -0.750000000000000, -4.26778584692331, 21.1672800300492 ) );
#394 = CARTESIAN_POINT( '', ( -0.750000000000000, -4.60578823690384, 20.8338216665722 ) );
#395 = CARTESIAN_POINT( '', ( -0.750000000000000, -4.94342998332130, 20.5000000000000 ) );
#396 = AXIS2_PLACEMENT_3D( '', #454, #455, #456 );
#397 = COLOUR_RGB( '', 0.800000011920929, 0.800000011920929, 0.800000011920929 );
#398 = CARTESIAN_POINT( '', ( -0.750000000000000, -12.5000000000000, 20.2000000000000 ) );
#399 = VECTOR( '', #457, 1000.00000000000 );
#400 = CARTESIAN_POINT( '', ( 0.750000000000000, -12.5000000000000, 20.2000000000000 ) );
#401 = VECTOR( '', #458, 1000.00000000000 );
#402 = COLOUR_RGB( '', 0.800000011920929, 0.800000011920929, 0.800000011920929 );
#403 = CARTESIAN_POINT( '', ( -0.750000000000000, -12.5000000000000, 21.5000000000000 ) );
#404 = VECTOR( '', #459, 1000.00000000000 );
#405 = COLOUR_RGB( '', 0.800000011920929, 0.800000011920929, 0.800000011920929 );
#406 = CARTESIAN_POINT( '', ( 0.750000000000000, -3.92905841137543, 21.5000000000000 ) );
#407 = CARTESIAN_POINT( '', ( 0.750000000000000, 3.92905841137543, 21.5000000000000 ) );
#408 = CARTESIAN_POINT( '', ( 0.750000000000000, -12.5000000000000, 21.5000000000000 ) );
#409 = VECTOR( '', #460, 1000.00000000000 );
#410 = CARTESIAN_POINT( '', ( 0.750000000000000, 3.92905841137543, 21.5000000000000 ) );
#411 = CARTESIAN_POINT( '', ( 0.750000000000000, 4.26778584692331, 21.1672800300492 ) );
#412 = CARTESIAN_POINT( '', ( 0.750000000000000, 4.60578823690384, 20.8338216665722 ) );
#413 = CARTESIAN_POINT( '', ( 0.750000000000000, 4.94342998332130, 20.5000000000000 ) );
#414 = CARTESIAN_POINT( '', ( 0.750000000000000, -4.94342998332130, 20.5000000000000 ) );
#415 = CARTESIAN_POINT( '', ( 0.750000000000000, -4.60578823690384, 20.8338216665722 ) );
#416 = CARTESIAN_POINT( '', ( 0.750000000000000, -4.26778584692331, 21.1672800300492 ) );
#417 = CARTESIAN_POINT( '', ( 0.750000000000000, -3.92905841137543, 21.5000000000000 ) );
#418 = COLOUR_RGB( '', 0.800000011920929, 0.800000011920929, 0.800000011920929 );
#419 = COLOUR_RGB( '', 0.800000011920929, 0.800000011920929, 0.800000011920929 );
#420 = CARTESIAN_POINT( '', ( 2.25000000000000, 0.000000000000000, 2.25000000000000 ) );
#421 = AXIS2_PLACEMENT_3D( '', #461, #462, #463 );
#422 = COLOUR_RGB( '', 0.800000011920929, 0.800000011920929, 0.800000011920929 );
#423 = CARTESIAN_POINT( '', ( 3.25000000000000, 0.000000000000000, 3.25000000000000 ) );
#424 = AXIS2_PLACEMENT_3D( '', #464, #465, #466 );
#425 = CARTESIAN_POINT( '', ( 3.25000000000000, 0.000000000000000, 2.50000000000000 ) );
#426 = AXIS2_PLACEMENT_3D( '', #467, #468, #469 );
#427 = COLOUR_RGB( '', 0.800000011920929, 0.800000011920929, 0.800000011920929 );
#428 = COLOUR_RGB( '', 0.800000011920929, 0.800000011920929, 0.800000011920929 );
#429 = CARTESIAN_POINT( '', ( 2.25000000000000, 0.000000000000000, 2.50000000000000 ) );
#430 = AXIS2_PLACEMENT_3D( '', #470, #471, #472 );
#431 = COLOUR_RGB( '', 0.800000011920929, 0.800000011920929, 0.800000011920929 );
#432 = COLOUR_RGB( '', 0.800000011920929, 0.800000011920929, 0.800000011920929 );
#433 = AXIS2_PLACEMENT_3D( '', #473, #474, #475 );
#434 = COLOUR_RGB( '', 0.800000011920929, 0.800000011920929, 0.800000011920929 );
#435 = CARTESIAN_POINT( '', ( 9.82496709815340E-017, 0.000000000000000, 5.00000000000000 ) );
#436 = DIRECTION( '', ( -3.27498903271780E-017, 0.000000000000000, 1.00000000000000 ) );
#437 = DIRECTION( '', ( 1.00000000000000, 0.000000000000000, 3.27498903271780E-017 ) );
#438 = DIRECTION( '', ( -3.27498903271780E-017, 0.000000000000000, 1.00000000000000 ) );
#439 = CARTESIAN_POINT( '', ( -4.09373629089725E-016, 0.000000000000000, 20.5000000000000 ) );
#440 = DIRECTION( '', ( 3.27498903271780E-017, 0.000000000000000, -1.00000000000000 ) );
#441 = DIRECTION( '', ( -1.00000000000000, 0.000000000000000, -3.27498903271780E-017 ) );
#442 = DIRECTION( '', ( -3.27498903271780E-017, 0.000000000000000, 1.00000000000000 ) );
#443 = CARTESIAN_POINT( '', ( -3.99548661991571E-016, 0.000000000000000, 20.2000000000000 ) );
#444 = DIRECTION( '', ( 0.000000000000000, 0.000000000000000, 1.00000000000000 ) );
#445 = DIRECTION( '', ( 1.00000000000000, 0.000000000000000, 0.000000000000000 ) );
#446 = DIRECTION( '', ( -3.27498903271780E-017, 0.000000000000000, 1.00000000000000 ) );
#447 = CARTESIAN_POINT( '', ( -4.09373629089725E-016, 0.000000000000000, 20.5000000000000 ) );
#448 = DIRECTION( '', ( 3.27498903271780E-017, 0.000000000000000, -1.00000000000000 ) );
#449 = DIRECTION( '', ( -1.00000000000000, 0.000000000000000, -3.27498903271780E-017 ) );
#450 = DIRECTION( '', ( -3.27498903271780E-017, 0.000000000000000, 1.00000000000000 ) );
#451 = CARTESIAN_POINT( '', ( -3.99548661991571E-016, 0.000000000000000, 20.2000000000000 ) );
#452 = DIRECTION( '', ( 0.000000000000000, 0.000000000000000, 1.00000000000000 ) );
#453 = DIRECTION( '', ( 1.00000000000000, 0.000000000000000, 0.000000000000000 ) );
#454 = CARTESIAN_POINT( '', ( -4.42123519416903E-016, 0.000000000000000, 21.5000000000000 ) );
#455 = DIRECTION( '', ( 3.27498903271780E-017, 0.000000000000000, -1.00000000000000 ) );
#456 = DIRECTION( '', ( -1.00000000000000, 0.000000000000000, -3.27498903271780E-017 ) );
#457 = DIRECTION( '', ( 0.000000000000000, 1.00000000000000, 0.000000000000000 ) );
#458 = DIRECTION( '', ( 0.000000000000000, 1.00000000000000, 0.000000000000000 ) );
#459 = DIRECTION( '', ( 0.000000000000000, 1.00000000000000, 0.000000000000000 ) );
#460 = DIRECTION( '', ( 0.000000000000000, 1.00000000000000, 0.000000000000000 ) );
#461 = CARTESIAN_POINT( '', ( 1.88311869381274E-016, 0.000000000000000, 2.25000000000000 ) );
#462 = DIRECTION( '', ( -3.27498903271780E-017, 0.000000000000000, 1.00000000000000 ) );
#463 = DIRECTION( '', ( 1.00000000000000, 0.000000000000000, 3.27498903271780E-017 ) );
#464 = CARTESIAN_POINT( '', ( 1.55561979054096E-016, 0.000000000000000, 3.25000000000000 ) );
#465 = DIRECTION( '', ( -3.27498903271780E-017, 0.000000000000000, 1.00000000000000 ) );
#466 = DIRECTION( '', ( 1.00000000000000, 0.000000000000000, 3.27498903271780E-017 ) );
#467 = CARTESIAN_POINT( '', ( 1.80124396799479E-016, 0.000000000000000, 2.50000000000000 ) );
#468 = DIRECTION( '', ( -3.27498903271780E-017, 0.000000000000000, 1.00000000000000 ) );
#469 = DIRECTION( '', ( 1.00000000000000, 0.000000000000000, 3.27498903271780E-017 ) );
#470 = CARTESIAN_POINT( '', ( 1.80124396799479E-016, 0.000000000000000, 2.50000000000000 ) );
#471 = DIRECTION( '', ( -3.27498903271780E-017, 0.000000000000000, 1.00000000000000 ) );
#472 = DIRECTION( '', ( 1.00000000000000, 0.000000000000000, 3.27498903271780E-017 ) );
#473 = CARTESIAN_POINT( '', ( -4.42123519416903E-016, 0.000000000000000, 21.5000000000000 ) );
#474 = DIRECTION( '', ( 3.27498903271780E-017, 0.000000000000000, -1.00000000000000 ) );
#475 = DIRECTION( '', ( -1.00000000000000, 0.000000000000000, -3.27498903271780E-017 ) );
ENDSEC;
END-ISO-10303-21;
