ISO-10303-21;
HEADER;
FILE_DESCRIPTION( ( 'Unknown' ), '1' );
FILE_NAME( '//SBS2003/HD_Usb/Disegni/08_LIB/Users_3D/PROD_GAMM_3D/APP-I/7747226_APP_19_IR.stp', 'Unknown', ( 'Unknown' ), ( 'Unknown' ), 'PSStep 14.0', 'Unknown', '  ' );
FILE_SCHEMA( ( 'AUTOMOTIVE_DESIGN { 1 0 10303 214 1 1 1 1 }' ) );
ENDSEC;
DATA;
#1 = MECHANICAL_DESIGN_GEOMETRIC_PRESENTATION_REPRESENTATION( ' ', ( #10, #11, #12, #13, #14, #15, #16, #17, #18, #19, #20, #21, #22 ), #6 );
#2 = PRODUCT_DEFINITION_CONTEXT( '', #23, 'design' );
#3 = APPLICATION_PROTOCOL_DEFINITION( 'international standard', 'automotive_design', 2001, #23 );
#4 = PRODUCT_CATEGORY_RELATIONSHIP( 'NONE', 'NONE', #24, #25 );
#5 = SHAPE_DEFINITION_REPRESENTATION( #26, #27 );
#6 =  ( GEOMETRIC_REPRESENTATION_CONTEXT( 3 )GLOBAL_UNCERTAINTY_ASSIGNED_CONTEXT( ( #30 ) )GLOBAL_UNIT_ASSIGNED_CONTEXT( ( #32, #33, #34 ) )REPRESENTATION_CONTEXT( 'NONE', 'WORKSPACE' ) );
#10 = STYLED_ITEM( '', ( #36 ), #37 );
#11 = STYLED_ITEM( '', ( #38 ), #39 );
#12 = STYLED_ITEM( '', ( #40 ), #41 );
#13 = STYLED_ITEM( '', ( #42 ), #43 );
#14 = STYLED_ITEM( '', ( #44 ), #45 );
#15 = STYLED_ITEM( '', ( #46 ), #47 );
#16 = STYLED_ITEM( '', ( #48 ), #49 );
#17 = STYLED_ITEM( '', ( #50 ), #51 );
#18 = STYLED_ITEM( '', ( #52 ), #53 );
#19 = STYLED_ITEM( '', ( #54 ), #55 );
#20 = STYLED_ITEM( '', ( #56 ), #57 );
#21 = STYLED_ITEM( '', ( #58 ), #59 );
#22 = STYLED_ITEM( '', ( #60 ), #61 );
#23 = APPLICATION_CONTEXT( 'core data for automotive mechanical design processes' );
#24 = PRODUCT_CATEGORY( 'part', 'NONE' );
#25 = PRODUCT_RELATED_PRODUCT_CATEGORY( 'detail', ' ', ( #62 ) );
#26 = PRODUCT_DEFINITION_SHAPE( 'NONE', 'NONE', #63 );
#27 = ADVANCED_BREP_SHAPE_REPRESENTATION( '1', ( #64, #65 ), #6 );
#30 = UNCERTAINTY_MEASURE_WITH_UNIT( LENGTH_MEASURE( 0.00100000000000000 ), #32, '', '' );
#32 =  ( CONVERSION_BASED_UNIT( 'MILLIMETRE', #68 )LENGTH_UNIT(  )NAMED_UNIT( #71 ) );
#33 =  ( NAMED_UNIT( #73 )PLANE_ANGLE_UNIT(  )SI_UNIT( $, .RADIAN. ) );
#34 =  ( NAMED_UNIT( #73 )SI_UNIT( $, .STERADIAN. )SOLID_ANGLE_UNIT(  ) );
#36 = PRESENTATION_STYLE_ASSIGNMENT( ( #79 ) );
#37 = ADVANCED_FACE( '', ( #80 ), #81, .T. );
#38 = PRESENTATION_STYLE_ASSIGNMENT( ( #82 ) );
#39 = ADVANCED_FACE( '', ( #83, #84 ), #85, .F. );
#40 = PRESENTATION_STYLE_ASSIGNMENT( ( #86 ) );
#41 = ADVANCED_FACE( '', ( #87, #88 ), #89, .T. );
#42 = PRESENTATION_STYLE_ASSIGNMENT( ( #90 ) );
#43 = ADVANCED_FACE( '', ( #91 ), #92, .T. );
#44 = PRESENTATION_STYLE_ASSIGNMENT( ( #93 ) );
#45 = ADVANCED_FACE( '', ( #94, #95 ), #96, .T. );
#46 = PRESENTATION_STYLE_ASSIGNMENT( ( #97 ) );
#47 = ADVANCED_FACE( '', ( #98 ), #99, .F. );
#48 = PRESENTATION_STYLE_ASSIGNMENT( ( #100 ) );
#49 = ADVANCED_FACE( '', ( #101, #102 ), #103, .T. );
#50 = PRESENTATION_STYLE_ASSIGNMENT( ( #104 ) );
#51 = ADVANCED_FACE( '', ( #105, #106 ), #107, .T. );
#52 = PRESENTATION_STYLE_ASSIGNMENT( ( #108 ) );
#53 = ADVANCED_FACE( '', ( #109 ), #110, .T. );
#54 = PRESENTATION_STYLE_ASSIGNMENT( ( #111 ) );
#55 = ADVANCED_FACE( '', ( #112 ), #113, .T. );
#56 = PRESENTATION_STYLE_ASSIGNMENT( ( #114 ) );
#57 = ADVANCED_FACE( '', ( #115 ), #116, .F. );
#58 = PRESENTATION_STYLE_ASSIGNMENT( ( #117 ) );
#59 = ADVANCED_FACE( '', ( #118 ), #119, .T. );
#60 = PRESENTATION_STYLE_ASSIGNMENT( ( #120 ) );
#61 = ADVANCED_FACE( '', ( #121 ), #122, .T. );
#62 = PRODUCT( '1', '1', 'PART-1-DESC', ( #123 ) );
#63 = PRODUCT_DEFINITION( 'NONE', 'NONE', #124, #2 );
#64 = MANIFOLD_SOLID_BREP( '1', #125 );
#65 = AXIS2_PLACEMENT_3D( '', #126, #127, #128 );
#68 = LENGTH_MEASURE_WITH_UNIT( LENGTH_MEASURE( 1.00000000000000 ), #129 );
#71 = DIMENSIONAL_EXPONENTS( 1.00000000000000, 0.000000000000000, 0.000000000000000, 0.000000000000000, 0.000000000000000, 0.000000000000000, 0.000000000000000 );
#73 = DIMENSIONAL_EXPONENTS( 0.000000000000000, 0.000000000000000, 0.000000000000000, 0.000000000000000, 0.000000000000000, 0.000000000000000, 0.000000000000000 );
#79 = SURFACE_STYLE_USAGE( .BOTH., #130 );
#80 = FACE_OUTER_BOUND( '', #131, .T. );
#81 = CONICAL_SURFACE( '', #132, 4.00000000000000, 0.785398163397448 );
#82 = SURFACE_STYLE_USAGE( .BOTH., #133 );
#83 = FACE_OUTER_BOUND( '', #134, .T. );
#84 = FACE_BOUND( '', #135, .T. );
#85 = PLANE( '', #136 );
#86 = SURFACE_STYLE_USAGE( .BOTH., #137 );
#87 = FACE_BOUND( '', #138, .T. );
#88 = FACE_OUTER_BOUND( '', #139, .T. );
#89 = CONICAL_SURFACE( '', #140, 5.00000000000000, 0.785398163397448 );
#90 = SURFACE_STYLE_USAGE( .BOTH., #141 );
#91 = FACE_OUTER_BOUND( '', #142, .T. );
#92 = PLANE( '', #143 );
#93 = SURFACE_STYLE_USAGE( .BOTH., #144 );
#94 = FACE_OUTER_BOUND( '', #145, .T. );
#95 = FACE_OUTER_BOUND( '', #146, .T. );
#96 = CYLINDRICAL_SURFACE( '', #147, 5.00000000000000 );
#97 = SURFACE_STYLE_USAGE( .BOTH., #148 );
#98 = FACE_OUTER_BOUND( '', #149, .T. );
#99 = PLANE( '', #150 );
#100 = SURFACE_STYLE_USAGE( .BOTH., #151 );
#101 = FACE_OUTER_BOUND( '', #152, .T. );
#102 = FACE_OUTER_BOUND( '', #153, .T. );
#103 = CYLINDRICAL_SURFACE( '', #154, 2.25000000000000 );
#104 = SURFACE_STYLE_USAGE( .BOTH., #155 );
#105 = FACE_OUTER_BOUND( '', #156, .T. );
#106 = FACE_OUTER_BOUND( '', #157, .T. );
#107 = CYLINDRICAL_SURFACE( '', #158, 3.25000000000000 );
#108 = SURFACE_STYLE_USAGE( .BOTH., #159 );
#109 = FACE_OUTER_BOUND( '', #160, .T. );
#110 = PLANE( '', #161 );
#111 = SURFACE_STYLE_USAGE( .BOTH., #162 );
#112 = FACE_OUTER_BOUND( '', #163, .T. );
#113 = CONICAL_SURFACE( '', #164, 4.00000000000000, 0.785398163397448 );
#114 = SURFACE_STYLE_USAGE( .BOTH., #165 );
#115 = FACE_OUTER_BOUND( '', #166, .T. );
#116 = PLANE( '', #167 );
#117 = SURFACE_STYLE_USAGE( .BOTH., #168 );
#118 = FACE_OUTER_BOUND( '', #169, .T. );
#119 = PLANE( '', #170 );
#120 = SURFACE_STYLE_USAGE( .BOTH., #171 );
#121 = FACE_OUTER_BOUND( '', #172, .T. );
#122 = SPHERICAL_SURFACE( '', #173, 2.25000000000000 );
#123 = PRODUCT_CONTEXT( '', #23, 'mechanical' );
#124 = PRODUCT_DEFINITION_FORMATION_WITH_SPECIFIED_SOURCE( ' ', 'NONE', #62, .NOT_KNOWN. );
#125 = CLOSED_SHELL( '', ( #45, #37, #53, #43, #55, #41, #49, #39, #47, #51, #61, #57, #59 ) );
#126 = CARTESIAN_POINT( '', ( 0.000000000000000, 0.000000000000000, 0.000000000000000 ) );
#127 = DIRECTION( '', ( 0.000000000000000, 0.000000000000000, 1.00000000000000 ) );
#128 = DIRECTION( '', ( 1.00000000000000, 0.000000000000000, 0.000000000000000 ) );
#129 =  ( LENGTH_UNIT(  )NAMED_UNIT( #71 )SI_UNIT( .MILLI., .METRE. ) );
#130 = SURFACE_SIDE_STYLE( '', ( #175 ) );
#131 = EDGE_LOOP( '', ( #176, #177, #178, #179 ) );
#132 = AXIS2_PLACEMENT_3D( '', #180, #181, #182 );
#133 = SURFACE_SIDE_STYLE( '', ( #183 ) );
#134 = EDGE_LOOP( '', ( #184 ) );
#135 = EDGE_LOOP( '', ( #185 ) );
#136 = AXIS2_PLACEMENT_3D( '', #186, #187, #188 );
#137 = SURFACE_SIDE_STYLE( '', ( #189 ) );
#138 = EDGE_LOOP( '', ( #190 ) );
#139 = EDGE_LOOP( '', ( #191 ) );
#140 = AXIS2_PLACEMENT_3D( '', #192, #193, #194 );
#141 = SURFACE_SIDE_STYLE( '', ( #195 ) );
#142 = EDGE_LOOP( '', ( #196, #197, #198, #199, #200, #201 ) );
#143 = AXIS2_PLACEMENT_3D( '', #202, #203, #204 );
#144 = SURFACE_SIDE_STYLE( '', ( #205 ) );
#145 = EDGE_LOOP( '', ( #206 ) );
#146 = EDGE_LOOP( '', ( #207, #208, #209, #210, #211, #212, #213, #214 ) );
#147 = AXIS2_PLACEMENT_3D( '', #215, #216, #217 );
#148 = SURFACE_SIDE_STYLE( '', ( #218 ) );
#149 = EDGE_LOOP( '', ( #219, #220 ) );
#150 = AXIS2_PLACEMENT_3D( '', #221, #222, #223 );
#151 = SURFACE_SIDE_STYLE( '', ( #224 ) );
#152 = EDGE_LOOP( '', ( #225 ) );
#153 = EDGE_LOOP( '', ( #226 ) );
#154 = AXIS2_PLACEMENT_3D( '', #227, #228, #229 );
#155 = SURFACE_SIDE_STYLE( '', ( #230 ) );
#156 = EDGE_LOOP( '', ( #231 ) );
#157 = EDGE_LOOP( '', ( #232 ) );
#158 = AXIS2_PLACEMENT_3D( '', #233, #234, #235 );
#159 = SURFACE_SIDE_STYLE( '', ( #236 ) );
#160 = EDGE_LOOP( '', ( #237, #238, #239, #240 ) );
#161 = AXIS2_PLACEMENT_3D( '', #241, #242, #243 );
#162 = SURFACE_SIDE_STYLE( '', ( #244 ) );
#163 = EDGE_LOOP( '', ( #245, #246, #247, #248 ) );
#164 = AXIS2_PLACEMENT_3D( '', #249, #250, #251 );
#165 = SURFACE_SIDE_STYLE( '', ( #252 ) );
#166 = EDGE_LOOP( '', ( #253, #254 ) );
#167 = AXIS2_PLACEMENT_3D( '', #255, #256, #257 );
#168 = SURFACE_SIDE_STYLE( '', ( #258 ) );
#169 = EDGE_LOOP( '', ( #259, #260, #261, #262, #263, #264 ) );
#170 = AXIS2_PLACEMENT_3D( '', #265, #266, #267 );
#171 = SURFACE_SIDE_STYLE( '', ( #268 ) );
#172 = EDGE_LOOP( '', ( #269 ) );
#173 = AXIS2_PLACEMENT_3D( '', #270, #271, #272 );
#175 = SURFACE_STYLE_FILL_AREA( #273 );
#176 = ORIENTED_EDGE( '', *, *, #274, .F. );
#177 = ORIENTED_EDGE( '', *, *, #275, .F. );
#178 = ORIENTED_EDGE( '', *, *, #276, .F. );
#179 = ORIENTED_EDGE( '', *, *, #277, .F. );
#180 = CARTESIAN_POINT( '', ( -4.42123519416903E-016, 0.000000000000000, 21.5000000000000 ) );
#181 = DIRECTION( '', ( 3.27498903271780E-017, -0.000000000000000, -1.00000000000000 ) );
#182 = DIRECTION( '', ( -1.00000000000000, 0.000000000000000, -3.27498903271780E-017 ) );
#183 = SURFACE_STYLE_FILL_AREA( #278 );
#184 = ORIENTED_EDGE( '', *, *, #279, .F. );
#185 = ORIENTED_EDGE( '', *, *, #280, .T. );
#186 = CARTESIAN_POINT( '', ( 2.25000000000000, 0.000000000000000, 2.50000000000000 ) );
#187 = DIRECTION( '', ( -3.27498903271780E-017, 0.000000000000000, 1.00000000000000 ) );
#188 = DIRECTION( '', ( 1.00000000000000, 0.000000000000000, 3.27498903271780E-017 ) );
#189 = SURFACE_STYLE_FILL_AREA( #281 );
#190 = ORIENTED_EDGE( '', *, *, #282, .F. );
#191 = ORIENTED_EDGE( '', *, *, #283, .F. );
#192 = CARTESIAN_POINT( '', ( 9.82496709815340E-017, 0.000000000000000, 5.00000000000000 ) );
#193 = DIRECTION( '', ( -3.27498903271780E-017, 0.000000000000000, 1.00000000000000 ) );
#194 = DIRECTION( '', ( 1.00000000000000, 0.000000000000000, 3.27498903271780E-017 ) );
#195 = SURFACE_STYLE_FILL_AREA( #284 );
#196 = ORIENTED_EDGE( '', *, *, #285, .T. );
#197 = ORIENTED_EDGE( '', *, *, #286, .T. );
#198 = ORIENTED_EDGE( '', *, *, #287, .T. );
#199 = ORIENTED_EDGE( '', *, *, #288, .F. );
#200 = ORIENTED_EDGE( '', *, *, #289, .T. );
#201 = ORIENTED_EDGE( '', *, *, #290, .T. );
#202 = CARTESIAN_POINT( '', ( 0.750000000000000, -12.5000000000000, 20.2000000000000 ) );
#203 = DIRECTION( '', ( -1.00000000000000, 0.000000000000000, 8.34001671142696E-017 ) );
#204 = DIRECTION( '', ( 8.34001671142696E-017, 0.000000000000000, 1.00000000000000 ) );
#205 = SURFACE_STYLE_FILL_AREA( #291 );
#206 = ORIENTED_EDGE( '', *, *, #283, .T. );
#207 = ORIENTED_EDGE( '', *, *, #287, .F. );
#208 = ORIENTED_EDGE( '', *, *, #292, .T. );
#209 = ORIENTED_EDGE( '', *, *, #289, .F. );
#210 = ORIENTED_EDGE( '', *, *, #293, .F. );
#211 = ORIENTED_EDGE( '', *, *, #294, .F. );
#212 = ORIENTED_EDGE( '', *, *, #275, .T. );
#213 = ORIENTED_EDGE( '', *, *, #295, .F. );
#214 = ORIENTED_EDGE( '', *, *, #296, .F. );
#215 = CARTESIAN_POINT( '', ( -2.61999122617424E-016, 0.000000000000000, 16.0000000000000 ) );
#216 = DIRECTION( '', ( 3.27498903271780E-017, -0.000000000000000, -1.00000000000000 ) );
#217 = DIRECTION( '', ( 1.00000000000000, 0.000000000000000, 3.27498903271780E-017 ) );
#218 = SURFACE_STYLE_FILL_AREA( #297 );
#219 = ORIENTED_EDGE( '', *, *, #285, .F. );
#220 = ORIENTED_EDGE( '', *, *, #298, .T. );
#221 = CARTESIAN_POINT( '', ( 5.00000000000000, 0.000000000000000, 21.5000000000000 ) );
#222 = DIRECTION( '', ( 3.27498903271780E-017, 0.000000000000000, -1.00000000000000 ) );
#223 = DIRECTION( '', ( -1.00000000000000, 0.000000000000000, -3.27498903271780E-017 ) );
#224 = SURFACE_STYLE_FILL_AREA( #299 );
#225 = ORIENTED_EDGE( '', *, *, #280, .F. );
#226 = ORIENTED_EDGE( '', *, *, #300, .T. );
#227 = CARTESIAN_POINT( '', ( -2.61999122617424E-016, 0.000000000000000, 16.0000000000000 ) );
#228 = DIRECTION( '', ( 3.27498903271780E-017, -0.000000000000000, -1.00000000000000 ) );
#229 = DIRECTION( '', ( 1.00000000000000, 0.000000000000000, 3.27498903271780E-017 ) );
#230 = SURFACE_STYLE_FILL_AREA( #301 );
#231 = ORIENTED_EDGE( '', *, *, #282, .T. );
#232 = ORIENTED_EDGE( '', *, *, #279, .T. );
#233 = CARTESIAN_POINT( '', ( -2.61999122617424E-016, 0.000000000000000, 16.0000000000000 ) );
#234 = DIRECTION( '', ( 3.27498903271780E-017, -0.000000000000000, -1.00000000000000 ) );
#235 = DIRECTION( '', ( 1.00000000000000, 0.000000000000000, 3.27498903271780E-017 ) );
#236 = SURFACE_STYLE_FILL_AREA( #302 );
#237 = ORIENTED_EDGE( '', *, *, #296, .T. );
#238 = ORIENTED_EDGE( '', *, *, #303, .F. );
#239 = ORIENTED_EDGE( '', *, *, #293, .T. );
#240 = ORIENTED_EDGE( '', *, *, #288, .T. );
#241 = CARTESIAN_POINT( '', ( -0.750000000000000, -12.5000000000000, 20.2000000000000 ) );
#242 = DIRECTION( '', ( 0.000000000000000, 0.000000000000000, 1.00000000000000 ) );
#243 = DIRECTION( '', ( 1.00000000000000, 0.000000000000000, 0.000000000000000 ) );
#244 = SURFACE_STYLE_FILL_AREA( #304 );
#245 = ORIENTED_EDGE( '', *, *, #290, .F. );
#246 = ORIENTED_EDGE( '', *, *, #292, .F. );
#247 = ORIENTED_EDGE( '', *, *, #286, .F. );
#248 = ORIENTED_EDGE( '', *, *, #298, .F. );
#249 = CARTESIAN_POINT( '', ( -4.42123519416903E-016, 0.000000000000000, 21.5000000000000 ) );
#250 = DIRECTION( '', ( 3.27498903271780E-017, -0.000000000000000, -1.00000000000000 ) );
#251 = DIRECTION( '', ( -1.00000000000000, 0.000000000000000, -3.27498903271780E-017 ) );
#252 = SURFACE_STYLE_FILL_AREA( #305 );
#253 = ORIENTED_EDGE( '', *, *, #306, .T. );
#254 = ORIENTED_EDGE( '', *, *, #277, .T. );
#255 = CARTESIAN_POINT( '', ( 5.00000000000000, 0.000000000000000, 21.5000000000000 ) );
#256 = DIRECTION( '', ( 3.27498903271780E-017, 0.000000000000000, -1.00000000000000 ) );
#257 = DIRECTION( '', ( -1.00000000000000, 0.000000000000000, -3.27498903271780E-017 ) );
#258 = SURFACE_STYLE_FILL_AREA( #307 );
#259 = ORIENTED_EDGE( '', *, *, #306, .F. );
#260 = ORIENTED_EDGE( '', *, *, #276, .T. );
#261 = ORIENTED_EDGE( '', *, *, #294, .T. );
#262 = ORIENTED_EDGE( '', *, *, #303, .T. );
#263 = ORIENTED_EDGE( '', *, *, #295, .T. );
#264 = ORIENTED_EDGE( '', *, *, #274, .T. );
#265 = CARTESIAN_POINT( '', ( -0.750000000000000, -12.5000000000000, 21.5000000000000 ) );
#266 = DIRECTION( '', ( 1.00000000000000, 0.000000000000000, 8.34001671142696E-017 ) );
#267 = DIRECTION( '', ( 8.34001671142696E-017, 0.000000000000000, -1.00000000000000 ) );
#268 = SURFACE_STYLE_FILL_AREA( #308 );
#269 = ORIENTED_EDGE( '', *, *, #300, .F. );
#270 = CARTESIAN_POINT( '', ( 2.35744508835865E-015, 0.000000000000000, 2.25000000000000 ) );
#271 = DIRECTION( '', ( -3.27498903271780E-017, 0.000000000000000, 1.00000000000000 ) );
#272 = DIRECTION( '', ( -1.00000000000000, 0.000000000000000, -3.27498903271780E-017 ) );
#273 = FILL_AREA_STYLE( '', ( #309 ) );
#274 = EDGE_CURVE( '', #310, #311, #312, .T. );
#275 = EDGE_CURVE( '', #313, #310, #314, .T. );
#276 = EDGE_CURVE( '', #315, #313, #316, .T. );
#277 = EDGE_CURVE( '', #311, #315, #317, .F. );
#278 = FILL_AREA_STYLE( '', ( #318 ) );
#279 = EDGE_CURVE( '', #319, #319, #320, .T. );
#280 = EDGE_CURVE( '', #321, #321, #322, .T. );
#281 = FILL_AREA_STYLE( '', ( #323 ) );
#282 = EDGE_CURVE( '', #324, #324, #325, .F. );
#283 = EDGE_CURVE( '', #326, #326, #327, .T. );
#284 = FILL_AREA_STYLE( '', ( #328 ) );
#285 = EDGE_CURVE( '', #329, #330, #331, .T. );
#286 = EDGE_CURVE( '', #330, #332, #333, .T. );
#287 = EDGE_CURVE( '', #332, #334, #335, .F. );
#288 = EDGE_CURVE( '', #336, #334, #337, .T. );
#289 = EDGE_CURVE( '', #336, #338, #339, .T. );
#290 = EDGE_CURVE( '', #338, #329, #340, .T. );
#291 = FILL_AREA_STYLE( '', ( #341 ) );
#292 = EDGE_CURVE( '', #332, #338, #342, .T. );
#293 = EDGE_CURVE( '', #343, #336, #344, .T. );
#294 = EDGE_CURVE( '', #313, #343, #345, .F. );
#295 = EDGE_CURVE( '', #346, #310, #347, .T. );
#296 = EDGE_CURVE( '', #334, #346, #348, .T. );
#297 = FILL_AREA_STYLE( '', ( #349 ) );
#298 = EDGE_CURVE( '', #329, #330, #350, .F. );
#299 = FILL_AREA_STYLE( '', ( #351 ) );
#300 = EDGE_CURVE( '', #352, #352, #353, .T. );
#301 = FILL_AREA_STYLE( '', ( #354 ) );
#302 = FILL_AREA_STYLE( '', ( #355 ) );
#303 = EDGE_CURVE( '', #343, #346, #356, .T. );
#304 = FILL_AREA_STYLE( '', ( #357 ) );
#305 = FILL_AREA_STYLE( '', ( #358 ) );
#306 = EDGE_CURVE( '', #315, #311, #359, .T. );
#307 = FILL_AREA_STYLE( '', ( #360 ) );
#308 = FILL_AREA_STYLE( '', ( #361 ) );
#309 = FILL_AREA_STYLE_COLOUR( '', #362 );
#310 = VERTEX_POINT( '', #363 );
#311 = VERTEX_POINT( '', #364 );
#312 = B_SPLINE_CURVE_WITH_KNOTS( '', 3, ( #365, #366, #367, #368 ), .UNSPECIFIED., .F., .F., ( 4, 4 ), ( 0.000000000000000, 0.00142441204922309 ), .UNSPECIFIED. );
#313 = VERTEX_POINT( '', #369 );
#314 = CIRCLE( '', #370, 5.00000000000000 );
#315 = VERTEX_POINT( '', #371 );
#316 = B_SPLINE_CURVE_WITH_KNOTS( '', 3, ( #372, #373, #374, #375 ), .UNSPECIFIED., .F., .F., ( 4, 4 ), ( 0.000000000000000, 0.00142441204922309 ), .UNSPECIFIED. );
#317 = CIRCLE( '', #376, 4.00000000000000 );
#318 = FILL_AREA_STYLE_COLOUR( '', #377 );
#319 = VERTEX_POINT( '', #378 );
#320 = CIRCLE( '', #379, 3.25000000000000 );
#321 = VERTEX_POINT( '', #380 );
#322 = CIRCLE( '', #381, 2.25000000000000 );
#323 = FILL_AREA_STYLE_COLOUR( '', #382 );
#324 = VERTEX_POINT( '', #383 );
#325 = CIRCLE( '', #384, 3.25000000000000 );
#326 = VERTEX_POINT( '', #385 );
#327 = CIRCLE( '', #386, 5.00000000000000 );
#328 = FILL_AREA_STYLE_COLOUR( '', #387 );
#329 = VERTEX_POINT( '', #388 );
#330 = VERTEX_POINT( '', #389 );
#331 = LINE( '', #390, #391 );
#332 = VERTEX_POINT( '', #392 );
#333 = B_SPLINE_CURVE_WITH_KNOTS( '', 3, ( #393, #394, #395, #396 ), .UNSPECIFIED., .F., .F., ( 4, 4 ), ( 0.000000000000000, 0.00142441204922309 ), .UNSPECIFIED. );
#334 = VERTEX_POINT( '', #397 );
#335 = LINE( '', #398, #399 );
#336 = VERTEX_POINT( '', #400 );
#337 = LINE( '', #401, #402 );
#338 = VERTEX_POINT( '', #403 );
#339 = LINE( '', #404, #405 );
#340 = B_SPLINE_CURVE_WITH_KNOTS( '', 3, ( #406, #407, #408, #409 ), .UNSPECIFIED., .F., .F., ( 4, 4 ), ( 0.000000000000000, 0.00142441204922309 ), .UNSPECIFIED. );
#341 = FILL_AREA_STYLE_COLOUR( '', #410 );
#342 = CIRCLE( '', #411, 5.00000000000000 );
#343 = VERTEX_POINT( '', #412 );
#344 = CIRCLE( '', #413, 5.00000000000000 );
#345 = LINE( '', #414, #415 );
#346 = VERTEX_POINT( '', #416 );
#347 = LINE( '', #417, #418 );
#348 = CIRCLE( '', #419, 5.00000000000000 );
#349 = FILL_AREA_STYLE_COLOUR( '', #420 );
#350 = CIRCLE( '', #421, 4.00000000000000 );
#351 = FILL_AREA_STYLE_COLOUR( '', #422 );
#352 = VERTEX_POINT( '', #423 );
#353 = CIRCLE( '', #424, 2.25000000000000 );
#354 = FILL_AREA_STYLE_COLOUR( '', #425 );
#355 = FILL_AREA_STYLE_COLOUR( '', #426 );
#356 = LINE( '', #427, #428 );
#357 = FILL_AREA_STYLE_COLOUR( '', #429 );
#358 = FILL_AREA_STYLE_COLOUR( '', #430 );
#359 = LINE( '', #431, #432 );
#360 = FILL_AREA_STYLE_COLOUR( '', #433 );
#361 = FILL_AREA_STYLE_COLOUR( '', #434 );
#362 = COLOUR_RGB( '', 0.800000011920929, 0.800000011920929, 0.800000011920929 );
#363 = CARTESIAN_POINT( '', ( -0.750000000000000, 4.94342998332130, 20.5000000000000 ) );
#364 = CARTESIAN_POINT( '', ( -0.750000000000000, 3.92905841137543, 21.5000000000000 ) );
#365 = CARTESIAN_POINT( '', ( -0.750000000000000, 4.94342998332130, 20.5000000000000 ) );
#366 = CARTESIAN_POINT( '', ( -0.750000000000000, 4.60578823690384, 20.8338216665722 ) );
#367 = CARTESIAN_POINT( '', ( -0.750000000000000, 4.26778584692331, 21.1672800300492 ) );
#368 = CARTESIAN_POINT( '', ( -0.750000000000000, 3.92905841137543, 21.5000000000000 ) );
#369 = CARTESIAN_POINT( '', ( -0.750000000000000, -4.94342998332130, 20.5000000000000 ) );
#370 = AXIS2_PLACEMENT_3D( '', #435, #436, #437 );
#371 = CARTESIAN_POINT( '', ( -0.750000000000000, -3.92905841137543, 21.5000000000000 ) );
#372 = CARTESIAN_POINT( '', ( -0.750000000000000, -3.92905841137543, 21.5000000000000 ) );
#373 = CARTESIAN_POINT( '', ( -0.750000000000000, -4.26778584692331, 21.1672800300492 ) );
#374 = CARTESIAN_POINT( '', ( -0.750000000000000, -4.60578823690384, 20.8338216665722 ) );
#375 = CARTESIAN_POINT( '', ( -0.750000000000000, -4.94342998332130, 20.5000000000000 ) );
#376 = AXIS2_PLACEMENT_3D( '', #438, #439, #440 );
#377 = COLOUR_RGB( '', 0.800000011920929, 0.800000011920929, 0.800000011920929 );
#378 = CARTESIAN_POINT( '', ( 3.25000000000000, 0.000000000000000, 2.50000000000000 ) );
#379 = AXIS2_PLACEMENT_3D( '', #441, #442, #443 );
#380 = CARTESIAN_POINT( '', ( 2.25000000000000, 0.000000000000000, 2.50000000000000 ) );
#381 = AXIS2_PLACEMENT_3D( '', #444, #445, #446 );
#382 = COLOUR_RGB( '', 0.800000011920929, 0.800000011920929, 0.800000011920929 );
#383 = CARTESIAN_POINT( '', ( 3.25000000000000, 0.000000000000000, 3.25000000000000 ) );
#384 = AXIS2_PLACEMENT_3D( '', #447, #448, #449 );
#385 = CARTESIAN_POINT( '', ( 5.00000000000000, 0.000000000000000, 5.00000000000000 ) );
#386 = AXIS2_PLACEMENT_3D( '', #450, #451, #452 );
#387 = COLOUR_RGB( '', 0.800000011920929, 0.800000011920929, 0.800000011920929 );
#388 = CARTESIAN_POINT( '', ( 0.750000000000000, -3.92905841137543, 21.5000000000000 ) );
#389 = CARTESIAN_POINT( '', ( 0.750000000000000, 3.92905841137543, 21.5000000000000 ) );
#390 = CARTESIAN_POINT( '', ( 0.750000000000000, -12.5000000000000, 21.5000000000000 ) );
#391 = VECTOR( '', #453, 1000.00000000000 );
#392 = CARTESIAN_POINT( '', ( 0.750000000000000, 4.94342998332130, 20.5000000000000 ) );
#393 = CARTESIAN_POINT( '', ( 0.750000000000000, 3.92905841137543, 21.5000000000000 ) );
#394 = CARTESIAN_POINT( '', ( 0.750000000000000, 4.26778584692331, 21.1672800300492 ) );
#395 = CARTESIAN_POINT( '', ( 0.750000000000000, 4.60578823690384, 20.8338216665722 ) );
#396 = CARTESIAN_POINT( '', ( 0.750000000000000, 4.94342998332130, 20.5000000000000 ) );
#397 = CARTESIAN_POINT( '', ( 0.750000000000000, 4.94342998332130, 20.2000000000000 ) );
#398 = CARTESIAN_POINT( '', ( 0.750000000000000, 4.94342998332130, 16.0000000000000 ) );
#399 = VECTOR( '', #454, 1000.00000000000 );
#400 = CARTESIAN_POINT( '', ( 0.750000000000000, -4.94342998332130, 20.2000000000000 ) );
#401 = CARTESIAN_POINT( '', ( 0.750000000000000, -12.5000000000000, 20.2000000000000 ) );
#402 = VECTOR( '', #455, 1000.00000000000 );
#403 = CARTESIAN_POINT( '', ( 0.750000000000000, -4.94342998332130, 20.5000000000000 ) );
#404 = CARTESIAN_POINT( '', ( 0.750000000000000, -4.94342998332130, 16.0000000000000 ) );
#405 = VECTOR( '', #456, 1000.00000000000 );
#406 = CARTESIAN_POINT( '', ( 0.750000000000000, -4.94342998332130, 20.5000000000000 ) );
#407 = CARTESIAN_POINT( '', ( 0.750000000000000, -4.60578823690384, 20.8338216665722 ) );
#408 = CARTESIAN_POINT( '', ( 0.750000000000000, -4.26778584692331, 21.1672800300492 ) );
#409 = CARTESIAN_POINT( '', ( 0.750000000000000, -3.92905841137543, 21.5000000000000 ) );
#410 = COLOUR_RGB( '', 0.752941191196442, 0.752941191196442, 0.752941191196442 );
#411 = AXIS2_PLACEMENT_3D( '', #457, #458, #459 );
#412 = CARTESIAN_POINT( '', ( -0.750000000000000, -4.94342998332130, 20.2000000000000 ) );
#413 = AXIS2_PLACEMENT_3D( '', #460, #461, #462 );
#414 = CARTESIAN_POINT( '', ( -0.750000000000000, -4.94342998332130, 16.0000000000000 ) );
#415 = VECTOR( '', #463, 1000.00000000000 );
#416 = CARTESIAN_POINT( '', ( -0.750000000000000, 4.94342998332130, 20.2000000000000 ) );
#417 = CARTESIAN_POINT( '', ( -0.750000000000000, 4.94342998332130, 16.0000000000000 ) );
#418 = VECTOR( '', #464, 1000.00000000000 );
#419 = AXIS2_PLACEMENT_3D( '', #465, #466, #467 );
#420 = COLOUR_RGB( '', 0.800000011920929, 0.800000011920929, 0.800000011920929 );
#421 = AXIS2_PLACEMENT_3D( '', #468, #469, #470 );
#422 = COLOUR_RGB( '', 0.800000011920929, 0.800000011920929, 0.800000011920929 );
#423 = CARTESIAN_POINT( '', ( 2.25000000000000, 0.000000000000000, 2.25000000000000 ) );
#424 = AXIS2_PLACEMENT_3D( '', #471, #472, #473 );
#425 = COLOUR_RGB( '', 0.800000011920929, 0.800000011920929, 0.800000011920929 );
#426 = COLOUR_RGB( '', 0.800000011920929, 0.800000011920929, 0.800000011920929 );
#427 = CARTESIAN_POINT( '', ( -0.750000000000000, -12.5000000000000, 20.2000000000000 ) );
#428 = VECTOR( '', #474, 1000.00000000000 );
#429 = COLOUR_RGB( '', 0.800000011920929, 0.800000011920929, 0.800000011920929 );
#430 = COLOUR_RGB( '', 0.800000011920929, 0.800000011920929, 0.800000011920929 );
#431 = CARTESIAN_POINT( '', ( -0.750000000000000, -12.5000000000000, 21.5000000000000 ) );
#432 = VECTOR( '', #475, 1000.00000000000 );
#433 = COLOUR_RGB( '', 0.800000011920929, 0.800000011920929, 0.800000011920929 );
#434 = COLOUR_RGB( '', 0.800000011920929, 0.800000011920929, 0.800000011920929 );
#435 = CARTESIAN_POINT( '', ( -4.09373629089725E-016, 0.000000000000000, 20.5000000000000 ) );
#436 = DIRECTION( '', ( 3.27498903271780E-017, 0.000000000000000, -1.00000000000000 ) );
#437 = DIRECTION( '', ( -1.00000000000000, 0.000000000000000, -3.27498903271780E-017 ) );
#438 = CARTESIAN_POINT( '', ( -4.42123519416903E-016, 0.000000000000000, 21.5000000000000 ) );
#439 = DIRECTION( '', ( 3.27498903271780E-017, 0.000000000000000, -1.00000000000000 ) );
#440 = DIRECTION( '', ( -1.00000000000000, 0.000000000000000, -3.27498903271780E-017 ) );
#441 = CARTESIAN_POINT( '', ( 1.80124396799479E-016, 0.000000000000000, 2.50000000000000 ) );
#442 = DIRECTION( '', ( -3.27498903271780E-017, 0.000000000000000, 1.00000000000000 ) );
#443 = DIRECTION( '', ( 1.00000000000000, 0.000000000000000, 3.27498903271780E-017 ) );
#444 = CARTESIAN_POINT( '', ( 1.80124396799479E-016, 0.000000000000000, 2.50000000000000 ) );
#445 = DIRECTION( '', ( -3.27498903271780E-017, 0.000000000000000, 1.00000000000000 ) );
#446 = DIRECTION( '', ( 1.00000000000000, 0.000000000000000, 3.27498903271780E-017 ) );
#447 = CARTESIAN_POINT( '', ( 1.55561979054096E-016, 0.000000000000000, 3.25000000000000 ) );
#448 = DIRECTION( '', ( -3.27498903271780E-017, 0.000000000000000, 1.00000000000000 ) );
#449 = DIRECTION( '', ( 1.00000000000000, 0.000000000000000, 3.27498903271780E-017 ) );
#450 = CARTESIAN_POINT( '', ( 9.82496709815340E-017, 0.000000000000000, 5.00000000000000 ) );
#451 = DIRECTION( '', ( -3.27498903271780E-017, 0.000000000000000, 1.00000000000000 ) );
#452 = DIRECTION( '', ( 1.00000000000000, 0.000000000000000, 3.27498903271780E-017 ) );
#453 = DIRECTION( '', ( 0.000000000000000, 1.00000000000000, 0.000000000000000 ) );
#454 = DIRECTION( '', ( -3.27498903271780E-017, 0.000000000000000, 1.00000000000000 ) );
#455 = DIRECTION( '', ( 0.000000000000000, 1.00000000000000, 0.000000000000000 ) );
#456 = DIRECTION( '', ( -3.27498903271780E-017, 0.000000000000000, 1.00000000000000 ) );
#457 = CARTESIAN_POINT( '', ( -4.09373629089725E-016, 0.000000000000000, 20.5000000000000 ) );
#458 = DIRECTION( '', ( 3.27498903271780E-017, 0.000000000000000, -1.00000000000000 ) );
#459 = DIRECTION( '', ( -1.00000000000000, 0.000000000000000, -3.27498903271780E-017 ) );
#460 = CARTESIAN_POINT( '', ( -3.99548661991571E-016, 0.000000000000000, 20.2000000000000 ) );
#461 = DIRECTION( '', ( 0.000000000000000, 0.000000000000000, 1.00000000000000 ) );
#462 = DIRECTION( '', ( 1.00000000000000, 0.000000000000000, 0.000000000000000 ) );
#463 = DIRECTION( '', ( -3.27498903271780E-017, 0.000000000000000, 1.00000000000000 ) );
#464 = DIRECTION( '', ( -3.27498903271780E-017, 0.000000000000000, 1.00000000000000 ) );
#465 = CARTESIAN_POINT( '', ( -3.99548661991571E-016, 0.000000000000000, 20.2000000000000 ) );
#466 = DIRECTION( '', ( 0.000000000000000, 0.000000000000000, 1.00000000000000 ) );
#467 = DIRECTION( '', ( 1.00000000000000, 0.000000000000000, 0.000000000000000 ) );
#468 = CARTESIAN_POINT( '', ( -4.42123519416903E-016, 0.000000000000000, 21.5000000000000 ) );
#469 = DIRECTION( '', ( 3.27498903271780E-017, 0.000000000000000, -1.00000000000000 ) );
#470 = DIRECTION( '', ( -1.00000000000000, 0.000000000000000, -3.27498903271780E-017 ) );
#471 = CARTESIAN_POINT( '', ( 1.88311869381274E-016, 0.000000000000000, 2.25000000000000 ) );
#472 = DIRECTION( '', ( -3.27498903271780E-017, 0.000000000000000, 1.00000000000000 ) );
#473 = DIRECTION( '', ( 1.00000000000000, 0.000000000000000, 3.27498903271780E-017 ) );
#474 = DIRECTION( '', ( 0.000000000000000, 1.00000000000000, 0.000000000000000 ) );
#475 = DIRECTION( '', ( 0.000000000000000, 1.00000000000000, 0.000000000000000 ) );
ENDSEC;
END-ISO-10303-21;
