ISO-10303-21;
HEADER;
FILE_DESCRIPTION( ( 'Unknown' ), '1' );
FILE_NAME( '//SBS2003/HD_Usb/Disegni/08_LIB/Users_3D/PROD_GAMM_3D/APP-I/7747230_APP_22_I.stp', 'Unknown', ( 'Unknown' ), ( 'Unknown' ), 'PSStep 14.0', 'Unknown', '  ' );
FILE_SCHEMA( ( 'AUTOMOTIVE_DESIGN { 1 0 10303 214 1 1 1 1 }' ) );
ENDSEC;
DATA;
#1 = MECHANICAL_DESIGN_GEOMETRIC_PRESENTATION_REPRESENTATION( ' ', ( #10, #11, #12, #13, #14, #15, #16, #17, #18, #19, #20, #21, #22 ), #6 );
#2 = PRODUCT_DEFINITION_CONTEXT( '', #23, 'design' );
#3 = APPLICATION_PROTOCOL_DEFINITION( 'international standard', 'automotive_design', 2001, #23 );
#4 = PRODUCT_CATEGORY_RELATIONSHIP( 'NONE', 'NONE', #24, #25 );
#5 = SHAPE_DEFINITION_REPRESENTATION( #26, #27 );
#6 =  ( GEOMETRIC_REPRESENTATION_CONTEXT( 3 )GLOBAL_UNCERTAINTY_ASSIGNED_CONTEXT( ( #30 ) )GLOBAL_UNIT_ASSIGNED_CONTEXT( ( #32, #33, #34 ) )REPRESENTATION_CONTEXT( 'NONE', 'WORKSPACE' ) );
#10 = STYLED_ITEM( '', ( #36 ), #37 );
#11 = STYLED_ITEM( '', ( #38 ), #39 );
#12 = STYLED_ITEM( '', ( #40 ), #41 );
#13 = STYLED_ITEM( '', ( #42 ), #43 );
#14 = STYLED_ITEM( '', ( #44 ), #45 );
#15 = STYLED_ITEM( '', ( #46 ), #47 );
#16 = STYLED_ITEM( '', ( #48 ), #49 );
#17 = STYLED_ITEM( '', ( #50 ), #51 );
#18 = STYLED_ITEM( '', ( #52 ), #53 );
#19 = STYLED_ITEM( '', ( #54 ), #55 );
#20 = STYLED_ITEM( '', ( #56 ), #57 );
#21 = STYLED_ITEM( '', ( #58 ), #59 );
#22 = STYLED_ITEM( '', ( #60 ), #61 );
#23 = APPLICATION_CONTEXT( 'core data for automotive mechanical design processes' );
#24 = PRODUCT_CATEGORY( 'part', 'NONE' );
#25 = PRODUCT_RELATED_PRODUCT_CATEGORY( 'detail', ' ', ( #62 ) );
#26 = PRODUCT_DEFINITION_SHAPE( 'NONE', 'NONE', #63 );
#27 = ADVANCED_BREP_SHAPE_REPRESENTATION( '1', ( #64, #65 ), #6 );
#30 = UNCERTAINTY_MEASURE_WITH_UNIT( LENGTH_MEASURE( 0.00100000000000000 ), #32, '', '' );
#32 =  ( CONVERSION_BASED_UNIT( 'MILLIMETRE', #68 )LENGTH_UNIT(  )NAMED_UNIT( #71 ) );
#33 =  ( NAMED_UNIT( #73 )PLANE_ANGLE_UNIT(  )SI_UNIT( $, .RADIAN. ) );
#34 =  ( NAMED_UNIT( #73 )SI_UNIT( $, .STERADIAN. )SOLID_ANGLE_UNIT(  ) );
#36 = PRESENTATION_STYLE_ASSIGNMENT( ( #79 ) );
#37 = ADVANCED_FACE( '', ( #80, #81 ), #82, .T. );
#38 = PRESENTATION_STYLE_ASSIGNMENT( ( #83 ) );
#39 = ADVANCED_FACE( '', ( #84 ), #85, .F. );
#40 = PRESENTATION_STYLE_ASSIGNMENT( ( #86 ) );
#41 = ADVANCED_FACE( '', ( #87, #88 ), #89, .T. );
#42 = PRESENTATION_STYLE_ASSIGNMENT( ( #90 ) );
#43 = ADVANCED_FACE( '', ( #91, #92 ), #93, .F. );
#44 = PRESENTATION_STYLE_ASSIGNMENT( ( #94 ) );
#45 = ADVANCED_FACE( '', ( #95 ), #96, .T. );
#46 = PRESENTATION_STYLE_ASSIGNMENT( ( #97 ) );
#47 = ADVANCED_FACE( '', ( #98 ), #99, .T. );
#48 = PRESENTATION_STYLE_ASSIGNMENT( ( #100 ) );
#49 = ADVANCED_FACE( '', ( #101 ), #102, .T. );
#50 = PRESENTATION_STYLE_ASSIGNMENT( ( #103 ) );
#51 = ADVANCED_FACE( '', ( #104 ), #105, .T. );
#52 = PRESENTATION_STYLE_ASSIGNMENT( ( #106 ) );
#53 = ADVANCED_FACE( '', ( #107, #108 ), #109, .T. );
#54 = PRESENTATION_STYLE_ASSIGNMENT( ( #110 ) );
#55 = ADVANCED_FACE( '', ( #111, #112 ), #113, .T. );
#56 = PRESENTATION_STYLE_ASSIGNMENT( ( #114 ) );
#57 = ADVANCED_FACE( '', ( #115 ), #116, .T. );
#58 = PRESENTATION_STYLE_ASSIGNMENT( ( #117 ) );
#59 = ADVANCED_FACE( '', ( #118 ), #119, .F. );
#60 = PRESENTATION_STYLE_ASSIGNMENT( ( #120 ) );
#61 = ADVANCED_FACE( '', ( #121 ), #122, .T. );
#62 = PRODUCT( '1', '1', 'PART-1-DESC', ( #123 ) );
#63 = PRODUCT_DEFINITION( 'NONE', 'NONE', #124, #2 );
#64 = MANIFOLD_SOLID_BREP( '1', #125 );
#65 = AXIS2_PLACEMENT_3D( '', #126, #127, #128 );
#68 = LENGTH_MEASURE_WITH_UNIT( LENGTH_MEASURE( 1.00000000000000 ), #129 );
#71 = DIMENSIONAL_EXPONENTS( 1.00000000000000, 0.000000000000000, 0.000000000000000, 0.000000000000000, 0.000000000000000, 0.000000000000000, 0.000000000000000 );
#73 = DIMENSIONAL_EXPONENTS( 0.000000000000000, 0.000000000000000, 0.000000000000000, 0.000000000000000, 0.000000000000000, 0.000000000000000, 0.000000000000000 );
#79 = SURFACE_STYLE_USAGE( .BOTH., #130 );
#80 = FACE_BOUND( '', #131, .T. );
#81 = FACE_OUTER_BOUND( '', #132, .T. );
#82 = CONICAL_SURFACE( '', #133, 6.00000000000000, 0.785398163397448 );
#83 = SURFACE_STYLE_USAGE( .BOTH., #134 );
#84 = FACE_OUTER_BOUND( '', #135, .T. );
#85 = PLANE( '', #136 );
#86 = SURFACE_STYLE_USAGE( .BOTH., #137 );
#87 = FACE_OUTER_BOUND( '', #138, .T. );
#88 = FACE_OUTER_BOUND( '', #139, .T. );
#89 = CYLINDRICAL_SURFACE( '', #140, 6.00000000000000 );
#90 = SURFACE_STYLE_USAGE( .BOTH., #141 );
#91 = FACE_OUTER_BOUND( '', #142, .T. );
#92 = FACE_BOUND( '', #143, .T. );
#93 = PLANE( '', #144 );
#94 = SURFACE_STYLE_USAGE( .BOTH., #145 );
#95 = FACE_OUTER_BOUND( '', #146, .T. );
#96 = CONICAL_SURFACE( '', #147, 5.00000000000000, 0.785398163397448 );
#97 = SURFACE_STYLE_USAGE( .BOTH., #148 );
#98 = FACE_OUTER_BOUND( '', #149, .T. );
#99 = PLANE( '', #150 );
#100 = SURFACE_STYLE_USAGE( .BOTH., #151 );
#101 = FACE_OUTER_BOUND( '', #152, .T. );
#102 = CONICAL_SURFACE( '', #153, 5.00000000000000, 0.785398163397448 );
#103 = SURFACE_STYLE_USAGE( .BOTH., #154 );
#104 = FACE_OUTER_BOUND( '', #155, .T. );
#105 = PLANE( '', #156 );
#106 = SURFACE_STYLE_USAGE( .BOTH., #157 );
#107 = FACE_OUTER_BOUND( '', #158, .T. );
#108 = FACE_OUTER_BOUND( '', #159, .T. );
#109 = CYLINDRICAL_SURFACE( '', #160, 3.00000000000000 );
#110 = SURFACE_STYLE_USAGE( .BOTH., #161 );
#111 = FACE_OUTER_BOUND( '', #162, .T. );
#112 = FACE_OUTER_BOUND( '', #163, .T. );
#113 = CYLINDRICAL_SURFACE( '', #164, 4.25000000000000 );
#114 = SURFACE_STYLE_USAGE( .BOTH., #165 );
#115 = FACE_OUTER_BOUND( '', #166, .T. );
#116 = SPHERICAL_SURFACE( '', #167, 3.00000000000000 );
#117 = SURFACE_STYLE_USAGE( .BOTH., #168 );
#118 = FACE_OUTER_BOUND( '', #169, .T. );
#119 = PLANE( '', #170 );
#120 = SURFACE_STYLE_USAGE( .BOTH., #171 );
#121 = FACE_OUTER_BOUND( '', #172, .T. );
#122 = PLANE( '', #173 );
#123 = PRODUCT_CONTEXT( '', #23, 'mechanical' );
#124 = PRODUCT_DEFINITION_FORMATION_WITH_SPECIFIED_SOURCE( ' ', 'NONE', #62, .NOT_KNOWN. );
#125 = CLOSED_SHELL( '', ( #41, #45, #47, #61, #49, #37, #53, #43, #39, #55, #57, #59, #51 ) );
#126 = CARTESIAN_POINT( '', ( 0.000000000000000, 0.000000000000000, 0.000000000000000 ) );
#127 = DIRECTION( '', ( 0.000000000000000, 0.000000000000000, 1.00000000000000 ) );
#128 = DIRECTION( '', ( 1.00000000000000, 0.000000000000000, 0.000000000000000 ) );
#129 =  ( LENGTH_UNIT(  )NAMED_UNIT( #71 )SI_UNIT( .MILLI., .METRE. ) );
#130 = SURFACE_SIDE_STYLE( '', ( #175 ) );
#131 = EDGE_LOOP( '', ( #176 ) );
#132 = EDGE_LOOP( '', ( #177 ) );
#133 = AXIS2_PLACEMENT_3D( '', #178, #179, #180 );
#134 = SURFACE_SIDE_STYLE( '', ( #181 ) );
#135 = EDGE_LOOP( '', ( #182, #183 ) );
#136 = AXIS2_PLACEMENT_3D( '', #184, #185, #186 );
#137 = SURFACE_SIDE_STYLE( '', ( #187 ) );
#138 = EDGE_LOOP( '', ( #188 ) );
#139 = EDGE_LOOP( '', ( #189, #190, #191, #192, #193, #194, #195, #196 ) );
#140 = AXIS2_PLACEMENT_3D( '', #197, #198, #199 );
#141 = SURFACE_SIDE_STYLE( '', ( #200 ) );
#142 = EDGE_LOOP( '', ( #201 ) );
#143 = EDGE_LOOP( '', ( #202 ) );
#144 = AXIS2_PLACEMENT_3D( '', #203, #204, #205 );
#145 = SURFACE_SIDE_STYLE( '', ( #206 ) );
#146 = EDGE_LOOP( '', ( #207, #208, #209, #210 ) );
#147 = AXIS2_PLACEMENT_3D( '', #211, #212, #213 );
#148 = SURFACE_SIDE_STYLE( '', ( #214 ) );
#149 = EDGE_LOOP( '', ( #215, #216, #217, #218 ) );
#150 = AXIS2_PLACEMENT_3D( '', #219, #220, #221 );
#151 = SURFACE_SIDE_STYLE( '', ( #222 ) );
#152 = EDGE_LOOP( '', ( #223, #224, #225, #226 ) );
#153 = AXIS2_PLACEMENT_3D( '', #227, #228, #229 );
#154 = SURFACE_SIDE_STYLE( '', ( #230 ) );
#155 = EDGE_LOOP( '', ( #231, #232, #233, #234, #235, #236 ) );
#156 = AXIS2_PLACEMENT_3D( '', #237, #238, #239 );
#157 = SURFACE_SIDE_STYLE( '', ( #240 ) );
#158 = EDGE_LOOP( '', ( #241 ) );
#159 = EDGE_LOOP( '', ( #242 ) );
#160 = AXIS2_PLACEMENT_3D( '', #243, #244, #245 );
#161 = SURFACE_SIDE_STYLE( '', ( #246 ) );
#162 = EDGE_LOOP( '', ( #247 ) );
#163 = EDGE_LOOP( '', ( #248 ) );
#164 = AXIS2_PLACEMENT_3D( '', #249, #250, #251 );
#165 = SURFACE_SIDE_STYLE( '', ( #252 ) );
#166 = EDGE_LOOP( '', ( #253 ) );
#167 = AXIS2_PLACEMENT_3D( '', #254, #255, #256 );
#168 = SURFACE_SIDE_STYLE( '', ( #257 ) );
#169 = EDGE_LOOP( '', ( #258, #259 ) );
#170 = AXIS2_PLACEMENT_3D( '', #260, #261, #262 );
#171 = SURFACE_SIDE_STYLE( '', ( #263 ) );
#172 = EDGE_LOOP( '', ( #264, #265, #266, #267, #268, #269 ) );
#173 = AXIS2_PLACEMENT_3D( '', #270, #271, #272 );
#175 = SURFACE_STYLE_FILL_AREA( #273 );
#176 = ORIENTED_EDGE( '', *, *, #274, .F. );
#177 = ORIENTED_EDGE( '', *, *, #275, .F. );
#178 = CARTESIAN_POINT( '', ( 3.27498903271780E-017, 0.000000000000000, 7.00000000000000 ) );
#179 = DIRECTION( '', ( -3.27498903271780E-017, 0.000000000000000, 1.00000000000000 ) );
#180 = DIRECTION( '', ( 1.00000000000000, 0.000000000000000, 3.27498903271780E-017 ) );
#181 = SURFACE_STYLE_FILL_AREA( #276 );
#182 = ORIENTED_EDGE( '', *, *, #277, .F. );
#183 = ORIENTED_EDGE( '', *, *, #278, .T. );
#184 = CARTESIAN_POINT( '', ( 6.00000000000000, 0.000000000000000, 25.5000000000000 ) );
#185 = DIRECTION( '', ( 3.27498903271780E-017, 0.000000000000000, -1.00000000000000 ) );
#186 = DIRECTION( '', ( -1.00000000000000, 0.000000000000000, -3.27498903271780E-017 ) );
#187 = SURFACE_STYLE_FILL_AREA( #279 );
#188 = ORIENTED_EDGE( '', *, *, #275, .T. );
#189 = ORIENTED_EDGE( '', *, *, #280, .F. );
#190 = ORIENTED_EDGE( '', *, *, #281, .T. );
#191 = ORIENTED_EDGE( '', *, *, #282, .F. );
#192 = ORIENTED_EDGE( '', *, *, #283, .F. );
#193 = ORIENTED_EDGE( '', *, *, #284, .F. );
#194 = ORIENTED_EDGE( '', *, *, #285, .T. );
#195 = ORIENTED_EDGE( '', *, *, #286, .F. );
#196 = ORIENTED_EDGE( '', *, *, #287, .F. );
#197 = CARTESIAN_POINT( '', ( -2.61999122617424E-016, 0.000000000000000, 16.0000000000000 ) );
#198 = DIRECTION( '', ( 3.27498903271780E-017, -0.000000000000000, -1.00000000000000 ) );
#199 = DIRECTION( '', ( 1.00000000000000, 0.000000000000000, 3.27498903271780E-017 ) );
#200 = SURFACE_STYLE_FILL_AREA( #288 );
#201 = ORIENTED_EDGE( '', *, *, #289, .F. );
#202 = ORIENTED_EDGE( '', *, *, #290, .T. );
#203 = CARTESIAN_POINT( '', ( 3.00000000000000, 0.000000000000000, 3.50000000000000 ) );
#204 = DIRECTION( '', ( -3.27498903271780E-017, 0.000000000000000, 1.00000000000000 ) );
#205 = DIRECTION( '', ( 1.00000000000000, 0.000000000000000, 3.27498903271780E-017 ) );
#206 = SURFACE_STYLE_FILL_AREA( #291 );
#207 = ORIENTED_EDGE( '', *, *, #292, .F. );
#208 = ORIENTED_EDGE( '', *, *, #285, .F. );
#209 = ORIENTED_EDGE( '', *, *, #293, .F. );
#210 = ORIENTED_EDGE( '', *, *, #294, .F. );
#211 = CARTESIAN_POINT( '', ( -5.73123080725615E-016, 0.000000000000000, 25.5000000000000 ) );
#212 = DIRECTION( '', ( 3.27498903271780E-017, -0.000000000000000, -1.00000000000000 ) );
#213 = DIRECTION( '', ( -1.00000000000000, 0.000000000000000, -3.27498903271780E-017 ) );
#214 = SURFACE_STYLE_FILL_AREA( #295 );
#215 = ORIENTED_EDGE( '', *, *, #287, .T. );
#216 = ORIENTED_EDGE( '', *, *, #296, .F. );
#217 = ORIENTED_EDGE( '', *, *, #283, .T. );
#218 = ORIENTED_EDGE( '', *, *, #297, .T. );
#219 = CARTESIAN_POINT( '', ( -0.750000000000000, -12.5000000000000, 24.2000000000000 ) );
#220 = DIRECTION( '', ( 0.000000000000000, 0.000000000000000, 1.00000000000000 ) );
#221 = DIRECTION( '', ( 1.00000000000000, 0.000000000000000, 0.000000000000000 ) );
#222 = SURFACE_STYLE_FILL_AREA( #298 );
#223 = ORIENTED_EDGE( '', *, *, #299, .F. );
#224 = ORIENTED_EDGE( '', *, *, #281, .F. );
#225 = ORIENTED_EDGE( '', *, *, #300, .F. );
#226 = ORIENTED_EDGE( '', *, *, #278, .F. );
#227 = CARTESIAN_POINT( '', ( -5.73123080725615E-016, 0.000000000000000, 25.5000000000000 ) );
#228 = DIRECTION( '', ( 3.27498903271780E-017, -0.000000000000000, -1.00000000000000 ) );
#229 = DIRECTION( '', ( -1.00000000000000, 0.000000000000000, -3.27498903271780E-017 ) );
#230 = SURFACE_STYLE_FILL_AREA( #301 );
#231 = ORIENTED_EDGE( '', *, *, #302, .F. );
#232 = ORIENTED_EDGE( '', *, *, #293, .T. );
#233 = ORIENTED_EDGE( '', *, *, #284, .T. );
#234 = ORIENTED_EDGE( '', *, *, #296, .T. );
#235 = ORIENTED_EDGE( '', *, *, #286, .T. );
#236 = ORIENTED_EDGE( '', *, *, #292, .T. );
#237 = CARTESIAN_POINT( '', ( -0.750000000000000, -12.5000000000000, 25.5000000000000 ) );
#238 = DIRECTION( '', ( 1.00000000000000, 0.000000000000000, 8.34001671142696E-017 ) );
#239 = DIRECTION( '', ( 8.34001671142696E-017, 0.000000000000000, -1.00000000000000 ) );
#240 = SURFACE_STYLE_FILL_AREA( #303 );
#241 = ORIENTED_EDGE( '', *, *, #290, .F. );
#242 = ORIENTED_EDGE( '', *, *, #304, .T. );
#243 = CARTESIAN_POINT( '', ( -2.61999122617424E-016, 0.000000000000000, 16.0000000000000 ) );
#244 = DIRECTION( '', ( 3.27498903271780E-017, -0.000000000000000, -1.00000000000000 ) );
#245 = DIRECTION( '', ( 1.00000000000000, 0.000000000000000, 3.27498903271780E-017 ) );
#246 = SURFACE_STYLE_FILL_AREA( #305 );
#247 = ORIENTED_EDGE( '', *, *, #274, .T. );
#248 = ORIENTED_EDGE( '', *, *, #289, .T. );
#249 = CARTESIAN_POINT( '', ( -2.61999122617424E-016, 0.000000000000000, 16.0000000000000 ) );
#250 = DIRECTION( '', ( 3.27498903271780E-017, -0.000000000000000, -1.00000000000000 ) );
#251 = DIRECTION( '', ( 1.00000000000000, 0.000000000000000, 3.27498903271780E-017 ) );
#252 = SURFACE_STYLE_FILL_AREA( #306 );
#253 = ORIENTED_EDGE( '', *, *, #304, .F. );
#254 = CARTESIAN_POINT( '', ( 2.75545529808154E-015, 0.000000000000000, 3.00000000000000 ) );
#255 = DIRECTION( '', ( -3.27498903271780E-017, 0.000000000000000, 1.00000000000000 ) );
#256 = DIRECTION( '', ( -1.00000000000000, 0.000000000000000, -3.27498903271780E-017 ) );
#257 = SURFACE_STYLE_FILL_AREA( #307 );
#258 = ORIENTED_EDGE( '', *, *, #302, .T. );
#259 = ORIENTED_EDGE( '', *, *, #294, .T. );
#260 = CARTESIAN_POINT( '', ( 6.00000000000000, 0.000000000000000, 25.5000000000000 ) );
#261 = DIRECTION( '', ( 3.27498903271780E-017, 0.000000000000000, -1.00000000000000 ) );
#262 = DIRECTION( '', ( -1.00000000000000, 0.000000000000000, -3.27498903271780E-017 ) );
#263 = SURFACE_STYLE_FILL_AREA( #308 );
#264 = ORIENTED_EDGE( '', *, *, #277, .T. );
#265 = ORIENTED_EDGE( '', *, *, #300, .T. );
#266 = ORIENTED_EDGE( '', *, *, #280, .T. );
#267 = ORIENTED_EDGE( '', *, *, #297, .F. );
#268 = ORIENTED_EDGE( '', *, *, #282, .T. );
#269 = ORIENTED_EDGE( '', *, *, #299, .T. );
#270 = CARTESIAN_POINT( '', ( 0.750000000000000, -12.5000000000000, 24.2000000000000 ) );
#271 = DIRECTION( '', ( -1.00000000000000, 0.000000000000000, 8.34001671142696E-017 ) );
#272 = DIRECTION( '', ( 8.34001671142696E-017, 0.000000000000000, 1.00000000000000 ) );
#273 = FILL_AREA_STYLE( '', ( #309 ) );
#274 = EDGE_CURVE( '', #310, #310, #311, .F. );
#275 = EDGE_CURVE( '', #312, #312, #313, .T. );
#276 = FILL_AREA_STYLE( '', ( #314 ) );
#277 = EDGE_CURVE( '', #315, #316, #317, .T. );
#278 = EDGE_CURVE( '', #315, #316, #318, .F. );
#279 = FILL_AREA_STYLE( '', ( #319 ) );
#280 = EDGE_CURVE( '', #320, #321, #322, .F. );
#281 = EDGE_CURVE( '', #320, #323, #324, .T. );
#282 = EDGE_CURVE( '', #325, #323, #326, .T. );
#283 = EDGE_CURVE( '', #327, #325, #328, .T. );
#284 = EDGE_CURVE( '', #329, #327, #330, .F. );
#285 = EDGE_CURVE( '', #329, #331, #332, .T. );
#286 = EDGE_CURVE( '', #333, #331, #334, .T. );
#287 = EDGE_CURVE( '', #321, #333, #335, .T. );
#288 = FILL_AREA_STYLE( '', ( #336 ) );
#289 = EDGE_CURVE( '', #337, #337, #338, .T. );
#290 = EDGE_CURVE( '', #339, #339, #340, .T. );
#291 = FILL_AREA_STYLE( '', ( #341 ) );
#292 = EDGE_CURVE( '', #331, #342, #343, .T. );
#293 = EDGE_CURVE( '', #344, #329, #345, .T. );
#294 = EDGE_CURVE( '', #342, #344, #346, .F. );
#295 = FILL_AREA_STYLE( '', ( #347 ) );
#296 = EDGE_CURVE( '', #327, #333, #348, .T. );
#297 = EDGE_CURVE( '', #325, #321, #349, .T. );
#298 = FILL_AREA_STYLE( '', ( #350 ) );
#299 = EDGE_CURVE( '', #323, #315, #351, .T. );
#300 = EDGE_CURVE( '', #316, #320, #352, .T. );
#301 = FILL_AREA_STYLE( '', ( #353 ) );
#302 = EDGE_CURVE( '', #344, #342, #354, .T. );
#303 = FILL_AREA_STYLE( '', ( #355 ) );
#304 = EDGE_CURVE( '', #356, #356, #357, .T. );
#305 = FILL_AREA_STYLE( '', ( #358 ) );
#306 = FILL_AREA_STYLE( '', ( #359 ) );
#307 = FILL_AREA_STYLE( '', ( #360 ) );
#308 = FILL_AREA_STYLE( '', ( #361 ) );
#309 = FILL_AREA_STYLE_COLOUR( '', #362 );
#310 = VERTEX_POINT( '', #363 );
#311 = CIRCLE( '', #364, 4.25000000000000 );
#312 = VERTEX_POINT( '', #365 );
#313 = CIRCLE( '', #366, 6.00000000000000 );
#314 = FILL_AREA_STYLE_COLOUR( '', #367 );
#315 = VERTEX_POINT( '', #368 );
#316 = VERTEX_POINT( '', #369 );
#317 = LINE( '', #370, #371 );
#318 = CIRCLE( '', #372, 5.00000000000000 );
#319 = FILL_AREA_STYLE_COLOUR( '', #373 );
#320 = VERTEX_POINT( '', #374 );
#321 = VERTEX_POINT( '', #375 );
#322 = LINE( '', #376, #377 );
#323 = VERTEX_POINT( '', #378 );
#324 = CIRCLE( '', #379, 6.00000000000000 );
#325 = VERTEX_POINT( '', #380 );
#326 = LINE( '', #381, #382 );
#327 = VERTEX_POINT( '', #383 );
#328 = CIRCLE( '', #384, 6.00000000000000 );
#329 = VERTEX_POINT( '', #385 );
#330 = LINE( '', #386, #387 );
#331 = VERTEX_POINT( '', #388 );
#332 = CIRCLE( '', #389, 6.00000000000000 );
#333 = VERTEX_POINT( '', #390 );
#334 = LINE( '', #391, #392 );
#335 = CIRCLE( '', #393, 6.00000000000000 );
#336 = FILL_AREA_STYLE_COLOUR( '', #394 );
#337 = VERTEX_POINT( '', #395 );
#338 = CIRCLE( '', #396, 4.25000000000000 );
#339 = VERTEX_POINT( '', #397 );
#340 = CIRCLE( '', #398, 3.00000000000000 );
#341 = FILL_AREA_STYLE_COLOUR( '', #399 );
#342 = VERTEX_POINT( '', #400 );
#343 = B_SPLINE_CURVE_WITH_KNOTS( '', 3, ( #401, #402, #403, #404 ), .UNSPECIFIED., .F., .F., ( 4, 4 ), ( 0.000000000000000, 0.00142095439128866 ), .UNSPECIFIED. );
#344 = VERTEX_POINT( '', #405 );
#345 = B_SPLINE_CURVE_WITH_KNOTS( '', 3, ( #406, #407, #408, #409 ), .UNSPECIFIED., .F., .F., ( 4, 4 ), ( 6.25463444138550E-018, 0.00142095439128866 ), .UNSPECIFIED. );
#346 = CIRCLE( '', #410, 5.00000000000000 );
#347 = FILL_AREA_STYLE_COLOUR( '', #411 );
#348 = LINE( '', #412, #413 );
#349 = LINE( '', #414, #415 );
#350 = FILL_AREA_STYLE_COLOUR( '', #416 );
#351 = B_SPLINE_CURVE_WITH_KNOTS( '', 3, ( #417, #418, #419, #420 ), .UNSPECIFIED., .F., .F., ( 4, 4 ), ( 0.000000000000000, 0.00142095439128866 ), .UNSPECIFIED. );
#352 = B_SPLINE_CURVE_WITH_KNOTS( '', 3, ( #421, #422, #423, #424 ), .UNSPECIFIED., .F., .F., ( 4, 4 ), ( 0.000000000000000, 0.00142095439128866 ), .UNSPECIFIED. );
#353 = FILL_AREA_STYLE_COLOUR( '', #425 );
#354 = LINE( '', #426, #427 );
#355 = FILL_AREA_STYLE_COLOUR( '', #428 );
#356 = VERTEX_POINT( '', #429 );
#357 = CIRCLE( '', #430, 3.00000000000000 );
#358 = FILL_AREA_STYLE_COLOUR( '', #431 );
#359 = FILL_AREA_STYLE_COLOUR( '', #432 );
#360 = FILL_AREA_STYLE_COLOUR( '', #433 );
#361 = FILL_AREA_STYLE_COLOUR( '', #434 );
#362 = COLOUR_RGB( '', 0.800000011920929, 0.800000011920929, 0.800000011920929 );
#363 = CARTESIAN_POINT( '', ( 4.25000000000000, 0.000000000000000, 5.25000000000000 ) );
#364 = AXIS2_PLACEMENT_3D( '', #435, #436, #437 );
#365 = CARTESIAN_POINT( '', ( 6.00000000000000, 0.000000000000000, 7.00000000000000 ) );
#366 = AXIS2_PLACEMENT_3D( '', #438, #439, #440 );
#367 = COLOUR_RGB( '', 0.800000011920929, 0.800000011920929, 0.800000011920929 );
#368 = CARTESIAN_POINT( '', ( 0.750000000000000, -4.94342998332130, 25.5000000000000 ) );
#369 = CARTESIAN_POINT( '', ( 0.750000000000000, 4.94342998332130, 25.5000000000000 ) );
#370 = CARTESIAN_POINT( '', ( 0.750000000000000, -12.5000000000000, 25.5000000000000 ) );
#371 = VECTOR( '', #441, 1000.00000000000 );
#372 = AXIS2_PLACEMENT_3D( '', #442, #443, #444 );
#373 = COLOUR_RGB( '', 0.752941191196442, 0.752941191196442, 0.752941191196442 );
#374 = CARTESIAN_POINT( '', ( 0.750000000000000, 5.95294044989533, 24.5000000000000 ) );
#375 = CARTESIAN_POINT( '', ( 0.750000000000000, 5.95294044989533, 24.2000000000000 ) );
#376 = CARTESIAN_POINT( '', ( 0.750000000000000, 5.95294044989533, 16.0000000000000 ) );
#377 = VECTOR( '', #445, 1000.00000000000 );
#378 = CARTESIAN_POINT( '', ( 0.750000000000000, -5.95294044989533, 24.5000000000000 ) );
#379 = AXIS2_PLACEMENT_3D( '', #446, #447, #448 );
#380 = CARTESIAN_POINT( '', ( 0.750000000000000, -5.95294044989533, 24.2000000000000 ) );
#381 = CARTESIAN_POINT( '', ( 0.750000000000000, -5.95294044989533, 16.0000000000000 ) );
#382 = VECTOR( '', #449, 1000.00000000000 );
#383 = CARTESIAN_POINT( '', ( -0.750000000000000, -5.95294044989533, 24.2000000000000 ) );
#384 = AXIS2_PLACEMENT_3D( '', #450, #451, #452 );
#385 = CARTESIAN_POINT( '', ( -0.750000000000000, -5.95294044989533, 24.5000000000000 ) );
#386 = CARTESIAN_POINT( '', ( -0.750000000000000, -5.95294044989533, 16.0000000000000 ) );
#387 = VECTOR( '', #453, 1000.00000000000 );
#388 = CARTESIAN_POINT( '', ( -0.750000000000000, 5.95294044989533, 24.5000000000000 ) );
#389 = AXIS2_PLACEMENT_3D( '', #454, #455, #456 );
#390 = CARTESIAN_POINT( '', ( -0.750000000000000, 5.95294044989533, 24.2000000000000 ) );
#391 = CARTESIAN_POINT( '', ( -0.750000000000000, 5.95294044989533, 16.0000000000000 ) );
#392 = VECTOR( '', #457, 1000.00000000000 );
#393 = AXIS2_PLACEMENT_3D( '', #458, #459, #460 );
#394 = COLOUR_RGB( '', 0.800000011920929, 0.800000011920929, 0.800000011920929 );
#395 = CARTESIAN_POINT( '', ( 4.25000000000000, 0.000000000000000, 3.50000000000000 ) );
#396 = AXIS2_PLACEMENT_3D( '', #461, #462, #463 );
#397 = CARTESIAN_POINT( '', ( 3.00000000000000, 0.000000000000000, 3.50000000000000 ) );
#398 = AXIS2_PLACEMENT_3D( '', #464, #465, #466 );
#399 = COLOUR_RGB( '', 0.800000011920929, 0.800000011920929, 0.800000011920929 );
#400 = CARTESIAN_POINT( '', ( -0.750000000000000, 4.94342998332129, 25.5000000000000 ) );
#401 = CARTESIAN_POINT( '', ( -0.750000000000000, 5.95294044989533, 24.5000000000000 ) );
#402 = CARTESIAN_POINT( '', ( -0.750000000000000, 5.61670228224376, 24.8336009648353 ) );
#403 = CARTESIAN_POINT( '', ( -0.750000000000000, 5.28025212865203, 25.1669886615451 ) );
#404 = CARTESIAN_POINT( '', ( -0.750000000000000, 4.94342998332130, 25.5000000000000 ) );
#405 = CARTESIAN_POINT( '', ( -0.750000000000000, -4.94342998332129, 25.5000000000000 ) );
#406 = CARTESIAN_POINT( '', ( -0.750000000000000, -4.94342998332130, 25.5000000000000 ) );
#407 = CARTESIAN_POINT( '', ( -0.750000000000000, -5.28025212865203, 25.1669886615451 ) );
#408 = CARTESIAN_POINT( '', ( -0.750000000000000, -5.61670228224376, 24.8336009648353 ) );
#409 = CARTESIAN_POINT( '', ( -0.750000000000000, -5.95294044989533, 24.5000000000000 ) );
#410 = AXIS2_PLACEMENT_3D( '', #467, #468, #469 );
#411 = COLOUR_RGB( '', 0.800000011920929, 0.800000011920929, 0.800000011920929 );
#412 = CARTESIAN_POINT( '', ( -0.750000000000000, -12.5000000000000, 24.2000000000000 ) );
#413 = VECTOR( '', #470, 1000.00000000000 );
#414 = CARTESIAN_POINT( '', ( 0.750000000000000, -12.5000000000000, 24.2000000000000 ) );
#415 = VECTOR( '', #471, 1000.00000000000 );
#416 = COLOUR_RGB( '', 0.800000011920929, 0.800000011920929, 0.800000011920929 );
#417 = CARTESIAN_POINT( '', ( 0.750000000000000, -5.95294044989533, 24.5000000000000 ) );
#418 = CARTESIAN_POINT( '', ( 0.750000000000000, -5.61670228224376, 24.8336009648353 ) );
#419 = CARTESIAN_POINT( '', ( 0.750000000000000, -5.28025212865203, 25.1669886615451 ) );
#420 = CARTESIAN_POINT( '', ( 0.750000000000000, -4.94342998332130, 25.5000000000000 ) );
#421 = CARTESIAN_POINT( '', ( 0.750000000000000, 4.94342998332130, 25.5000000000000 ) );
#422 = CARTESIAN_POINT( '', ( 0.750000000000000, 5.28025212865203, 25.1669886615451 ) );
#423 = CARTESIAN_POINT( '', ( 0.750000000000000, 5.61670228224376, 24.8336009648353 ) );
#424 = CARTESIAN_POINT( '', ( 0.750000000000000, 5.95294044989533, 24.5000000000000 ) );
#425 = COLOUR_RGB( '', 0.800000011920929, 0.800000011920929, 0.800000011920929 );
#426 = CARTESIAN_POINT( '', ( -0.750000000000000, -12.5000000000000, 25.5000000000000 ) );
#427 = VECTOR( '', #472, 1000.00000000000 );
#428 = COLOUR_RGB( '', 0.800000011920929, 0.800000011920929, 0.800000011920929 );
#429 = CARTESIAN_POINT( '', ( 3.00000000000000, 0.000000000000000, 3.00000000000000 ) );
#430 = AXIS2_PLACEMENT_3D( '', #473, #474, #475 );
#431 = COLOUR_RGB( '', 0.800000011920929, 0.800000011920929, 0.800000011920929 );
#432 = COLOUR_RGB( '', 0.800000011920929, 0.800000011920929, 0.800000011920929 );
#433 = COLOUR_RGB( '', 0.800000011920929, 0.800000011920929, 0.800000011920929 );
#434 = COLOUR_RGB( '', 0.800000011920929, 0.800000011920929, 0.800000011920929 );
#435 = CARTESIAN_POINT( '', ( 9.00621983997394E-017, 0.000000000000000, 5.25000000000000 ) );
#436 = DIRECTION( '', ( -3.27498903271780E-017, 0.000000000000000, 1.00000000000000 ) );
#437 = DIRECTION( '', ( 1.00000000000000, 0.000000000000000, 3.27498903271780E-017 ) );
#438 = CARTESIAN_POINT( '', ( 3.27498903271780E-017, 0.000000000000000, 7.00000000000000 ) );
#439 = DIRECTION( '', ( -3.27498903271780E-017, 0.000000000000000, 1.00000000000000 ) );
#440 = DIRECTION( '', ( 1.00000000000000, 0.000000000000000, 3.27498903271780E-017 ) );
#441 = DIRECTION( '', ( 0.000000000000000, 1.00000000000000, 0.000000000000000 ) );
#442 = CARTESIAN_POINT( '', ( -5.73123080725615E-016, 0.000000000000000, 25.5000000000000 ) );
#443 = DIRECTION( '', ( 3.27498903271780E-017, 0.000000000000000, -1.00000000000000 ) );
#444 = DIRECTION( '', ( -1.00000000000000, 0.000000000000000, -3.27498903271780E-017 ) );
#445 = DIRECTION( '', ( -3.27498903271780E-017, 0.000000000000000, 1.00000000000000 ) );
#446 = CARTESIAN_POINT( '', ( -5.40373190398437E-016, 0.000000000000000, 24.5000000000000 ) );
#447 = DIRECTION( '', ( 3.27498903271780E-017, 0.000000000000000, -1.00000000000000 ) );
#448 = DIRECTION( '', ( -1.00000000000000, 0.000000000000000, -3.27498903271780E-017 ) );
#449 = DIRECTION( '', ( -3.27498903271780E-017, 0.000000000000000, 1.00000000000000 ) );
#450 = CARTESIAN_POINT( '', ( -5.30548223300284E-016, 0.000000000000000, 24.2000000000000 ) );
#451 = DIRECTION( '', ( 0.000000000000000, 0.000000000000000, 1.00000000000000 ) );
#452 = DIRECTION( '', ( 1.00000000000000, 0.000000000000000, 0.000000000000000 ) );
#453 = DIRECTION( '', ( -3.27498903271780E-017, 0.000000000000000, 1.00000000000000 ) );
#454 = CARTESIAN_POINT( '', ( -5.40373190398437E-016, 0.000000000000000, 24.5000000000000 ) );
#455 = DIRECTION( '', ( 3.27498903271780E-017, 0.000000000000000, -1.00000000000000 ) );
#456 = DIRECTION( '', ( -1.00000000000000, 0.000000000000000, -3.27498903271780E-017 ) );
#457 = DIRECTION( '', ( -3.27498903271780E-017, 0.000000000000000, 1.00000000000000 ) );
#458 = CARTESIAN_POINT( '', ( -5.30548223300284E-016, 0.000000000000000, 24.2000000000000 ) );
#459 = DIRECTION( '', ( 0.000000000000000, 0.000000000000000, 1.00000000000000 ) );
#460 = DIRECTION( '', ( 1.00000000000000, 0.000000000000000, 0.000000000000000 ) );
#461 = CARTESIAN_POINT( '', ( 1.47374506472301E-016, 0.000000000000000, 3.50000000000000 ) );
#462 = DIRECTION( '', ( -3.27498903271780E-017, 0.000000000000000, 1.00000000000000 ) );
#463 = DIRECTION( '', ( 1.00000000000000, 0.000000000000000, 3.27498903271780E-017 ) );
#464 = CARTESIAN_POINT( '', ( 1.47374506472301E-016, 0.000000000000000, 3.50000000000000 ) );
#465 = DIRECTION( '', ( -3.27498903271780E-017, 0.000000000000000, 1.00000000000000 ) );
#466 = DIRECTION( '', ( 1.00000000000000, 0.000000000000000, 3.27498903271780E-017 ) );
#467 = CARTESIAN_POINT( '', ( -5.73123080725615E-016, 0.000000000000000, 25.5000000000000 ) );
#468 = DIRECTION( '', ( 3.27498903271780E-017, 0.000000000000000, -1.00000000000000 ) );
#469 = DIRECTION( '', ( -1.00000000000000, 0.000000000000000, -3.27498903271780E-017 ) );
#470 = DIRECTION( '', ( 0.000000000000000, 1.00000000000000, 0.000000000000000 ) );
#471 = DIRECTION( '', ( 0.000000000000000, 1.00000000000000, 0.000000000000000 ) );
#472 = DIRECTION( '', ( 0.000000000000000, 1.00000000000000, 0.000000000000000 ) );
#473 = CARTESIAN_POINT( '', ( 1.63749451635890E-016, 0.000000000000000, 3.00000000000000 ) );
#474 = DIRECTION( '', ( -3.27498903271780E-017, 0.000000000000000, 1.00000000000000 ) );
#475 = DIRECTION( '', ( 1.00000000000000, 0.000000000000000, 3.27498903271780E-017 ) );
ENDSEC;
END-ISO-10303-21;
