ISO-10303-21;
HEADER;
FILE_DESCRIPTION( ( 'Unknown' ), '1' );
FILE_NAME( '//SBS2003/HD_Usb/Disegni/08_LIB/Users_3D/PROD_GAMM_3D/APP-I/7747230_APP_22_IR.stp', 'Unknown', ( 'Unknown' ), ( 'Unknown' ), 'PSStep 14.0', 'Unknown', '  ' );
FILE_SCHEMA( ( 'AUTOMOTIVE_DESIGN { 1 0 10303 214 1 1 1 1 }' ) );
ENDSEC;
DATA;
#1 = MECHANICAL_DESIGN_GEOMETRIC_PRESENTATION_REPRESENTATION( ' ', ( #10, #11, #12, #13, #14, #15, #16, #17, #18, #19, #20, #21, #22 ), #6 );
#2 = PRODUCT_DEFINITION_CONTEXT( '', #23, 'design' );
#3 = APPLICATION_PROTOCOL_DEFINITION( 'international standard', 'automotive_design', 2001, #23 );
#4 = PRODUCT_CATEGORY_RELATIONSHIP( 'NONE', 'NONE', #24, #25 );
#5 = SHAPE_DEFINITION_REPRESENTATION( #26, #27 );
#6 =  ( GEOMETRIC_REPRESENTATION_CONTEXT( 3 )GLOBAL_UNCERTAINTY_ASSIGNED_CONTEXT( ( #30 ) )GLOBAL_UNIT_ASSIGNED_CONTEXT( ( #32, #33, #34 ) )REPRESENTATION_CONTEXT( 'NONE', 'WORKSPACE' ) );
#10 = STYLED_ITEM( '', ( #36 ), #37 );
#11 = STYLED_ITEM( '', ( #38 ), #39 );
#12 = STYLED_ITEM( '', ( #40 ), #41 );
#13 = STYLED_ITEM( '', ( #42 ), #43 );
#14 = STYLED_ITEM( '', ( #44 ), #45 );
#15 = STYLED_ITEM( '', ( #46 ), #47 );
#16 = STYLED_ITEM( '', ( #48 ), #49 );
#17 = STYLED_ITEM( '', ( #50 ), #51 );
#18 = STYLED_ITEM( '', ( #52 ), #53 );
#19 = STYLED_ITEM( '', ( #54 ), #55 );
#20 = STYLED_ITEM( '', ( #56 ), #57 );
#21 = STYLED_ITEM( '', ( #58 ), #59 );
#22 = STYLED_ITEM( '', ( #60 ), #61 );
#23 = APPLICATION_CONTEXT( 'core data for automotive mechanical design processes' );
#24 = PRODUCT_CATEGORY( 'part', 'NONE' );
#25 = PRODUCT_RELATED_PRODUCT_CATEGORY( 'detail', ' ', ( #62 ) );
#26 = PRODUCT_DEFINITION_SHAPE( 'NONE', 'NONE', #63 );
#27 = ADVANCED_BREP_SHAPE_REPRESENTATION( '1', ( #64, #65 ), #6 );
#30 = UNCERTAINTY_MEASURE_WITH_UNIT( LENGTH_MEASURE( 0.00100000000000000 ), #32, '', '' );
#32 =  ( CONVERSION_BASED_UNIT( 'MILLIMETRE', #68 )LENGTH_UNIT(  )NAMED_UNIT( #71 ) );
#33 =  ( NAMED_UNIT( #73 )PLANE_ANGLE_UNIT(  )SI_UNIT( $, .RADIAN. ) );
#34 =  ( NAMED_UNIT( #73 )SI_UNIT( $, .STERADIAN. )SOLID_ANGLE_UNIT(  ) );
#36 = PRESENTATION_STYLE_ASSIGNMENT( ( #79 ) );
#37 = ADVANCED_FACE( '', ( #80, #81 ), #82, .T. );
#38 = PRESENTATION_STYLE_ASSIGNMENT( ( #83 ) );
#39 = ADVANCED_FACE( '', ( #84 ), #85, .T. );
#40 = PRESENTATION_STYLE_ASSIGNMENT( ( #86 ) );
#41 = ADVANCED_FACE( '', ( #87, #88 ), #89, .T. );
#42 = PRESENTATION_STYLE_ASSIGNMENT( ( #90 ) );
#43 = ADVANCED_FACE( '', ( #91, #92 ), #93, .F. );
#44 = PRESENTATION_STYLE_ASSIGNMENT( ( #94 ) );
#45 = ADVANCED_FACE( '', ( #95 ), #96, .T. );
#46 = PRESENTATION_STYLE_ASSIGNMENT( ( #97 ) );
#47 = ADVANCED_FACE( '', ( #98, #99 ), #100, .T. );
#48 = PRESENTATION_STYLE_ASSIGNMENT( ( #101 ) );
#49 = ADVANCED_FACE( '', ( #102 ), #103, .T. );
#50 = PRESENTATION_STYLE_ASSIGNMENT( ( #104 ) );
#51 = ADVANCED_FACE( '', ( #105 ), #106, .T. );
#52 = PRESENTATION_STYLE_ASSIGNMENT( ( #107 ) );
#53 = ADVANCED_FACE( '', ( #108 ), #109, .F. );
#54 = PRESENTATION_STYLE_ASSIGNMENT( ( #110 ) );
#55 = ADVANCED_FACE( '', ( #111 ), #112, .T. );
#56 = PRESENTATION_STYLE_ASSIGNMENT( ( #113 ) );
#57 = ADVANCED_FACE( '', ( #114 ), #115, .F. );
#58 = PRESENTATION_STYLE_ASSIGNMENT( ( #116 ) );
#59 = ADVANCED_FACE( '', ( #117, #118 ), #119, .T. );
#60 = PRESENTATION_STYLE_ASSIGNMENT( ( #120 ) );
#61 = ADVANCED_FACE( '', ( #121 ), #122, .T. );
#62 = PRODUCT( '1', '1', 'PART-1-DESC', ( #123 ) );
#63 = PRODUCT_DEFINITION( 'NONE', 'NONE', #124, #2 );
#64 = MANIFOLD_SOLID_BREP( '1', #125 );
#65 = AXIS2_PLACEMENT_3D( '', #126, #127, #128 );
#68 = LENGTH_MEASURE_WITH_UNIT( LENGTH_MEASURE( 1.00000000000000 ), #129 );
#71 = DIMENSIONAL_EXPONENTS( 1.00000000000000, 0.000000000000000, 0.000000000000000, 0.000000000000000, 0.000000000000000, 0.000000000000000, 0.000000000000000 );
#73 = DIMENSIONAL_EXPONENTS( 0.000000000000000, 0.000000000000000, 0.000000000000000, 0.000000000000000, 0.000000000000000, 0.000000000000000, 0.000000000000000 );
#79 = SURFACE_STYLE_USAGE( .BOTH., #130 );
#80 = FACE_OUTER_BOUND( '', #131, .T. );
#81 = FACE_OUTER_BOUND( '', #132, .T. );
#82 = CYLINDRICAL_SURFACE( '', #133, 6.00000000000000 );
#83 = SURFACE_STYLE_USAGE( .BOTH., #134 );
#84 = FACE_OUTER_BOUND( '', #135, .T. );
#85 = PLANE( '', #136 );
#86 = SURFACE_STYLE_USAGE( .BOTH., #137 );
#87 = FACE_OUTER_BOUND( '', #138, .T. );
#88 = FACE_OUTER_BOUND( '', #139, .T. );
#89 = CYLINDRICAL_SURFACE( '', #140, 3.00000000000000 );
#90 = SURFACE_STYLE_USAGE( .BOTH., #141 );
#91 = FACE_OUTER_BOUND( '', #142, .T. );
#92 = FACE_BOUND( '', #143, .T. );
#93 = PLANE( '', #144 );
#94 = SURFACE_STYLE_USAGE( .BOTH., #145 );
#95 = FACE_OUTER_BOUND( '', #146, .T. );
#96 = CONICAL_SURFACE( '', #147, 5.00000000000000, 0.785398163397448 );
#97 = SURFACE_STYLE_USAGE( .BOTH., #148 );
#98 = FACE_BOUND( '', #149, .T. );
#99 = FACE_OUTER_BOUND( '', #150, .T. );
#100 = CONICAL_SURFACE( '', #151, 6.00000000000000, 0.785398163397448 );
#101 = SURFACE_STYLE_USAGE( .BOTH., #152 );
#102 = FACE_OUTER_BOUND( '', #153, .T. );
#103 = CONICAL_SURFACE( '', #154, 5.00000000000000, 0.785398163397448 );
#104 = SURFACE_STYLE_USAGE( .BOTH., #155 );
#105 = FACE_OUTER_BOUND( '', #156, .T. );
#106 = PLANE( '', #157 );
#107 = SURFACE_STYLE_USAGE( .BOTH., #158 );
#108 = FACE_OUTER_BOUND( '', #159, .T. );
#109 = PLANE( '', #160 );
#110 = SURFACE_STYLE_USAGE( .BOTH., #161 );
#111 = FACE_OUTER_BOUND( '', #162, .T. );
#112 = SPHERICAL_SURFACE( '', #163, 3.00000000000000 );
#113 = SURFACE_STYLE_USAGE( .BOTH., #164 );
#114 = FACE_OUTER_BOUND( '', #165, .T. );
#115 = PLANE( '', #166 );
#116 = SURFACE_STYLE_USAGE( .BOTH., #167 );
#117 = FACE_OUTER_BOUND( '', #168, .T. );
#118 = FACE_OUTER_BOUND( '', #169, .T. );
#119 = CYLINDRICAL_SURFACE( '', #170, 4.25000000000000 );
#120 = SURFACE_STYLE_USAGE( .BOTH., #171 );
#121 = FACE_OUTER_BOUND( '', #172, .T. );
#122 = PLANE( '', #173 );
#123 = PRODUCT_CONTEXT( '', #23, 'mechanical' );
#124 = PRODUCT_DEFINITION_FORMATION_WITH_SPECIFIED_SOURCE( ' ', 'NONE', #62, .NOT_KNOWN. );
#125 = CLOSED_SHELL( '', ( #37, #49, #51, #61, #45, #47, #41, #43, #53, #59, #55, #57, #39 ) );
#126 = CARTESIAN_POINT( '', ( 0.000000000000000, 0.000000000000000, 0.000000000000000 ) );
#127 = DIRECTION( '', ( 0.000000000000000, 0.000000000000000, 1.00000000000000 ) );
#128 = DIRECTION( '', ( 1.00000000000000, 0.000000000000000, 0.000000000000000 ) );
#129 =  ( LENGTH_UNIT(  )NAMED_UNIT( #71 )SI_UNIT( .MILLI., .METRE. ) );
#130 = SURFACE_SIDE_STYLE( '', ( #175 ) );
#131 = EDGE_LOOP( '', ( #176 ) );
#132 = EDGE_LOOP( '', ( #177, #178, #179, #180, #181, #182, #183, #184 ) );
#133 = AXIS2_PLACEMENT_3D( '', #185, #186, #187 );
#134 = SURFACE_SIDE_STYLE( '', ( #188 ) );
#135 = EDGE_LOOP( '', ( #189, #190, #191, #192, #193, #194 ) );
#136 = AXIS2_PLACEMENT_3D( '', #195, #196, #197 );
#137 = SURFACE_SIDE_STYLE( '', ( #198 ) );
#138 = EDGE_LOOP( '', ( #199 ) );
#139 = EDGE_LOOP( '', ( #200 ) );
#140 = AXIS2_PLACEMENT_3D( '', #201, #202, #203 );
#141 = SURFACE_SIDE_STYLE( '', ( #204 ) );
#142 = EDGE_LOOP( '', ( #205 ) );
#143 = EDGE_LOOP( '', ( #206 ) );
#144 = AXIS2_PLACEMENT_3D( '', #207, #208, #209 );
#145 = SURFACE_SIDE_STYLE( '', ( #210 ) );
#146 = EDGE_LOOP( '', ( #211, #212, #213, #214 ) );
#147 = AXIS2_PLACEMENT_3D( '', #215, #216, #217 );
#148 = SURFACE_SIDE_STYLE( '', ( #218 ) );
#149 = EDGE_LOOP( '', ( #219 ) );
#150 = EDGE_LOOP( '', ( #220 ) );
#151 = AXIS2_PLACEMENT_3D( '', #221, #222, #223 );
#152 = SURFACE_SIDE_STYLE( '', ( #224 ) );
#153 = EDGE_LOOP( '', ( #225, #226, #227, #228 ) );
#154 = AXIS2_PLACEMENT_3D( '', #229, #230, #231 );
#155 = SURFACE_SIDE_STYLE( '', ( #232 ) );
#156 = EDGE_LOOP( '', ( #233, #234, #235, #236 ) );
#157 = AXIS2_PLACEMENT_3D( '', #237, #238, #239 );
#158 = SURFACE_SIDE_STYLE( '', ( #240 ) );
#159 = EDGE_LOOP( '', ( #241, #242 ) );
#160 = AXIS2_PLACEMENT_3D( '', #243, #244, #245 );
#161 = SURFACE_SIDE_STYLE( '', ( #246 ) );
#162 = EDGE_LOOP( '', ( #247 ) );
#163 = AXIS2_PLACEMENT_3D( '', #248, #249, #250 );
#164 = SURFACE_SIDE_STYLE( '', ( #251 ) );
#165 = EDGE_LOOP( '', ( #252, #253 ) );
#166 = AXIS2_PLACEMENT_3D( '', #254, #255, #256 );
#167 = SURFACE_SIDE_STYLE( '', ( #257 ) );
#168 = EDGE_LOOP( '', ( #258 ) );
#169 = EDGE_LOOP( '', ( #259 ) );
#170 = AXIS2_PLACEMENT_3D( '', #260, #261, #262 );
#171 = SURFACE_SIDE_STYLE( '', ( #263 ) );
#172 = EDGE_LOOP( '', ( #264, #265, #266, #267, #268, #269 ) );
#173 = AXIS2_PLACEMENT_3D( '', #270, #271, #272 );
#175 = SURFACE_STYLE_FILL_AREA( #273 );
#176 = ORIENTED_EDGE( '', *, *, #274, .T. );
#177 = ORIENTED_EDGE( '', *, *, #275, .F. );
#178 = ORIENTED_EDGE( '', *, *, #276, .T. );
#179 = ORIENTED_EDGE( '', *, *, #277, .F. );
#180 = ORIENTED_EDGE( '', *, *, #278, .F. );
#181 = ORIENTED_EDGE( '', *, *, #279, .F. );
#182 = ORIENTED_EDGE( '', *, *, #280, .T. );
#183 = ORIENTED_EDGE( '', *, *, #281, .F. );
#184 = ORIENTED_EDGE( '', *, *, #282, .F. );
#185 = CARTESIAN_POINT( '', ( -2.61999122617424E-016, 0.000000000000000, 16.0000000000000 ) );
#186 = DIRECTION( '', ( 3.27498903271780E-017, -0.000000000000000, -1.00000000000000 ) );
#187 = DIRECTION( '', ( 1.00000000000000, 0.000000000000000, 3.27498903271780E-017 ) );
#188 = SURFACE_STYLE_FILL_AREA( #283 );
#189 = ORIENTED_EDGE( '', *, *, #284, .F. );
#190 = ORIENTED_EDGE( '', *, *, #285, .T. );
#191 = ORIENTED_EDGE( '', *, *, #279, .T. );
#192 = ORIENTED_EDGE( '', *, *, #286, .T. );
#193 = ORIENTED_EDGE( '', *, *, #281, .T. );
#194 = ORIENTED_EDGE( '', *, *, #287, .T. );
#195 = CARTESIAN_POINT( '', ( -0.750000000000000, -12.5000000000000, 25.5000000000000 ) );
#196 = DIRECTION( '', ( 1.00000000000000, 0.000000000000000, 8.34001671142696E-017 ) );
#197 = DIRECTION( '', ( 8.34001671142696E-017, 0.000000000000000, -1.00000000000000 ) );
#198 = SURFACE_STYLE_FILL_AREA( #288 );
#199 = ORIENTED_EDGE( '', *, *, #289, .F. );
#200 = ORIENTED_EDGE( '', *, *, #290, .T. );
#201 = CARTESIAN_POINT( '', ( -2.61999122617424E-016, 0.000000000000000, 16.0000000000000 ) );
#202 = DIRECTION( '', ( 3.27498903271780E-017, -0.000000000000000, -1.00000000000000 ) );
#203 = DIRECTION( '', ( 1.00000000000000, 0.000000000000000, 3.27498903271780E-017 ) );
#204 = SURFACE_STYLE_FILL_AREA( #291 );
#205 = ORIENTED_EDGE( '', *, *, #292, .F. );
#206 = ORIENTED_EDGE( '', *, *, #289, .T. );
#207 = CARTESIAN_POINT( '', ( 3.00000000000000, 0.000000000000000, 3.50000000000000 ) );
#208 = DIRECTION( '', ( -3.27498903271780E-017, 0.000000000000000, 1.00000000000000 ) );
#209 = DIRECTION( '', ( 1.00000000000000, 0.000000000000000, 3.27498903271780E-017 ) );
#210 = SURFACE_STYLE_FILL_AREA( #293 );
#211 = ORIENTED_EDGE( '', *, *, #294, .F. );
#212 = ORIENTED_EDGE( '', *, *, #276, .F. );
#213 = ORIENTED_EDGE( '', *, *, #295, .F. );
#214 = ORIENTED_EDGE( '', *, *, #296, .F. );
#215 = CARTESIAN_POINT( '', ( -5.73123080725615E-016, 0.000000000000000, 25.5000000000000 ) );
#216 = DIRECTION( '', ( 3.27498903271780E-017, -0.000000000000000, -1.00000000000000 ) );
#217 = DIRECTION( '', ( -1.00000000000000, 0.000000000000000, -3.27498903271780E-017 ) );
#218 = SURFACE_STYLE_FILL_AREA( #297 );
#219 = ORIENTED_EDGE( '', *, *, #298, .F. );
#220 = ORIENTED_EDGE( '', *, *, #274, .F. );
#221 = CARTESIAN_POINT( '', ( 3.27498903271780E-017, 0.000000000000000, 7.00000000000000 ) );
#222 = DIRECTION( '', ( -3.27498903271780E-017, 0.000000000000000, 1.00000000000000 ) );
#223 = DIRECTION( '', ( 1.00000000000000, 0.000000000000000, 3.27498903271780E-017 ) );
#224 = SURFACE_STYLE_FILL_AREA( #299 );
#225 = ORIENTED_EDGE( '', *, *, #287, .F. );
#226 = ORIENTED_EDGE( '', *, *, #280, .F. );
#227 = ORIENTED_EDGE( '', *, *, #285, .F. );
#228 = ORIENTED_EDGE( '', *, *, #300, .F. );
#229 = CARTESIAN_POINT( '', ( -5.73123080725615E-016, 0.000000000000000, 25.5000000000000 ) );
#230 = DIRECTION( '', ( 3.27498903271780E-017, -0.000000000000000, -1.00000000000000 ) );
#231 = DIRECTION( '', ( -1.00000000000000, 0.000000000000000, -3.27498903271780E-017 ) );
#232 = SURFACE_STYLE_FILL_AREA( #301 );
#233 = ORIENTED_EDGE( '', *, *, #282, .T. );
#234 = ORIENTED_EDGE( '', *, *, #286, .F. );
#235 = ORIENTED_EDGE( '', *, *, #278, .T. );
#236 = ORIENTED_EDGE( '', *, *, #302, .T. );
#237 = CARTESIAN_POINT( '', ( -0.750000000000000, -12.5000000000000, 24.2000000000000 ) );
#238 = DIRECTION( '', ( 0.000000000000000, 0.000000000000000, 1.00000000000000 ) );
#239 = DIRECTION( '', ( 1.00000000000000, 0.000000000000000, 0.000000000000000 ) );
#240 = SURFACE_STYLE_FILL_AREA( #303 );
#241 = ORIENTED_EDGE( '', *, *, #304, .F. );
#242 = ORIENTED_EDGE( '', *, *, #296, .T. );
#243 = CARTESIAN_POINT( '', ( 6.00000000000000, 0.000000000000000, 25.5000000000000 ) );
#244 = DIRECTION( '', ( 3.27498903271780E-017, 0.000000000000000, -1.00000000000000 ) );
#245 = DIRECTION( '', ( -1.00000000000000, 0.000000000000000, -3.27498903271780E-017 ) );
#246 = SURFACE_STYLE_FILL_AREA( #305 );
#247 = ORIENTED_EDGE( '', *, *, #290, .F. );
#248 = CARTESIAN_POINT( '', ( 2.75545529808154E-015, 0.000000000000000, 3.00000000000000 ) );
#249 = DIRECTION( '', ( -3.27498903271780E-017, 0.000000000000000, 1.00000000000000 ) );
#250 = DIRECTION( '', ( -1.00000000000000, 0.000000000000000, -3.27498903271780E-017 ) );
#251 = SURFACE_STYLE_FILL_AREA( #306 );
#252 = ORIENTED_EDGE( '', *, *, #284, .T. );
#253 = ORIENTED_EDGE( '', *, *, #300, .T. );
#254 = CARTESIAN_POINT( '', ( 6.00000000000000, 0.000000000000000, 25.5000000000000 ) );
#255 = DIRECTION( '', ( 3.27498903271780E-017, 0.000000000000000, -1.00000000000000 ) );
#256 = DIRECTION( '', ( -1.00000000000000, 0.000000000000000, -3.27498903271780E-017 ) );
#257 = SURFACE_STYLE_FILL_AREA( #307 );
#258 = ORIENTED_EDGE( '', *, *, #298, .T. );
#259 = ORIENTED_EDGE( '', *, *, #292, .T. );
#260 = CARTESIAN_POINT( '', ( -2.61999122617424E-016, 0.000000000000000, 16.0000000000000 ) );
#261 = DIRECTION( '', ( 3.27498903271780E-017, -0.000000000000000, -1.00000000000000 ) );
#262 = DIRECTION( '', ( 1.00000000000000, 0.000000000000000, 3.27498903271780E-017 ) );
#263 = SURFACE_STYLE_FILL_AREA( #308 );
#264 = ORIENTED_EDGE( '', *, *, #304, .T. );
#265 = ORIENTED_EDGE( '', *, *, #295, .T. );
#266 = ORIENTED_EDGE( '', *, *, #275, .T. );
#267 = ORIENTED_EDGE( '', *, *, #302, .F. );
#268 = ORIENTED_EDGE( '', *, *, #277, .T. );
#269 = ORIENTED_EDGE( '', *, *, #294, .T. );
#270 = CARTESIAN_POINT( '', ( 0.750000000000000, -12.5000000000000, 24.2000000000000 ) );
#271 = DIRECTION( '', ( -1.00000000000000, 0.000000000000000, 8.34001671142696E-017 ) );
#272 = DIRECTION( '', ( 8.34001671142696E-017, 0.000000000000000, 1.00000000000000 ) );
#273 = FILL_AREA_STYLE( '', ( #309 ) );
#274 = EDGE_CURVE( '', #310, #310, #311, .T. );
#275 = EDGE_CURVE( '', #312, #313, #314, .F. );
#276 = EDGE_CURVE( '', #312, #315, #316, .T. );
#277 = EDGE_CURVE( '', #317, #315, #318, .T. );
#278 = EDGE_CURVE( '', #319, #317, #320, .T. );
#279 = EDGE_CURVE( '', #321, #319, #322, .F. );
#280 = EDGE_CURVE( '', #321, #323, #324, .T. );
#281 = EDGE_CURVE( '', #325, #323, #326, .T. );
#282 = EDGE_CURVE( '', #313, #325, #327, .T. );
#283 = FILL_AREA_STYLE( '', ( #328 ) );
#284 = EDGE_CURVE( '', #329, #330, #331, .T. );
#285 = EDGE_CURVE( '', #329, #321, #332, .T. );
#286 = EDGE_CURVE( '', #319, #325, #333, .T. );
#287 = EDGE_CURVE( '', #323, #330, #334, .T. );
#288 = FILL_AREA_STYLE( '', ( #335 ) );
#289 = EDGE_CURVE( '', #336, #336, #337, .T. );
#290 = EDGE_CURVE( '', #338, #338, #339, .T. );
#291 = FILL_AREA_STYLE( '', ( #340 ) );
#292 = EDGE_CURVE( '', #341, #341, #342, .T. );
#293 = FILL_AREA_STYLE( '', ( #343 ) );
#294 = EDGE_CURVE( '', #315, #344, #345, .T. );
#295 = EDGE_CURVE( '', #346, #312, #347, .T. );
#296 = EDGE_CURVE( '', #344, #346, #348, .F. );
#297 = FILL_AREA_STYLE( '', ( #349 ) );
#298 = EDGE_CURVE( '', #350, #350, #351, .F. );
#299 = FILL_AREA_STYLE( '', ( #352 ) );
#300 = EDGE_CURVE( '', #330, #329, #353, .F. );
#301 = FILL_AREA_STYLE( '', ( #354 ) );
#302 = EDGE_CURVE( '', #317, #313, #355, .T. );
#303 = FILL_AREA_STYLE( '', ( #356 ) );
#304 = EDGE_CURVE( '', #344, #346, #357, .T. );
#305 = FILL_AREA_STYLE( '', ( #358 ) );
#306 = FILL_AREA_STYLE( '', ( #359 ) );
#307 = FILL_AREA_STYLE( '', ( #360 ) );
#308 = FILL_AREA_STYLE( '', ( #361 ) );
#309 = FILL_AREA_STYLE_COLOUR( '', #362 );
#310 = VERTEX_POINT( '', #363 );
#311 = CIRCLE( '', #364, 6.00000000000000 );
#312 = VERTEX_POINT( '', #365 );
#313 = VERTEX_POINT( '', #366 );
#314 = LINE( '', #367, #368 );
#315 = VERTEX_POINT( '', #369 );
#316 = CIRCLE( '', #370, 6.00000000000000 );
#317 = VERTEX_POINT( '', #371 );
#318 = LINE( '', #372, #373 );
#319 = VERTEX_POINT( '', #374 );
#320 = CIRCLE( '', #375, 6.00000000000000 );
#321 = VERTEX_POINT( '', #376 );
#322 = LINE( '', #377, #378 );
#323 = VERTEX_POINT( '', #379 );
#324 = CIRCLE( '', #380, 6.00000000000000 );
#325 = VERTEX_POINT( '', #381 );
#326 = LINE( '', #382, #383 );
#327 = CIRCLE( '', #384, 6.00000000000000 );
#328 = FILL_AREA_STYLE_COLOUR( '', #385 );
#329 = VERTEX_POINT( '', #386 );
#330 = VERTEX_POINT( '', #387 );
#331 = LINE( '', #388, #389 );
#332 = B_SPLINE_CURVE_WITH_KNOTS( '', 3, ( #390, #391, #392, #393 ), .UNSPECIFIED., .F., .F., ( 4, 4 ), ( 6.25463444138550E-018, 0.00142095439128866 ), .UNSPECIFIED. );
#333 = LINE( '', #394, #395 );
#334 = B_SPLINE_CURVE_WITH_KNOTS( '', 3, ( #396, #397, #398, #399 ), .UNSPECIFIED., .F., .F., ( 4, 4 ), ( 0.000000000000000, 0.00142095439128866 ), .UNSPECIFIED. );
#335 = FILL_AREA_STYLE_COLOUR( '', #400 );
#336 = VERTEX_POINT( '', #401 );
#337 = CIRCLE( '', #402, 3.00000000000000 );
#338 = VERTEX_POINT( '', #403 );
#339 = CIRCLE( '', #404, 3.00000000000000 );
#340 = FILL_AREA_STYLE_COLOUR( '', #405 );
#341 = VERTEX_POINT( '', #406 );
#342 = CIRCLE( '', #407, 4.25000000000000 );
#343 = FILL_AREA_STYLE_COLOUR( '', #408 );
#344 = VERTEX_POINT( '', #409 );
#345 = B_SPLINE_CURVE_WITH_KNOTS( '', 3, ( #410, #411, #412, #413 ), .UNSPECIFIED., .F., .F., ( 4, 4 ), ( 0.000000000000000, 0.00142095439128866 ), .UNSPECIFIED. );
#346 = VERTEX_POINT( '', #414 );
#347 = B_SPLINE_CURVE_WITH_KNOTS( '', 3, ( #415, #416, #417, #418 ), .UNSPECIFIED., .F., .F., ( 4, 4 ), ( 0.000000000000000, 0.00142095439128866 ), .UNSPECIFIED. );
#348 = CIRCLE( '', #419, 5.00000000000000 );
#349 = FILL_AREA_STYLE_COLOUR( '', #420 );
#350 = VERTEX_POINT( '', #421 );
#351 = CIRCLE( '', #422, 4.25000000000000 );
#352 = FILL_AREA_STYLE_COLOUR( '', #423 );
#353 = CIRCLE( '', #424, 5.00000000000000 );
#354 = FILL_AREA_STYLE_COLOUR( '', #425 );
#355 = LINE( '', #426, #427 );
#356 = FILL_AREA_STYLE_COLOUR( '', #428 );
#357 = LINE( '', #429, #430 );
#358 = FILL_AREA_STYLE_COLOUR( '', #431 );
#359 = FILL_AREA_STYLE_COLOUR( '', #432 );
#360 = FILL_AREA_STYLE_COLOUR( '', #433 );
#361 = FILL_AREA_STYLE_COLOUR( '', #434 );
#362 = COLOUR_RGB( '', 0.752941191196442, 0.752941191196442, 0.752941191196442 );
#363 = CARTESIAN_POINT( '', ( 6.00000000000000, 0.000000000000000, 7.00000000000000 ) );
#364 = AXIS2_PLACEMENT_3D( '', #435, #436, #437 );
#365 = CARTESIAN_POINT( '', ( 0.750000000000000, 5.95294044989533, 24.5000000000000 ) );
#366 = CARTESIAN_POINT( '', ( 0.750000000000000, 5.95294044989533, 24.2000000000000 ) );
#367 = CARTESIAN_POINT( '', ( 0.750000000000000, 5.95294044989533, 16.0000000000000 ) );
#368 = VECTOR( '', #438, 1000.00000000000 );
#369 = CARTESIAN_POINT( '', ( 0.750000000000000, -5.95294044989533, 24.5000000000000 ) );
#370 = AXIS2_PLACEMENT_3D( '', #439, #440, #441 );
#371 = CARTESIAN_POINT( '', ( 0.750000000000000, -5.95294044989533, 24.2000000000000 ) );
#372 = CARTESIAN_POINT( '', ( 0.750000000000000, -5.95294044989533, 16.0000000000000 ) );
#373 = VECTOR( '', #442, 1000.00000000000 );
#374 = CARTESIAN_POINT( '', ( -0.750000000000000, -5.95294044989533, 24.2000000000000 ) );
#375 = AXIS2_PLACEMENT_3D( '', #443, #444, #445 );
#376 = CARTESIAN_POINT( '', ( -0.750000000000000, -5.95294044989533, 24.5000000000000 ) );
#377 = CARTESIAN_POINT( '', ( -0.750000000000000, -5.95294044989533, 16.0000000000000 ) );
#378 = VECTOR( '', #446, 1000.00000000000 );
#379 = CARTESIAN_POINT( '', ( -0.750000000000000, 5.95294044989533, 24.5000000000000 ) );
#380 = AXIS2_PLACEMENT_3D( '', #447, #448, #449 );
#381 = CARTESIAN_POINT( '', ( -0.750000000000000, 5.95294044989533, 24.2000000000000 ) );
#382 = CARTESIAN_POINT( '', ( -0.750000000000000, 5.95294044989533, 16.0000000000000 ) );
#383 = VECTOR( '', #450, 1000.00000000000 );
#384 = AXIS2_PLACEMENT_3D( '', #451, #452, #453 );
#385 = COLOUR_RGB( '', 0.800000011920929, 0.800000011920929, 0.800000011920929 );
#386 = CARTESIAN_POINT( '', ( -0.750000000000000, -4.94342998332129, 25.5000000000000 ) );
#387 = CARTESIAN_POINT( '', ( -0.750000000000000, 4.94342998332129, 25.5000000000000 ) );
#388 = CARTESIAN_POINT( '', ( -0.750000000000000, -12.5000000000000, 25.5000000000000 ) );
#389 = VECTOR( '', #454, 1000.00000000000 );
#390 = CARTESIAN_POINT( '', ( -0.750000000000000, -4.94342998332130, 25.5000000000000 ) );
#391 = CARTESIAN_POINT( '', ( -0.750000000000000, -5.28025212865203, 25.1669886615451 ) );
#392 = CARTESIAN_POINT( '', ( -0.750000000000000, -5.61670228224376, 24.8336009648353 ) );
#393 = CARTESIAN_POINT( '', ( -0.750000000000000, -5.95294044989533, 24.5000000000000 ) );
#394 = CARTESIAN_POINT( '', ( -0.750000000000000, -12.5000000000000, 24.2000000000000 ) );
#395 = VECTOR( '', #455, 1000.00000000000 );
#396 = CARTESIAN_POINT( '', ( -0.750000000000000, 5.95294044989533, 24.5000000000000 ) );
#397 = CARTESIAN_POINT( '', ( -0.750000000000000, 5.61670228224376, 24.8336009648353 ) );
#398 = CARTESIAN_POINT( '', ( -0.750000000000000, 5.28025212865203, 25.1669886615451 ) );
#399 = CARTESIAN_POINT( '', ( -0.750000000000000, 4.94342998332130, 25.5000000000000 ) );
#400 = COLOUR_RGB( '', 0.800000011920929, 0.800000011920929, 0.800000011920929 );
#401 = CARTESIAN_POINT( '', ( 3.00000000000000, 0.000000000000000, 3.50000000000000 ) );
#402 = AXIS2_PLACEMENT_3D( '', #456, #457, #458 );
#403 = CARTESIAN_POINT( '', ( 3.00000000000000, 0.000000000000000, 3.00000000000000 ) );
#404 = AXIS2_PLACEMENT_3D( '', #459, #460, #461 );
#405 = COLOUR_RGB( '', 0.800000011920929, 0.800000011920929, 0.800000011920929 );
#406 = CARTESIAN_POINT( '', ( 4.25000000000000, 0.000000000000000, 3.50000000000000 ) );
#407 = AXIS2_PLACEMENT_3D( '', #462, #463, #464 );
#408 = COLOUR_RGB( '', 0.800000011920929, 0.800000011920929, 0.800000011920929 );
#409 = CARTESIAN_POINT( '', ( 0.750000000000000, -4.94342998332130, 25.5000000000000 ) );
#410 = CARTESIAN_POINT( '', ( 0.750000000000000, -5.95294044989533, 24.5000000000000 ) );
#411 = CARTESIAN_POINT( '', ( 0.750000000000000, -5.61670228224376, 24.8336009648353 ) );
#412 = CARTESIAN_POINT( '', ( 0.750000000000000, -5.28025212865203, 25.1669886615451 ) );
#413 = CARTESIAN_POINT( '', ( 0.750000000000000, -4.94342998332130, 25.5000000000000 ) );
#414 = CARTESIAN_POINT( '', ( 0.750000000000000, 4.94342998332130, 25.5000000000000 ) );
#415 = CARTESIAN_POINT( '', ( 0.750000000000000, 4.94342998332130, 25.5000000000000 ) );
#416 = CARTESIAN_POINT( '', ( 0.750000000000000, 5.28025212865203, 25.1669886615451 ) );
#417 = CARTESIAN_POINT( '', ( 0.750000000000000, 5.61670228224376, 24.8336009648353 ) );
#418 = CARTESIAN_POINT( '', ( 0.750000000000000, 5.95294044989533, 24.5000000000000 ) );
#419 = AXIS2_PLACEMENT_3D( '', #465, #466, #467 );
#420 = COLOUR_RGB( '', 0.800000011920929, 0.800000011920929, 0.800000011920929 );
#421 = CARTESIAN_POINT( '', ( 4.25000000000000, 0.000000000000000, 5.25000000000000 ) );
#422 = AXIS2_PLACEMENT_3D( '', #468, #469, #470 );
#423 = COLOUR_RGB( '', 0.800000011920929, 0.800000011920929, 0.800000011920929 );
#424 = AXIS2_PLACEMENT_3D( '', #471, #472, #473 );
#425 = COLOUR_RGB( '', 0.800000011920929, 0.800000011920929, 0.800000011920929 );
#426 = CARTESIAN_POINT( '', ( 0.750000000000000, -12.5000000000000, 24.2000000000000 ) );
#427 = VECTOR( '', #474, 1000.00000000000 );
#428 = COLOUR_RGB( '', 0.800000011920929, 0.800000011920929, 0.800000011920929 );
#429 = CARTESIAN_POINT( '', ( 0.750000000000000, -12.5000000000000, 25.5000000000000 ) );
#430 = VECTOR( '', #475, 1000.00000000000 );
#431 = COLOUR_RGB( '', 0.800000011920929, 0.800000011920929, 0.800000011920929 );
#432 = COLOUR_RGB( '', 0.800000011920929, 0.800000011920929, 0.800000011920929 );
#433 = COLOUR_RGB( '', 0.800000011920929, 0.800000011920929, 0.800000011920929 );
#434 = COLOUR_RGB( '', 0.800000011920929, 0.800000011920929, 0.800000011920929 );
#435 = CARTESIAN_POINT( '', ( 3.27498903271780E-017, 0.000000000000000, 7.00000000000000 ) );
#436 = DIRECTION( '', ( -3.27498903271780E-017, 0.000000000000000, 1.00000000000000 ) );
#437 = DIRECTION( '', ( 1.00000000000000, 0.000000000000000, 3.27498903271780E-017 ) );
#438 = DIRECTION( '', ( -3.27498903271780E-017, 0.000000000000000, 1.00000000000000 ) );
#439 = CARTESIAN_POINT( '', ( -5.40373190398437E-016, 0.000000000000000, 24.5000000000000 ) );
#440 = DIRECTION( '', ( 3.27498903271780E-017, 0.000000000000000, -1.00000000000000 ) );
#441 = DIRECTION( '', ( -1.00000000000000, 0.000000000000000, -3.27498903271780E-017 ) );
#442 = DIRECTION( '', ( -3.27498903271780E-017, 0.000000000000000, 1.00000000000000 ) );
#443 = CARTESIAN_POINT( '', ( -5.30548223300284E-016, 0.000000000000000, 24.2000000000000 ) );
#444 = DIRECTION( '', ( 0.000000000000000, 0.000000000000000, 1.00000000000000 ) );
#445 = DIRECTION( '', ( 1.00000000000000, 0.000000000000000, 0.000000000000000 ) );
#446 = DIRECTION( '', ( -3.27498903271780E-017, 0.000000000000000, 1.00000000000000 ) );
#447 = CARTESIAN_POINT( '', ( -5.40373190398437E-016, 0.000000000000000, 24.5000000000000 ) );
#448 = DIRECTION( '', ( 3.27498903271780E-017, 0.000000000000000, -1.00000000000000 ) );
#449 = DIRECTION( '', ( -1.00000000000000, 0.000000000000000, -3.27498903271780E-017 ) );
#450 = DIRECTION( '', ( -3.27498903271780E-017, 0.000000000000000, 1.00000000000000 ) );
#451 = CARTESIAN_POINT( '', ( -5.30548223300284E-016, 0.000000000000000, 24.2000000000000 ) );
#452 = DIRECTION( '', ( 0.000000000000000, 0.000000000000000, 1.00000000000000 ) );
#453 = DIRECTION( '', ( 1.00000000000000, 0.000000000000000, 0.000000000000000 ) );
#454 = DIRECTION( '', ( 0.000000000000000, 1.00000000000000, 0.000000000000000 ) );
#455 = DIRECTION( '', ( 0.000000000000000, 1.00000000000000, 0.000000000000000 ) );
#456 = CARTESIAN_POINT( '', ( 1.47374506472301E-016, 0.000000000000000, 3.50000000000000 ) );
#457 = DIRECTION( '', ( -3.27498903271780E-017, 0.000000000000000, 1.00000000000000 ) );
#458 = DIRECTION( '', ( 1.00000000000000, 0.000000000000000, 3.27498903271780E-017 ) );
#459 = CARTESIAN_POINT( '', ( 1.63749451635890E-016, 0.000000000000000, 3.00000000000000 ) );
#460 = DIRECTION( '', ( -3.27498903271780E-017, 0.000000000000000, 1.00000000000000 ) );
#461 = DIRECTION( '', ( 1.00000000000000, 0.000000000000000, 3.27498903271780E-017 ) );
#462 = CARTESIAN_POINT( '', ( 1.47374506472301E-016, 0.000000000000000, 3.50000000000000 ) );
#463 = DIRECTION( '', ( -3.27498903271780E-017, 0.000000000000000, 1.00000000000000 ) );
#464 = DIRECTION( '', ( 1.00000000000000, 0.000000000000000, 3.27498903271780E-017 ) );
#465 = CARTESIAN_POINT( '', ( -5.73123080725615E-016, 0.000000000000000, 25.5000000000000 ) );
#466 = DIRECTION( '', ( 3.27498903271780E-017, 0.000000000000000, -1.00000000000000 ) );
#467 = DIRECTION( '', ( -1.00000000000000, 0.000000000000000, -3.27498903271780E-017 ) );
#468 = CARTESIAN_POINT( '', ( 9.00621983997394E-017, 0.000000000000000, 5.25000000000000 ) );
#469 = DIRECTION( '', ( -3.27498903271780E-017, 0.000000000000000, 1.00000000000000 ) );
#470 = DIRECTION( '', ( 1.00000000000000, 0.000000000000000, 3.27498903271780E-017 ) );
#471 = CARTESIAN_POINT( '', ( -5.73123080725615E-016, 0.000000000000000, 25.5000000000000 ) );
#472 = DIRECTION( '', ( 3.27498903271780E-017, 0.000000000000000, -1.00000000000000 ) );
#473 = DIRECTION( '', ( -1.00000000000000, 0.000000000000000, -3.27498903271780E-017 ) );
#474 = DIRECTION( '', ( 0.000000000000000, 1.00000000000000, 0.000000000000000 ) );
#475 = DIRECTION( '', ( 0.000000000000000, 1.00000000000000, 0.000000000000000 ) );
ENDSEC;
END-ISO-10303-21;
