ISO-10303-21;
HEADER;
FILE_DESCRIPTION( ( 'Unknown' ), '1' );
FILE_NAME( '//SBS2003/HD_Usb/Disegni/08_LIB/Users_3D/PROD_GAMM_3D/APP-I/7747235_APP_24_I.stp', 'Unknown', ( 'Unknown' ), ( 'Unknown' ), 'PSStep 14.0', 'Unknown', '  ' );
FILE_SCHEMA( ( 'AUTOMOTIVE_DESIGN { 1 0 10303 214 1 1 1 1 }' ) );
ENDSEC;
DATA;
#1 = MECHANICAL_DESIGN_GEOMETRIC_PRESENTATION_REPRESENTATION( ' ', ( #10, #11, #12, #13, #14, #15, #16, #17, #18, #19, #20, #21, #22, #23 ), #6 );
#2 = PRODUCT_DEFINITION_CONTEXT( '', #24, 'design' );
#3 = APPLICATION_PROTOCOL_DEFINITION( 'international standard', 'automotive_design', 2001, #24 );
#4 = PRODUCT_CATEGORY_RELATIONSHIP( 'NONE', 'NONE', #25, #26 );
#5 = SHAPE_DEFINITION_REPRESENTATION( #27, #28 );
#6 =  ( GEOMETRIC_REPRESENTATION_CONTEXT( 3 )GLOBAL_UNCERTAINTY_ASSIGNED_CONTEXT( ( #31 ) )GLOBAL_UNIT_ASSIGNED_CONTEXT( ( #33, #34, #35 ) )REPRESENTATION_CONTEXT( 'NONE', 'WORKSPACE' ) );
#10 = STYLED_ITEM( '', ( #37 ), #38 );
#11 = STYLED_ITEM( '', ( #39 ), #40 );
#12 = STYLED_ITEM( '', ( #41 ), #42 );
#13 = STYLED_ITEM( '', ( #43 ), #44 );
#14 = STYLED_ITEM( '', ( #45 ), #46 );
#15 = STYLED_ITEM( '', ( #47 ), #48 );
#16 = STYLED_ITEM( '', ( #49 ), #50 );
#17 = STYLED_ITEM( '', ( #51 ), #52 );
#18 = STYLED_ITEM( '', ( #53 ), #54 );
#19 = STYLED_ITEM( '', ( #55 ), #56 );
#20 = STYLED_ITEM( '', ( #57 ), #58 );
#21 = STYLED_ITEM( '', ( #59 ), #60 );
#22 = STYLED_ITEM( '', ( #61 ), #62 );
#23 = STYLED_ITEM( '', ( #63 ), #64 );
#24 = APPLICATION_CONTEXT( 'core data for automotive mechanical design processes' );
#25 = PRODUCT_CATEGORY( 'part', 'NONE' );
#26 = PRODUCT_RELATED_PRODUCT_CATEGORY( 'detail', ' ', ( #65 ) );
#27 = PRODUCT_DEFINITION_SHAPE( 'NONE', 'NONE', #66 );
#28 = ADVANCED_BREP_SHAPE_REPRESENTATION( '1', ( #67, #68 ), #6 );
#31 = UNCERTAINTY_MEASURE_WITH_UNIT( LENGTH_MEASURE( 0.00100000000000000 ), #33, '', '' );
#33 =  ( CONVERSION_BASED_UNIT( 'MILLIMETRE', #71 )LENGTH_UNIT(  )NAMED_UNIT( #74 ) );
#34 =  ( NAMED_UNIT( #76 )PLANE_ANGLE_UNIT(  )SI_UNIT( $, .RADIAN. ) );
#35 =  ( NAMED_UNIT( #76 )SI_UNIT( $, .STERADIAN. )SOLID_ANGLE_UNIT(  ) );
#37 = PRESENTATION_STYLE_ASSIGNMENT( ( #82 ) );
#38 = ADVANCED_FACE( '', ( #83, #84 ), #85, .T. );
#39 = PRESENTATION_STYLE_ASSIGNMENT( ( #86 ) );
#40 = ADVANCED_FACE( '', ( #87 ), #88, .F. );
#41 = PRESENTATION_STYLE_ASSIGNMENT( ( #89 ) );
#42 = ADVANCED_FACE( '', ( #90 ), #91, .T. );
#43 = PRESENTATION_STYLE_ASSIGNMENT( ( #92 ) );
#44 = ADVANCED_FACE( '', ( #93 ), #94, .T. );
#45 = PRESENTATION_STYLE_ASSIGNMENT( ( #95 ) );
#46 = ADVANCED_FACE( '', ( #96 ), #97, .F. );
#47 = PRESENTATION_STYLE_ASSIGNMENT( ( #98 ) );
#48 = ADVANCED_FACE( '', ( #99, #100 ), #101, .F. );
#49 = PRESENTATION_STYLE_ASSIGNMENT( ( #102 ) );
#50 = ADVANCED_FACE( '', ( #103, #104 ), #105, .F. );
#51 = PRESENTATION_STYLE_ASSIGNMENT( ( #106 ) );
#52 = ADVANCED_FACE( '', ( #107, #108 ), #109, .T. );
#53 = PRESENTATION_STYLE_ASSIGNMENT( ( #110 ) );
#54 = ADVANCED_FACE( '', ( #111 ), #112, .T. );
#55 = PRESENTATION_STYLE_ASSIGNMENT( ( #113 ) );
#56 = ADVANCED_FACE( '', ( #114 ), #115, .T. );
#57 = PRESENTATION_STYLE_ASSIGNMENT( ( #116 ) );
#58 = ADVANCED_FACE( '', ( #117 ), #118, .T. );
#59 = PRESENTATION_STYLE_ASSIGNMENT( ( #119 ) );
#60 = ADVANCED_FACE( '', ( #120, #121 ), #122, .T. );
#61 = PRESENTATION_STYLE_ASSIGNMENT( ( #123 ) );
#62 = ADVANCED_FACE( '', ( #124 ), #125, .T. );
#63 = PRESENTATION_STYLE_ASSIGNMENT( ( #126 ) );
#64 = ADVANCED_FACE( '', ( #127, #128 ), #129, .T. );
#65 = PRODUCT( '1', '1', 'PART-1-DESC', ( #130 ) );
#66 = PRODUCT_DEFINITION( 'NONE', 'NONE', #131, #2 );
#67 = MANIFOLD_SOLID_BREP( '1', #132 );
#68 = AXIS2_PLACEMENT_3D( '', #133, #134, #135 );
#71 = LENGTH_MEASURE_WITH_UNIT( LENGTH_MEASURE( 1.00000000000000 ), #136 );
#74 = DIMENSIONAL_EXPONENTS( 1.00000000000000, 0.000000000000000, 0.000000000000000, 0.000000000000000, 0.000000000000000, 0.000000000000000, 0.000000000000000 );
#76 = DIMENSIONAL_EXPONENTS( 0.000000000000000, 0.000000000000000, 0.000000000000000, 0.000000000000000, 0.000000000000000, 0.000000000000000, 0.000000000000000 );
#82 = SURFACE_STYLE_USAGE( .BOTH., #137 );
#83 = FACE_OUTER_BOUND( '', #138, .T. );
#84 = FACE_OUTER_BOUND( '', #139, .T. );
#85 = CYLINDRICAL_SURFACE( '', #140, 8.00000000000000 );
#86 = SURFACE_STYLE_USAGE( .BOTH., #141 );
#87 = FACE_OUTER_BOUND( '', #142, .T. );
#88 = PLANE( '', #143 );
#89 = SURFACE_STYLE_USAGE( .BOTH., #144 );
#90 = FACE_OUTER_BOUND( '', #145, .T. );
#91 = PLANE( '', #146 );
#92 = SURFACE_STYLE_USAGE( .BOTH., #147 );
#93 = FACE_OUTER_BOUND( '', #148, .T. );
#94 = CONICAL_SURFACE( '', #149, 6.50000000000000, 0.785398163397448 );
#95 = SURFACE_STYLE_USAGE( .BOTH., #150 );
#96 = FACE_OUTER_BOUND( '', #151, .T. );
#97 = PLANE( '', #152 );
#98 = SURFACE_STYLE_USAGE( .BOTH., #153 );
#99 = FACE_OUTER_BOUND( '', #154, .T. );
#100 = FACE_BOUND( '', #155, .T. );
#101 = PLANE( '', #156 );
#102 = SURFACE_STYLE_USAGE( .BOTH., #157 );
#103 = FACE_OUTER_BOUND( '', #158, .T. );
#104 = FACE_BOUND( '', #159, .T. );
#105 = PLANE( '', #160 );
#106 = SURFACE_STYLE_USAGE( .BOTH., #161 );
#107 = FACE_OUTER_BOUND( '', #162, .T. );
#108 = FACE_OUTER_BOUND( '', #163, .T. );
#109 = CYLINDRICAL_SURFACE( '', #164, 5.25000000000000 );
#110 = SURFACE_STYLE_USAGE( .BOTH., #165 );
#111 = FACE_OUTER_BOUND( '', #166, .T. );
#112 = SPHERICAL_SURFACE( '', #167, 4.25000000000000 );
#113 = SURFACE_STYLE_USAGE( .BOTH., #168 );
#114 = FACE_OUTER_BOUND( '', #169, .T. );
#115 = PLANE( '', #170 );
#116 = SURFACE_STYLE_USAGE( .BOTH., #171 );
#117 = FACE_OUTER_BOUND( '', #172, .T. );
#118 = PLANE( '', #173 );
#119 = SURFACE_STYLE_USAGE( .BOTH., #174 );
#120 = FACE_BOUND( '', #175, .T. );
#121 = FACE_OUTER_BOUND( '', #176, .T. );
#122 = CONICAL_SURFACE( '', #177, 8.00000000000000, 0.785398163397449 );
#123 = SURFACE_STYLE_USAGE( .BOTH., #178 );
#124 = FACE_OUTER_BOUND( '', #179, .T. );
#125 = CONICAL_SURFACE( '', #180, 6.50000000000000, 0.785398163397448 );
#126 = SURFACE_STYLE_USAGE( .BOTH., #181 );
#127 = FACE_OUTER_BOUND( '', #182, .T. );
#128 = FACE_OUTER_BOUND( '', #183, .T. );
#129 = CYLINDRICAL_SURFACE( '', #184, 4.25000000000000 );
#130 = PRODUCT_CONTEXT( '', #24, 'mechanical' );
#131 = PRODUCT_DEFINITION_FORMATION_WITH_SPECIFIED_SOURCE( ' ', 'NONE', #65, .NOT_KNOWN. );
#132 = CLOSED_SHELL( '', ( #38, #62, #42, #56, #44, #60, #64, #48, #46, #52, #50, #54, #40, #58 ) );
#133 = CARTESIAN_POINT( '', ( 0.000000000000000, 0.000000000000000, 0.000000000000000 ) );
#134 = DIRECTION( '', ( 0.000000000000000, 0.000000000000000, 1.00000000000000 ) );
#135 = DIRECTION( '', ( 1.00000000000000, 0.000000000000000, 0.000000000000000 ) );
#136 =  ( LENGTH_UNIT(  )NAMED_UNIT( #74 )SI_UNIT( .MILLI., .METRE. ) );
#137 = SURFACE_SIDE_STYLE( '', ( #186 ) );
#138 = EDGE_LOOP( '', ( #187 ) );
#139 = EDGE_LOOP( '', ( #188, #189, #190, #191, #192, #193, #194, #195 ) );
#140 = AXIS2_PLACEMENT_3D( '', #196, #197, #198 );
#141 = SURFACE_SIDE_STYLE( '', ( #199 ) );
#142 = EDGE_LOOP( '', ( #200, #201 ) );
#143 = AXIS2_PLACEMENT_3D( '', #202, #203, #204 );
#144 = SURFACE_SIDE_STYLE( '', ( #205 ) );
#145 = EDGE_LOOP( '', ( #206, #207, #208, #209 ) );
#146 = AXIS2_PLACEMENT_3D( '', #210, #211, #212 );
#147 = SURFACE_SIDE_STYLE( '', ( #213 ) );
#148 = EDGE_LOOP( '', ( #214, #215, #216, #217 ) );
#149 = AXIS2_PLACEMENT_3D( '', #218, #219, #220 );
#150 = SURFACE_SIDE_STYLE( '', ( #221 ) );
#151 = EDGE_LOOP( '', ( #222, #223 ) );
#152 = AXIS2_PLACEMENT_3D( '', #224, #225, #226 );
#153 = SURFACE_SIDE_STYLE( '', ( #227 ) );
#154 = EDGE_LOOP( '', ( #228 ) );
#155 = EDGE_LOOP( '', ( #229 ) );
#156 = AXIS2_PLACEMENT_3D( '', #230, #231, #232 );
#157 = SURFACE_SIDE_STYLE( '', ( #233 ) );
#158 = EDGE_LOOP( '', ( #234 ) );
#159 = EDGE_LOOP( '', ( #235 ) );
#160 = AXIS2_PLACEMENT_3D( '', #236, #237, #238 );
#161 = SURFACE_SIDE_STYLE( '', ( #239 ) );
#162 = EDGE_LOOP( '', ( #240 ) );
#163 = EDGE_LOOP( '', ( #241 ) );
#164 = AXIS2_PLACEMENT_3D( '', #242, #243, #244 );
#165 = SURFACE_SIDE_STYLE( '', ( #245 ) );
#166 = EDGE_LOOP( '', ( #246 ) );
#167 = AXIS2_PLACEMENT_3D( '', #247, #248, #249 );
#168 = SURFACE_SIDE_STYLE( '', ( #250 ) );
#169 = EDGE_LOOP( '', ( #251, #252, #253, #254, #255, #256 ) );
#170 = AXIS2_PLACEMENT_3D( '', #257, #258, #259 );
#171 = SURFACE_SIDE_STYLE( '', ( #260 ) );
#172 = EDGE_LOOP( '', ( #261, #262, #263, #264, #265, #266 ) );
#173 = AXIS2_PLACEMENT_3D( '', #267, #268, #269 );
#174 = SURFACE_SIDE_STYLE( '', ( #270 ) );
#175 = EDGE_LOOP( '', ( #271 ) );
#176 = EDGE_LOOP( '', ( #272 ) );
#177 = AXIS2_PLACEMENT_3D( '', #273, #274, #275 );
#178 = SURFACE_SIDE_STYLE( '', ( #276 ) );
#179 = EDGE_LOOP( '', ( #277, #278, #279, #280 ) );
#180 = AXIS2_PLACEMENT_3D( '', #281, #282, #283 );
#181 = SURFACE_SIDE_STYLE( '', ( #284 ) );
#182 = EDGE_LOOP( '', ( #285 ) );
#183 = EDGE_LOOP( '', ( #286 ) );
#184 = AXIS2_PLACEMENT_3D( '', #287, #288, #289 );
#186 = SURFACE_STYLE_FILL_AREA( #290 );
#187 = ORIENTED_EDGE( '', *, *, #291, .T. );
#188 = ORIENTED_EDGE( '', *, *, #292, .F. );
#189 = ORIENTED_EDGE( '', *, *, #293, .T. );
#190 = ORIENTED_EDGE( '', *, *, #294, .F. );
#191 = ORIENTED_EDGE( '', *, *, #295, .F. );
#192 = ORIENTED_EDGE( '', *, *, #296, .F. );
#193 = ORIENTED_EDGE( '', *, *, #297, .T. );
#194 = ORIENTED_EDGE( '', *, *, #298, .F. );
#195 = ORIENTED_EDGE( '', *, *, #299, .F. );
#196 = CARTESIAN_POINT( '', ( -8.18747258179450E-018, 0.000000000000000, 25.5000000000000 ) );
#197 = DIRECTION( '', ( 6.42154712297608E-019, -0.000000000000000, -1.00000000000000 ) );
#198 = DIRECTION( '', ( 1.00000000000000, 0.000000000000000, 6.42154712297608E-019 ) );
#199 = SURFACE_STYLE_FILL_AREA( #300 );
#200 = ORIENTED_EDGE( '', *, *, #301, .T. );
#201 = ORIENTED_EDGE( '', *, *, #302, .T. );
#202 = CARTESIAN_POINT( '', ( 8.00000000000000, 0.000000000000000, 28.5000000000000 ) );
#203 = DIRECTION( '', ( 6.42154712297608E-019, 0.000000000000000, -1.00000000000000 ) );
#204 = DIRECTION( '', ( -1.00000000000000, 0.000000000000000, -6.42154712297608E-019 ) );
#205 = SURFACE_STYLE_FILL_AREA( #303 );
#206 = ORIENTED_EDGE( '', *, *, #299, .T. );
#207 = ORIENTED_EDGE( '', *, *, #304, .F. );
#208 = ORIENTED_EDGE( '', *, *, #295, .T. );
#209 = ORIENTED_EDGE( '', *, *, #305, .T. );
#210 = CARTESIAN_POINT( '', ( -1.00000000000000, -12.5000000000000, 26.0000000000000 ) );
#211 = DIRECTION( '', ( 0.000000000000000, 0.000000000000000, 1.00000000000000 ) );
#212 = DIRECTION( '', ( 1.00000000000000, 0.000000000000000, 0.000000000000000 ) );
#213 = SURFACE_STYLE_FILL_AREA( #306 );
#214 = ORIENTED_EDGE( '', *, *, #307, .F. );
#215 = ORIENTED_EDGE( '', *, *, #293, .F. );
#216 = ORIENTED_EDGE( '', *, *, #308, .F. );
#217 = ORIENTED_EDGE( '', *, *, #309, .F. );
#218 = CARTESIAN_POINT( '', ( -1.01139367186873E-017, 0.000000000000000, 28.5000000000000 ) );
#219 = DIRECTION( '', ( 6.42154712297608E-019, -0.000000000000000, -1.00000000000000 ) );
#220 = DIRECTION( '', ( -1.00000000000000, 0.000000000000000, -6.42154712297608E-019 ) );
#221 = SURFACE_STYLE_FILL_AREA( #310 );
#222 = ORIENTED_EDGE( '', *, *, #311, .F. );
#223 = ORIENTED_EDGE( '', *, *, #309, .T. );
#224 = CARTESIAN_POINT( '', ( 8.00000000000000, 0.000000000000000, 28.5000000000000 ) );
#225 = DIRECTION( '', ( 6.42154712297608E-019, 0.000000000000000, -1.00000000000000 ) );
#226 = DIRECTION( '', ( -1.00000000000000, 0.000000000000000, -6.42154712297608E-019 ) );
#227 = SURFACE_STYLE_FILL_AREA( #312 );
#228 = ORIENTED_EDGE( '', *, *, #313, .F. );
#229 = ORIENTED_EDGE( '', *, *, #314, .T. );
#230 = CARTESIAN_POINT( '', ( 4.25000000000000, 0.000000000000000, 4.50000000000000 ) );
#231 = DIRECTION( '', ( -6.42154712297608E-019, 0.000000000000000, 1.00000000000000 ) );
#232 = DIRECTION( '', ( 1.00000000000000, 0.000000000000000, 6.42154712297608E-019 ) );
#233 = SURFACE_STYLE_FILL_AREA( #315 );
#234 = ORIENTED_EDGE( '', *, *, #316, .T. );
#235 = ORIENTED_EDGE( '', *, *, #317, .T. );
#236 = CARTESIAN_POINT( '', ( 5.25000000000000, 0.000000000000000, 6.00000000000000 ) );
#237 = DIRECTION( '', ( -6.42154712297608E-019, 0.000000000000000, 1.00000000000000 ) );
#238 = DIRECTION( '', ( 1.00000000000000, 0.000000000000000, 6.42154712297608E-019 ) );
#239 = SURFACE_STYLE_FILL_AREA( #318 );
#240 = ORIENTED_EDGE( '', *, *, #317, .F. );
#241 = ORIENTED_EDGE( '', *, *, #313, .T. );
#242 = CARTESIAN_POINT( '', ( -8.18747258179450E-018, 0.000000000000000, 25.5000000000000 ) );
#243 = DIRECTION( '', ( 6.42154712297608E-019, -0.000000000000000, -1.00000000000000 ) );
#244 = DIRECTION( '', ( 1.00000000000000, 0.000000000000000, 6.42154712297608E-019 ) );
#245 = SURFACE_STYLE_FILL_AREA( #319 );
#246 = ORIENTED_EDGE( '', *, *, #320, .F. );
#247 = CARTESIAN_POINT( '', ( 2.84730380801760E-015, 0.000000000000000, 4.25000000000000 ) );
#248 = DIRECTION( '', ( -6.42154712297608E-019, 0.000000000000000, 1.00000000000000 ) );
#249 = DIRECTION( '', ( -1.00000000000000, 0.000000000000000, -6.42154712297608E-019 ) );
#250 = SURFACE_STYLE_FILL_AREA( #321 );
#251 = ORIENTED_EDGE( '', *, *, #311, .T. );
#252 = ORIENTED_EDGE( '', *, *, #308, .T. );
#253 = ORIENTED_EDGE( '', *, *, #292, .T. );
#254 = ORIENTED_EDGE( '', *, *, #305, .F. );
#255 = ORIENTED_EDGE( '', *, *, #294, .T. );
#256 = ORIENTED_EDGE( '', *, *, #307, .T. );
#257 = CARTESIAN_POINT( '', ( 1.00000000000000, -12.5000000000000, 26.0000000000000 ) );
#258 = DIRECTION( '', ( -1.00000000000000, 0.000000000000000, 8.67361737988404E-017 ) );
#259 = DIRECTION( '', ( 8.67361737988404E-017, 0.000000000000000, 1.00000000000000 ) );
#260 = SURFACE_STYLE_FILL_AREA( #322 );
#261 = ORIENTED_EDGE( '', *, *, #301, .F. );
#262 = ORIENTED_EDGE( '', *, *, #323, .T. );
#263 = ORIENTED_EDGE( '', *, *, #296, .T. );
#264 = ORIENTED_EDGE( '', *, *, #304, .T. );
#265 = ORIENTED_EDGE( '', *, *, #298, .T. );
#266 = ORIENTED_EDGE( '', *, *, #324, .T. );
#267 = CARTESIAN_POINT( '', ( -1.00000000000000, -12.5000000000000, 28.5000000000000 ) );
#268 = DIRECTION( '', ( 1.00000000000000, 0.000000000000000, 8.67361737988404E-017 ) );
#269 = DIRECTION( '', ( 8.67361737988404E-017, 0.000000000000000, -1.00000000000000 ) );
#270 = SURFACE_STYLE_FILL_AREA( #325 );
#271 = ORIENTED_EDGE( '', *, *, #316, .F. );
#272 = ORIENTED_EDGE( '', *, *, #291, .F. );
#273 = CARTESIAN_POINT( '', ( 3.05023488341364E-018, 0.000000000000000, 8.00000000000000 ) );
#274 = DIRECTION( '', ( -6.42154712297607E-019, 0.000000000000000, 1.00000000000000 ) );
#275 = DIRECTION( '', ( 1.00000000000000, 0.000000000000000, 6.42154712297607E-019 ) );
#276 = SURFACE_STYLE_FILL_AREA( #326 );
#277 = ORIENTED_EDGE( '', *, *, #324, .F. );
#278 = ORIENTED_EDGE( '', *, *, #297, .F. );
#279 = ORIENTED_EDGE( '', *, *, #323, .F. );
#280 = ORIENTED_EDGE( '', *, *, #302, .F. );
#281 = CARTESIAN_POINT( '', ( -1.01139367186873E-017, 0.000000000000000, 28.5000000000000 ) );
#282 = DIRECTION( '', ( 6.42154712297608E-019, -0.000000000000000, -1.00000000000000 ) );
#283 = DIRECTION( '', ( -1.00000000000000, 0.000000000000000, -6.42154712297608E-019 ) );
#284 = SURFACE_STYLE_FILL_AREA( #327 );
#285 = ORIENTED_EDGE( '', *, *, #314, .F. );
#286 = ORIENTED_EDGE( '', *, *, #320, .T. );
#287 = CARTESIAN_POINT( '', ( -8.18747258179450E-018, 0.000000000000000, 25.5000000000000 ) );
#288 = DIRECTION( '', ( 6.42154712297608E-019, -0.000000000000000, -1.00000000000000 ) );
#289 = DIRECTION( '', ( 1.00000000000000, 0.000000000000000, 6.42154712297608E-019 ) );
#290 = FILL_AREA_STYLE( '', ( #328 ) );
#291 = EDGE_CURVE( '', #329, #329, #330, .T. );
#292 = EDGE_CURVE( '', #331, #332, #333, .F. );
#293 = EDGE_CURVE( '', #331, #334, #335, .T. );
#294 = EDGE_CURVE( '', #336, #334, #337, .T. );
#295 = EDGE_CURVE( '', #338, #336, #339, .T. );
#296 = EDGE_CURVE( '', #340, #338, #341, .F. );
#297 = EDGE_CURVE( '', #340, #342, #343, .T. );
#298 = EDGE_CURVE( '', #344, #342, #345, .T. );
#299 = EDGE_CURVE( '', #332, #344, #346, .T. );
#300 = FILL_AREA_STYLE( '', ( #347 ) );
#301 = EDGE_CURVE( '', #348, #349, #350, .T. );
#302 = EDGE_CURVE( '', #349, #348, #351, .F. );
#303 = FILL_AREA_STYLE( '', ( #352 ) );
#304 = EDGE_CURVE( '', #338, #344, #353, .T. );
#305 = EDGE_CURVE( '', #336, #332, #354, .T. );
#306 = FILL_AREA_STYLE( '', ( #355 ) );
#307 = EDGE_CURVE( '', #334, #356, #357, .T. );
#308 = EDGE_CURVE( '', #358, #331, #359, .T. );
#309 = EDGE_CURVE( '', #356, #358, #360, .F. );
#310 = FILL_AREA_STYLE( '', ( #361 ) );
#311 = EDGE_CURVE( '', #356, #358, #362, .T. );
#312 = FILL_AREA_STYLE( '', ( #363 ) );
#313 = EDGE_CURVE( '', #364, #364, #365, .T. );
#314 = EDGE_CURVE( '', #366, #366, #367, .T. );
#315 = FILL_AREA_STYLE( '', ( #368 ) );
#316 = EDGE_CURVE( '', #369, #369, #370, .F. );
#317 = EDGE_CURVE( '', #371, #371, #372, .T. );
#318 = FILL_AREA_STYLE( '', ( #373 ) );
#319 = FILL_AREA_STYLE( '', ( #374 ) );
#320 = EDGE_CURVE( '', #375, #375, #376, .T. );
#321 = FILL_AREA_STYLE( '', ( #377 ) );
#322 = FILL_AREA_STYLE( '', ( #378 ) );
#323 = EDGE_CURVE( '', #348, #340, #379, .T. );
#324 = EDGE_CURVE( '', #342, #349, #380, .T. );
#325 = FILL_AREA_STYLE( '', ( #381 ) );
#326 = FILL_AREA_STYLE( '', ( #382 ) );
#327 = FILL_AREA_STYLE( '', ( #383 ) );
#328 = FILL_AREA_STYLE_COLOUR( '', #384 );
#329 = VERTEX_POINT( '', #385 );
#330 = CIRCLE( '', #386, 8.00000000000000 );
#331 = VERTEX_POINT( '', #387 );
#332 = VERTEX_POINT( '', #388 );
#333 = LINE( '', #389, #390 );
#334 = VERTEX_POINT( '', #391 );
#335 = CIRCLE( '', #392, 8.00000000000000 );
#336 = VERTEX_POINT( '', #393 );
#337 = LINE( '', #394, #395 );
#338 = VERTEX_POINT( '', #396 );
#339 = CIRCLE( '', #397, 8.00000000000000 );
#340 = VERTEX_POINT( '', #398 );
#341 = LINE( '', #399, #400 );
#342 = VERTEX_POINT( '', #401 );
#343 = CIRCLE( '', #402, 8.00000000000000 );
#344 = VERTEX_POINT( '', #403 );
#345 = LINE( '', #404, #405 );
#346 = CIRCLE( '', #406, 8.00000000000000 );
#347 = FILL_AREA_STYLE_COLOUR( '', #407 );
#348 = VERTEX_POINT( '', #408 );
#349 = VERTEX_POINT( '', #409 );
#350 = LINE( '', #410, #411 );
#351 = CIRCLE( '', #412, 6.50000000000000 );
#352 = FILL_AREA_STYLE_COLOUR( '', #413 );
#353 = LINE( '', #414, #415 );
#354 = LINE( '', #416, #417 );
#355 = FILL_AREA_STYLE_COLOUR( '', #418 );
#356 = VERTEX_POINT( '', #419 );
#357 = B_SPLINE_CURVE_WITH_KNOTS( '', 3, ( #420, #421, #422, #423 ), .UNSPECIFIED., .F., .F., ( 4, 4 ), ( 0.000000000000000, 0.00213169584889623 ), .UNSPECIFIED. );
#358 = VERTEX_POINT( '', #424 );
#359 = B_SPLINE_CURVE_WITH_KNOTS( '', 3, ( #425, #426, #427, #428 ), .UNSPECIFIED., .F., .F., ( 4, 4 ), ( 0.000000000000000, 0.00213169584889623 ), .UNSPECIFIED. );
#360 = CIRCLE( '', #429, 6.50000000000000 );
#361 = FILL_AREA_STYLE_COLOUR( '', #430 );
#362 = LINE( '', #431, #432 );
#363 = FILL_AREA_STYLE_COLOUR( '', #433 );
#364 = VERTEX_POINT( '', #434 );
#365 = CIRCLE( '', #435, 5.25000000000000 );
#366 = VERTEX_POINT( '', #436 );
#367 = CIRCLE( '', #437, 4.25000000000000 );
#368 = FILL_AREA_STYLE_COLOUR( '', #438 );
#369 = VERTEX_POINT( '', #439 );
#370 = CIRCLE( '', #440, 6.00000000000000 );
#371 = VERTEX_POINT( '', #441 );
#372 = CIRCLE( '', #442, 5.25000000000000 );
#373 = FILL_AREA_STYLE_COLOUR( '', #443 );
#374 = FILL_AREA_STYLE_COLOUR( '', #444 );
#375 = VERTEX_POINT( '', #445 );
#376 = CIRCLE( '', #446, 4.25000000000000 );
#377 = FILL_AREA_STYLE_COLOUR( '', #447 );
#378 = FILL_AREA_STYLE_COLOUR( '', #448 );
#379 = B_SPLINE_CURVE_WITH_KNOTS( '', 3, ( #449, #450, #451, #452 ), .UNSPECIFIED., .F., .F., ( 4, 4 ), ( 0.000000000000000, 0.00213169584889623 ), .UNSPECIFIED. );
#380 = B_SPLINE_CURVE_WITH_KNOTS( '', 3, ( #453, #454, #455, #456 ), .UNSPECIFIED., .F., .F., ( 4, 4 ), ( 0.000000000000000, 0.00213169584889623 ), .UNSPECIFIED. );
#381 = FILL_AREA_STYLE_COLOUR( '', #457 );
#382 = FILL_AREA_STYLE_COLOUR( '', #458 );
#383 = FILL_AREA_STYLE_COLOUR( '', #459 );
#384 = COLOUR_RGB( '', 0.752941191196442, 0.752941191196442, 0.752941191196442 );
#385 = CARTESIAN_POINT( '', ( 8.00000000000000, 0.000000000000000, 8.00000000000000 ) );
#386 = AXIS2_PLACEMENT_3D( '', #460, #461, #462 );
#387 = CARTESIAN_POINT( '', ( 1.00000000000000, 7.93725393319377, 27.0000000000000 ) );
#388 = CARTESIAN_POINT( '', ( 1.00000000000000, 7.93725393319377, 26.0000000000000 ) );
#389 = CARTESIAN_POINT( '', ( 1.00000000000000, 7.93725393319377, 25.5000000000000 ) );
#390 = VECTOR( '', #463, 1000.00000000000 );
#391 = CARTESIAN_POINT( '', ( 1.00000000000000, -7.93725393319377, 27.0000000000000 ) );
#392 = AXIS2_PLACEMENT_3D( '', #464, #465, #466 );
#393 = CARTESIAN_POINT( '', ( 1.00000000000000, -7.93725393319377, 26.0000000000000 ) );
#394 = CARTESIAN_POINT( '', ( 1.00000000000000, -7.93725393319377, 25.5000000000000 ) );
#395 = VECTOR( '', #467, 1000.00000000000 );
#396 = CARTESIAN_POINT( '', ( -1.00000000000000, -7.93725393319377, 26.0000000000000 ) );
#397 = AXIS2_PLACEMENT_3D( '', #468, #469, #470 );
#398 = CARTESIAN_POINT( '', ( -1.00000000000000, -7.93725393319377, 27.0000000000000 ) );
#399 = CARTESIAN_POINT( '', ( -1.00000000000000, -7.93725393319377, 25.5000000000000 ) );
#400 = VECTOR( '', #471, 1000.00000000000 );
#401 = CARTESIAN_POINT( '', ( -1.00000000000000, 7.93725393319377, 27.0000000000000 ) );
#402 = AXIS2_PLACEMENT_3D( '', #472, #473, #474 );
#403 = CARTESIAN_POINT( '', ( -1.00000000000000, 7.93725393319377, 26.0000000000000 ) );
#404 = CARTESIAN_POINT( '', ( -1.00000000000000, 7.93725393319377, 25.5000000000000 ) );
#405 = VECTOR( '', #475, 1000.00000000000 );
#406 = AXIS2_PLACEMENT_3D( '', #476, #477, #478 );
#407 = COLOUR_RGB( '', 0.800000011920929, 0.800000011920929, 0.800000011920929 );
#408 = CARTESIAN_POINT( '', ( -1.00000000000000, -6.42261628933257, 28.5000000000000 ) );
#409 = CARTESIAN_POINT( '', ( -1.00000000000000, 6.42261628933257, 28.5000000000000 ) );
#410 = CARTESIAN_POINT( '', ( -1.00000000000000, -12.5000000000000, 28.5000000000000 ) );
#411 = VECTOR( '', #479, 1000.00000000000 );
#412 = AXIS2_PLACEMENT_3D( '', #480, #481, #482 );
#413 = COLOUR_RGB( '', 0.800000011920929, 0.800000011920929, 0.800000011920929 );
#414 = CARTESIAN_POINT( '', ( -1.00000000000000, -12.5000000000000, 26.0000000000000 ) );
#415 = VECTOR( '', #483, 1000.00000000000 );
#416 = CARTESIAN_POINT( '', ( 1.00000000000000, -12.5000000000000, 26.0000000000000 ) );
#417 = VECTOR( '', #484, 1000.00000000000 );
#418 = COLOUR_RGB( '', 0.800000011920929, 0.800000011920929, 0.800000011920929 );
#419 = CARTESIAN_POINT( '', ( 1.00000000000000, -6.42261628933257, 28.5000000000000 ) );
#420 = CARTESIAN_POINT( '', ( 1.00000000000000, -7.93725393319377, 27.0000000000000 ) );
#421 = CARTESIAN_POINT( '', ( 1.00000000000000, -7.43283414983020, 27.5004634886854 ) );
#422 = CARTESIAN_POINT( '', ( 1.00000000000000, -6.92806152084952, 28.0005721881067 ) );
#423 = CARTESIAN_POINT( '', ( 1.00000000000000, -6.42261628933257, 28.5000000000000 ) );
#424 = CARTESIAN_POINT( '', ( 1.00000000000000, 6.42261628933257, 28.5000000000000 ) );
#425 = CARTESIAN_POINT( '', ( 1.00000000000000, 6.42261628933257, 28.5000000000000 ) );
#426 = CARTESIAN_POINT( '', ( 1.00000000000000, 6.92806152084952, 28.0005721881067 ) );
#427 = CARTESIAN_POINT( '', ( 1.00000000000000, 7.43283414983020, 27.5004634886854 ) );
#428 = CARTESIAN_POINT( '', ( 1.00000000000000, 7.93725393319377, 27.0000000000000 ) );
#429 = AXIS2_PLACEMENT_3D( '', #485, #486, #487 );
#430 = COLOUR_RGB( '', 0.800000011920929, 0.800000011920929, 0.800000011920929 );
#431 = CARTESIAN_POINT( '', ( 1.00000000000000, -12.5000000000000, 28.5000000000000 ) );
#432 = VECTOR( '', #488, 1000.00000000000 );
#433 = COLOUR_RGB( '', 0.800000011920929, 0.800000011920929, 0.800000011920929 );
#434 = CARTESIAN_POINT( '', ( 5.25000000000000, 0.000000000000000, 4.50000000000000 ) );
#435 = AXIS2_PLACEMENT_3D( '', #489, #490, #491 );
#436 = CARTESIAN_POINT( '', ( 4.25000000000000, 0.000000000000000, 4.50000000000000 ) );
#437 = AXIS2_PLACEMENT_3D( '', #492, #493, #494 );
#438 = COLOUR_RGB( '', 0.800000011920929, 0.800000011920929, 0.800000011920929 );
#439 = CARTESIAN_POINT( '', ( 6.00000000000000, 0.000000000000000, 6.00000000000000 ) );
#440 = AXIS2_PLACEMENT_3D( '', #495, #496, #497 );
#441 = CARTESIAN_POINT( '', ( 5.25000000000000, 0.000000000000000, 6.00000000000000 ) );
#442 = AXIS2_PLACEMENT_3D( '', #498, #499, #500 );
#443 = COLOUR_RGB( '', 0.800000011920929, 0.800000011920929, 0.800000011920929 );
#444 = COLOUR_RGB( '', 0.800000011920929, 0.800000011920929, 0.800000011920929 );
#445 = CARTESIAN_POINT( '', ( 4.25000000000000, 0.000000000000000, 4.25000000000000 ) );
#446 = AXIS2_PLACEMENT_3D( '', #501, #502, #503 );
#447 = COLOUR_RGB( '', 0.800000011920929, 0.800000011920929, 0.800000011920929 );
#448 = COLOUR_RGB( '', 0.800000011920929, 0.800000011920929, 0.800000011920929 );
#449 = CARTESIAN_POINT( '', ( -1.00000000000000, -6.42261628933257, 28.5000000000000 ) );
#450 = CARTESIAN_POINT( '', ( -1.00000000000000, -6.92806152084952, 28.0005721881067 ) );
#451 = CARTESIAN_POINT( '', ( -1.00000000000000, -7.43283414983020, 27.5004634886854 ) );
#452 = CARTESIAN_POINT( '', ( -1.00000000000000, -7.93725393319377, 27.0000000000000 ) );
#453 = CARTESIAN_POINT( '', ( -1.00000000000000, 7.93725393319377, 27.0000000000000 ) );
#454 = CARTESIAN_POINT( '', ( -1.00000000000000, 7.43283414983020, 27.5004634886854 ) );
#455 = CARTESIAN_POINT( '', ( -1.00000000000000, 6.92806152084952, 28.0005721881067 ) );
#456 = CARTESIAN_POINT( '', ( -1.00000000000000, 6.42261628933257, 28.5000000000000 ) );
#457 = COLOUR_RGB( '', 0.800000011920929, 0.800000011920929, 0.800000011920929 );
#458 = COLOUR_RGB( '', 0.800000011920929, 0.800000011920929, 0.800000011920929 );
#459 = COLOUR_RGB( '', 0.800000011920929, 0.800000011920929, 0.800000011920929 );
#460 = CARTESIAN_POINT( '', ( 3.05023488341364E-018, 0.000000000000000, 8.00000000000000 ) );
#461 = DIRECTION( '', ( -6.42154712297607E-019, 0.000000000000000, 1.00000000000000 ) );
#462 = DIRECTION( '', ( 1.00000000000000, 0.000000000000000, 6.42154712297607E-019 ) );
#463 = DIRECTION( '', ( -6.42154712297608E-019, 0.000000000000000, 1.00000000000000 ) );
#464 = CARTESIAN_POINT( '', ( -9.15070465024091E-018, 0.000000000000000, 27.0000000000000 ) );
#465 = DIRECTION( '', ( 6.42154712297608E-019, 0.000000000000000, -1.00000000000000 ) );
#466 = DIRECTION( '', ( -1.00000000000000, 0.000000000000000, -6.42154712297608E-019 ) );
#467 = DIRECTION( '', ( -6.42154712297608E-019, 0.000000000000000, 1.00000000000000 ) );
#468 = CARTESIAN_POINT( '', ( -8.50854993794330E-018, 0.000000000000000, 26.0000000000000 ) );
#469 = DIRECTION( '', ( 0.000000000000000, 0.000000000000000, 1.00000000000000 ) );
#470 = DIRECTION( '', ( 1.00000000000000, 0.000000000000000, 0.000000000000000 ) );
#471 = DIRECTION( '', ( -6.42154712297608E-019, 0.000000000000000, 1.00000000000000 ) );
#472 = CARTESIAN_POINT( '', ( -9.15070465024091E-018, 0.000000000000000, 27.0000000000000 ) );
#473 = DIRECTION( '', ( 6.42154712297608E-019, 0.000000000000000, -1.00000000000000 ) );
#474 = DIRECTION( '', ( -1.00000000000000, 0.000000000000000, -6.42154712297608E-019 ) );
#475 = DIRECTION( '', ( -6.42154712297608E-019, 0.000000000000000, 1.00000000000000 ) );
#476 = CARTESIAN_POINT( '', ( -8.50854993794330E-018, 0.000000000000000, 26.0000000000000 ) );
#477 = DIRECTION( '', ( 0.000000000000000, 0.000000000000000, 1.00000000000000 ) );
#478 = DIRECTION( '', ( 1.00000000000000, 0.000000000000000, 0.000000000000000 ) );
#479 = DIRECTION( '', ( 0.000000000000000, 1.00000000000000, 0.000000000000000 ) );
#480 = CARTESIAN_POINT( '', ( -1.01139367186873E-017, 0.000000000000000, 28.5000000000000 ) );
#481 = DIRECTION( '', ( 6.42154712297608E-019, 0.000000000000000, -1.00000000000000 ) );
#482 = DIRECTION( '', ( -1.00000000000000, 0.000000000000000, -6.42154712297608E-019 ) );
#483 = DIRECTION( '', ( 0.000000000000000, 1.00000000000000, 0.000000000000000 ) );
#484 = DIRECTION( '', ( 0.000000000000000, 1.00000000000000, 0.000000000000000 ) );
#485 = CARTESIAN_POINT( '', ( -1.01139367186873E-017, 0.000000000000000, 28.5000000000000 ) );
#486 = DIRECTION( '', ( 6.42154712297608E-019, 0.000000000000000, -1.00000000000000 ) );
#487 = DIRECTION( '', ( -1.00000000000000, 0.000000000000000, -6.42154712297608E-019 ) );
#488 = DIRECTION( '', ( 0.000000000000000, 1.00000000000000, 0.000000000000000 ) );
#489 = CARTESIAN_POINT( '', ( 5.29777637645526E-018, 0.000000000000000, 4.50000000000000 ) );
#490 = DIRECTION( '', ( -6.42154712297608E-019, 0.000000000000000, 1.00000000000000 ) );
#491 = DIRECTION( '', ( 1.00000000000000, 0.000000000000000, 6.42154712297608E-019 ) );
#492 = CARTESIAN_POINT( '', ( 5.29777637645526E-018, 0.000000000000000, 4.50000000000000 ) );
#493 = DIRECTION( '', ( -6.42154712297608E-019, 0.000000000000000, 1.00000000000000 ) );
#494 = DIRECTION( '', ( 1.00000000000000, 0.000000000000000, 6.42154712297608E-019 ) );
#495 = CARTESIAN_POINT( '', ( 4.33454430800885E-018, 0.000000000000000, 6.00000000000000 ) );
#496 = DIRECTION( '', ( -6.42154712297608E-019, 0.000000000000000, 1.00000000000000 ) );
#497 = DIRECTION( '', ( 1.00000000000000, 0.000000000000000, 6.42154712297608E-019 ) );
#498 = CARTESIAN_POINT( '', ( 4.33454430800886E-018, 0.000000000000000, 6.00000000000000 ) );
#499 = DIRECTION( '', ( -6.42154712297608E-019, 0.000000000000000, 1.00000000000000 ) );
#500 = DIRECTION( '', ( 1.00000000000000, 0.000000000000000, 6.42154712297608E-019 ) );
#501 = CARTESIAN_POINT( '', ( 5.45831505452967E-018, 0.000000000000000, 4.25000000000000 ) );
#502 = DIRECTION( '', ( -6.42154712297608E-019, 0.000000000000000, 1.00000000000000 ) );
#503 = DIRECTION( '', ( 1.00000000000000, 0.000000000000000, 6.42154712297608E-019 ) );
ENDSEC;
END-ISO-10303-21;
