ISO-10303-21;
HEADER;
FILE_DESCRIPTION( ( 'Unknown' ), '1' );
FILE_NAME( '//SBS2003/HD_Usb/Disegni/08_LIB/Users_3D/PROD_GAMM_3D/APP-I/7747236_APP_24_IR.stp', 'Unknown', ( 'Unknown' ), ( 'Unknown' ), 'PSStep 14.0', 'Unknown', '  ' );
FILE_SCHEMA( ( 'AUTOMOTIVE_DESIGN { 1 0 10303 214 1 1 1 1 }' ) );
ENDSEC;
DATA;
#1 = MECHANICAL_DESIGN_GEOMETRIC_PRESENTATION_REPRESENTATION( ' ', ( #10, #11, #12, #13, #14, #15, #16, #17, #18, #19, #20, #21, #22, #23 ), #6 );
#2 = PRODUCT_DEFINITION_CONTEXT( '', #24, 'design' );
#3 = APPLICATION_PROTOCOL_DEFINITION( 'international standard', 'automotive_design', 2001, #24 );
#4 = PRODUCT_CATEGORY_RELATIONSHIP( 'NONE', 'NONE', #25, #26 );
#5 = SHAPE_DEFINITION_REPRESENTATION( #27, #28 );
#6 =  ( GEOMETRIC_REPRESENTATION_CONTEXT( 3 )GLOBAL_UNCERTAINTY_ASSIGNED_CONTEXT( ( #31 ) )GLOBAL_UNIT_ASSIGNED_CONTEXT( ( #33, #34, #35 ) )REPRESENTATION_CONTEXT( 'NONE', 'WORKSPACE' ) );
#10 = STYLED_ITEM( '', ( #37 ), #38 );
#11 = STYLED_ITEM( '', ( #39 ), #40 );
#12 = STYLED_ITEM( '', ( #41 ), #42 );
#13 = STYLED_ITEM( '', ( #43 ), #44 );
#14 = STYLED_ITEM( '', ( #45 ), #46 );
#15 = STYLED_ITEM( '', ( #47 ), #48 );
#16 = STYLED_ITEM( '', ( #49 ), #50 );
#17 = STYLED_ITEM( '', ( #51 ), #52 );
#18 = STYLED_ITEM( '', ( #53 ), #54 );
#19 = STYLED_ITEM( '', ( #55 ), #56 );
#20 = STYLED_ITEM( '', ( #57 ), #58 );
#21 = STYLED_ITEM( '', ( #59 ), #60 );
#22 = STYLED_ITEM( '', ( #61 ), #62 );
#23 = STYLED_ITEM( '', ( #63 ), #64 );
#24 = APPLICATION_CONTEXT( 'core data for automotive mechanical design processes' );
#25 = PRODUCT_CATEGORY( 'part', 'NONE' );
#26 = PRODUCT_RELATED_PRODUCT_CATEGORY( 'detail', ' ', ( #65 ) );
#27 = PRODUCT_DEFINITION_SHAPE( 'NONE', 'NONE', #66 );
#28 = ADVANCED_BREP_SHAPE_REPRESENTATION( '1', ( #67, #68 ), #6 );
#31 = UNCERTAINTY_MEASURE_WITH_UNIT( LENGTH_MEASURE( 0.00100000000000000 ), #33, '', '' );
#33 =  ( CONVERSION_BASED_UNIT( 'MILLIMETRE', #71 )LENGTH_UNIT(  )NAMED_UNIT( #74 ) );
#34 =  ( NAMED_UNIT( #76 )PLANE_ANGLE_UNIT(  )SI_UNIT( $, .RADIAN. ) );
#35 =  ( NAMED_UNIT( #76 )SI_UNIT( $, .STERADIAN. )SOLID_ANGLE_UNIT(  ) );
#37 = PRESENTATION_STYLE_ASSIGNMENT( ( #82 ) );
#38 = ADVANCED_FACE( '', ( #83 ), #84, .T. );
#39 = PRESENTATION_STYLE_ASSIGNMENT( ( #85 ) );
#40 = ADVANCED_FACE( '', ( #86 ), #87, .T. );
#41 = PRESENTATION_STYLE_ASSIGNMENT( ( #88 ) );
#42 = ADVANCED_FACE( '', ( #89, #90 ), #91, .T. );
#43 = PRESENTATION_STYLE_ASSIGNMENT( ( #92 ) );
#44 = ADVANCED_FACE( '', ( #93, #94 ), #95, .T. );
#45 = PRESENTATION_STYLE_ASSIGNMENT( ( #96 ) );
#46 = ADVANCED_FACE( '', ( #97 ), #98, .F. );
#47 = PRESENTATION_STYLE_ASSIGNMENT( ( #99 ) );
#48 = ADVANCED_FACE( '', ( #100, #101 ), #102, .T. );
#49 = PRESENTATION_STYLE_ASSIGNMENT( ( #103 ) );
#50 = ADVANCED_FACE( '', ( #104 ), #105, .T. );
#51 = PRESENTATION_STYLE_ASSIGNMENT( ( #106 ) );
#52 = ADVANCED_FACE( '', ( #107 ), #108, .T. );
#53 = PRESENTATION_STYLE_ASSIGNMENT( ( #109 ) );
#54 = ADVANCED_FACE( '', ( #110, #111 ), #112, .F. );
#55 = PRESENTATION_STYLE_ASSIGNMENT( ( #113 ) );
#56 = ADVANCED_FACE( '', ( #114 ), #115, .F. );
#57 = PRESENTATION_STYLE_ASSIGNMENT( ( #116 ) );
#58 = ADVANCED_FACE( '', ( #117 ), #118, .T. );
#59 = PRESENTATION_STYLE_ASSIGNMENT( ( #119 ) );
#60 = ADVANCED_FACE( '', ( #120, #121 ), #122, .T. );
#61 = PRESENTATION_STYLE_ASSIGNMENT( ( #123 ) );
#62 = ADVANCED_FACE( '', ( #124 ), #125, .T. );
#63 = PRESENTATION_STYLE_ASSIGNMENT( ( #126 ) );
#64 = ADVANCED_FACE( '', ( #127, #128 ), #129, .F. );
#65 = PRODUCT( '1', '1', 'PART-1-DESC', ( #130 ) );
#66 = PRODUCT_DEFINITION( 'NONE', 'NONE', #131, #2 );
#67 = MANIFOLD_SOLID_BREP( '1', #132 );
#68 = AXIS2_PLACEMENT_3D( '', #133, #134, #135 );
#71 = LENGTH_MEASURE_WITH_UNIT( LENGTH_MEASURE( 1.00000000000000 ), #136 );
#74 = DIMENSIONAL_EXPONENTS( 1.00000000000000, 0.000000000000000, 0.000000000000000, 0.000000000000000, 0.000000000000000, 0.000000000000000, 0.000000000000000 );
#76 = DIMENSIONAL_EXPONENTS( 0.000000000000000, 0.000000000000000, 0.000000000000000, 0.000000000000000, 0.000000000000000, 0.000000000000000, 0.000000000000000 );
#82 = SURFACE_STYLE_USAGE( .BOTH., #137 );
#83 = FACE_OUTER_BOUND( '', #138, .T. );
#84 = SPHERICAL_SURFACE( '', #139, 4.25000000000000 );
#85 = SURFACE_STYLE_USAGE( .BOTH., #140 );
#86 = FACE_OUTER_BOUND( '', #141, .T. );
#87 = PLANE( '', #142 );
#88 = SURFACE_STYLE_USAGE( .BOTH., #143 );
#89 = FACE_BOUND( '', #144, .T. );
#90 = FACE_OUTER_BOUND( '', #145, .T. );
#91 = CONICAL_SURFACE( '', #146, 8.00000000000000, 0.785398163397449 );
#92 = SURFACE_STYLE_USAGE( .BOTH., #147 );
#93 = FACE_OUTER_BOUND( '', #148, .T. );
#94 = FACE_OUTER_BOUND( '', #149, .T. );
#95 = CYLINDRICAL_SURFACE( '', #150, 5.25000000000000 );
#96 = SURFACE_STYLE_USAGE( .BOTH., #151 );
#97 = FACE_OUTER_BOUND( '', #152, .T. );
#98 = PLANE( '', #153 );
#99 = SURFACE_STYLE_USAGE( .BOTH., #154 );
#100 = FACE_OUTER_BOUND( '', #155, .T. );
#101 = FACE_OUTER_BOUND( '', #156, .T. );
#102 = CYLINDRICAL_SURFACE( '', #157, 8.00000000000000 );
#103 = SURFACE_STYLE_USAGE( .BOTH., #158 );
#104 = FACE_OUTER_BOUND( '', #159, .T. );
#105 = CONICAL_SURFACE( '', #160, 6.50000000000000, 0.785398163397448 );
#106 = SURFACE_STYLE_USAGE( .BOTH., #161 );
#107 = FACE_OUTER_BOUND( '', #162, .T. );
#108 = PLANE( '', #163 );
#109 = SURFACE_STYLE_USAGE( .BOTH., #164 );
#110 = FACE_OUTER_BOUND( '', #165, .T. );
#111 = FACE_BOUND( '', #166, .T. );
#112 = PLANE( '', #167 );
#113 = SURFACE_STYLE_USAGE( .BOTH., #168 );
#114 = FACE_OUTER_BOUND( '', #169, .T. );
#115 = PLANE( '', #170 );
#116 = SURFACE_STYLE_USAGE( .BOTH., #171 );
#117 = FACE_OUTER_BOUND( '', #172, .T. );
#118 = CONICAL_SURFACE( '', #173, 6.50000000000000, 0.785398163397448 );
#119 = SURFACE_STYLE_USAGE( .BOTH., #174 );
#120 = FACE_OUTER_BOUND( '', #175, .T. );
#121 = FACE_OUTER_BOUND( '', #176, .T. );
#122 = CYLINDRICAL_SURFACE( '', #177, 4.25000000000000 );
#123 = SURFACE_STYLE_USAGE( .BOTH., #178 );
#124 = FACE_OUTER_BOUND( '', #179, .T. );
#125 = PLANE( '', #180 );
#126 = SURFACE_STYLE_USAGE( .BOTH., #181 );
#127 = FACE_OUTER_BOUND( '', #182, .T. );
#128 = FACE_BOUND( '', #183, .T. );
#129 = PLANE( '', #184 );
#130 = PRODUCT_CONTEXT( '', #24, 'mechanical' );
#131 = PRODUCT_DEFINITION_FORMATION_WITH_SPECIFIED_SOURCE( ' ', 'NONE', #65, .NOT_KNOWN. );
#132 = CLOSED_SHELL( '', ( #48, #50, #62, #40, #58, #42, #60, #64, #56, #44, #54, #38, #46, #52 ) );
#133 = CARTESIAN_POINT( '', ( 0.000000000000000, 0.000000000000000, 0.000000000000000 ) );
#134 = DIRECTION( '', ( 0.000000000000000, 0.000000000000000, 1.00000000000000 ) );
#135 = DIRECTION( '', ( 1.00000000000000, 0.000000000000000, 0.000000000000000 ) );
#136 =  ( LENGTH_UNIT(  )NAMED_UNIT( #74 )SI_UNIT( .MILLI., .METRE. ) );
#137 = SURFACE_SIDE_STYLE( '', ( #186 ) );
#138 = EDGE_LOOP( '', ( #187 ) );
#139 = AXIS2_PLACEMENT_3D( '', #188, #189, #190 );
#140 = SURFACE_SIDE_STYLE( '', ( #191 ) );
#141 = EDGE_LOOP( '', ( #192, #193, #194, #195, #196, #197 ) );
#142 = AXIS2_PLACEMENT_3D( '', #198, #199, #200 );
#143 = SURFACE_SIDE_STYLE( '', ( #201 ) );
#144 = EDGE_LOOP( '', ( #202 ) );
#145 = EDGE_LOOP( '', ( #203 ) );
#146 = AXIS2_PLACEMENT_3D( '', #204, #205, #206 );
#147 = SURFACE_SIDE_STYLE( '', ( #207 ) );
#148 = EDGE_LOOP( '', ( #208 ) );
#149 = EDGE_LOOP( '', ( #209 ) );
#150 = AXIS2_PLACEMENT_3D( '', #210, #211, #212 );
#151 = SURFACE_SIDE_STYLE( '', ( #213 ) );
#152 = EDGE_LOOP( '', ( #214, #215 ) );
#153 = AXIS2_PLACEMENT_3D( '', #216, #217, #218 );
#154 = SURFACE_SIDE_STYLE( '', ( #219 ) );
#155 = EDGE_LOOP( '', ( #220 ) );
#156 = EDGE_LOOP( '', ( #221, #222, #223, #224, #225, #226, #227, #228 ) );
#157 = AXIS2_PLACEMENT_3D( '', #229, #230, #231 );
#158 = SURFACE_SIDE_STYLE( '', ( #232 ) );
#159 = EDGE_LOOP( '', ( #233, #234, #235, #236 ) );
#160 = AXIS2_PLACEMENT_3D( '', #237, #238, #239 );
#161 = SURFACE_SIDE_STYLE( '', ( #240 ) );
#162 = EDGE_LOOP( '', ( #241, #242, #243, #244, #245, #246 ) );
#163 = AXIS2_PLACEMENT_3D( '', #247, #248, #249 );
#164 = SURFACE_SIDE_STYLE( '', ( #250 ) );
#165 = EDGE_LOOP( '', ( #251 ) );
#166 = EDGE_LOOP( '', ( #252 ) );
#167 = AXIS2_PLACEMENT_3D( '', #253, #254, #255 );
#168 = SURFACE_SIDE_STYLE( '', ( #256 ) );
#169 = EDGE_LOOP( '', ( #257, #258 ) );
#170 = AXIS2_PLACEMENT_3D( '', #259, #260, #261 );
#171 = SURFACE_SIDE_STYLE( '', ( #262 ) );
#172 = EDGE_LOOP( '', ( #263, #264, #265, #266 ) );
#173 = AXIS2_PLACEMENT_3D( '', #267, #268, #269 );
#174 = SURFACE_SIDE_STYLE( '', ( #270 ) );
#175 = EDGE_LOOP( '', ( #271 ) );
#176 = EDGE_LOOP( '', ( #272 ) );
#177 = AXIS2_PLACEMENT_3D( '', #273, #274, #275 );
#178 = SURFACE_SIDE_STYLE( '', ( #276 ) );
#179 = EDGE_LOOP( '', ( #277, #278, #279, #280 ) );
#180 = AXIS2_PLACEMENT_3D( '', #281, #282, #283 );
#181 = SURFACE_SIDE_STYLE( '', ( #284 ) );
#182 = EDGE_LOOP( '', ( #285 ) );
#183 = EDGE_LOOP( '', ( #286 ) );
#184 = AXIS2_PLACEMENT_3D( '', #287, #288, #289 );
#186 = SURFACE_STYLE_FILL_AREA( #290 );
#187 = ORIENTED_EDGE( '', *, *, #291, .F. );
#188 = CARTESIAN_POINT( '', ( 2.84730380801760E-015, 0.000000000000000, 4.25000000000000 ) );
#189 = DIRECTION( '', ( -6.42154712297608E-019, 0.000000000000000, 1.00000000000000 ) );
#190 = DIRECTION( '', ( -1.00000000000000, 0.000000000000000, -6.42154712297608E-019 ) );
#191 = SURFACE_STYLE_FILL_AREA( #292 );
#192 = ORIENTED_EDGE( '', *, *, #293, .T. );
#193 = ORIENTED_EDGE( '', *, *, #294, .T. );
#194 = ORIENTED_EDGE( '', *, *, #295, .T. );
#195 = ORIENTED_EDGE( '', *, *, #296, .F. );
#196 = ORIENTED_EDGE( '', *, *, #297, .T. );
#197 = ORIENTED_EDGE( '', *, *, #298, .T. );
#198 = CARTESIAN_POINT( '', ( 1.00000000000000, -12.5000000000000, 26.0000000000000 ) );
#199 = DIRECTION( '', ( -1.00000000000000, 0.000000000000000, 8.67361737988404E-017 ) );
#200 = DIRECTION( '', ( 8.67361737988404E-017, 0.000000000000000, 1.00000000000000 ) );
#201 = SURFACE_STYLE_FILL_AREA( #299 );
#202 = ORIENTED_EDGE( '', *, *, #300, .F. );
#203 = ORIENTED_EDGE( '', *, *, #301, .F. );
#204 = CARTESIAN_POINT( '', ( 3.05023488341364E-018, 0.000000000000000, 8.00000000000000 ) );
#205 = DIRECTION( '', ( -6.42154712297607E-019, 0.000000000000000, 1.00000000000000 ) );
#206 = DIRECTION( '', ( 1.00000000000000, 0.000000000000000, 6.42154712297607E-019 ) );
#207 = SURFACE_STYLE_FILL_AREA( #302 );
#208 = ORIENTED_EDGE( '', *, *, #303, .F. );
#209 = ORIENTED_EDGE( '', *, *, #304, .T. );
#210 = CARTESIAN_POINT( '', ( -8.18747258179450E-018, 0.000000000000000, 25.5000000000000 ) );
#211 = DIRECTION( '', ( 6.42154712297608E-019, -0.000000000000000, -1.00000000000000 ) );
#212 = DIRECTION( '', ( 1.00000000000000, 0.000000000000000, 6.42154712297608E-019 ) );
#213 = SURFACE_STYLE_FILL_AREA( #305 );
#214 = ORIENTED_EDGE( '', *, *, #306, .T. );
#215 = ORIENTED_EDGE( '', *, *, #307, .T. );
#216 = CARTESIAN_POINT( '', ( 8.00000000000000, 0.000000000000000, 28.5000000000000 ) );
#217 = DIRECTION( '', ( 6.42154712297608E-019, 0.000000000000000, -1.00000000000000 ) );
#218 = DIRECTION( '', ( -1.00000000000000, 0.000000000000000, -6.42154712297608E-019 ) );
#219 = SURFACE_STYLE_FILL_AREA( #308 );
#220 = ORIENTED_EDGE( '', *, *, #301, .T. );
#221 = ORIENTED_EDGE( '', *, *, #295, .F. );
#222 = ORIENTED_EDGE( '', *, *, #309, .T. );
#223 = ORIENTED_EDGE( '', *, *, #297, .F. );
#224 = ORIENTED_EDGE( '', *, *, #310, .F. );
#225 = ORIENTED_EDGE( '', *, *, #311, .F. );
#226 = ORIENTED_EDGE( '', *, *, #312, .T. );
#227 = ORIENTED_EDGE( '', *, *, #313, .F. );
#228 = ORIENTED_EDGE( '', *, *, #314, .F. );
#229 = CARTESIAN_POINT( '', ( -8.18747258179450E-018, 0.000000000000000, 25.5000000000000 ) );
#230 = DIRECTION( '', ( 6.42154712297608E-019, -0.000000000000000, -1.00000000000000 ) );
#231 = DIRECTION( '', ( 1.00000000000000, 0.000000000000000, 6.42154712297608E-019 ) );
#232 = SURFACE_STYLE_FILL_AREA( #315 );
#233 = ORIENTED_EDGE( '', *, *, #316, .F. );
#234 = ORIENTED_EDGE( '', *, *, #312, .F. );
#235 = ORIENTED_EDGE( '', *, *, #317, .F. );
#236 = ORIENTED_EDGE( '', *, *, #307, .F. );
#237 = CARTESIAN_POINT( '', ( -1.01139367186873E-017, 0.000000000000000, 28.5000000000000 ) );
#238 = DIRECTION( '', ( 6.42154712297608E-019, -0.000000000000000, -1.00000000000000 ) );
#239 = DIRECTION( '', ( -1.00000000000000, 0.000000000000000, -6.42154712297608E-019 ) );
#240 = SURFACE_STYLE_FILL_AREA( #318 );
#241 = ORIENTED_EDGE( '', *, *, #306, .F. );
#242 = ORIENTED_EDGE( '', *, *, #317, .T. );
#243 = ORIENTED_EDGE( '', *, *, #311, .T. );
#244 = ORIENTED_EDGE( '', *, *, #319, .T. );
#245 = ORIENTED_EDGE( '', *, *, #313, .T. );
#246 = ORIENTED_EDGE( '', *, *, #316, .T. );
#247 = CARTESIAN_POINT( '', ( -1.00000000000000, -12.5000000000000, 28.5000000000000 ) );
#248 = DIRECTION( '', ( 1.00000000000000, 0.000000000000000, 8.67361737988404E-017 ) );
#249 = DIRECTION( '', ( 8.67361737988404E-017, 0.000000000000000, -1.00000000000000 ) );
#250 = SURFACE_STYLE_FILL_AREA( #320 );
#251 = ORIENTED_EDGE( '', *, *, #300, .T. );
#252 = ORIENTED_EDGE( '', *, *, #303, .T. );
#253 = CARTESIAN_POINT( '', ( 5.25000000000000, 0.000000000000000, 6.00000000000000 ) );
#254 = DIRECTION( '', ( -6.42154712297608E-019, 0.000000000000000, 1.00000000000000 ) );
#255 = DIRECTION( '', ( 1.00000000000000, 0.000000000000000, 6.42154712297608E-019 ) );
#256 = SURFACE_STYLE_FILL_AREA( #321 );
#257 = ORIENTED_EDGE( '', *, *, #293, .F. );
#258 = ORIENTED_EDGE( '', *, *, #322, .T. );
#259 = CARTESIAN_POINT( '', ( 8.00000000000000, 0.000000000000000, 28.5000000000000 ) );
#260 = DIRECTION( '', ( 6.42154712297608E-019, 0.000000000000000, -1.00000000000000 ) );
#261 = DIRECTION( '', ( -1.00000000000000, 0.000000000000000, -6.42154712297608E-019 ) );
#262 = SURFACE_STYLE_FILL_AREA( #323 );
#263 = ORIENTED_EDGE( '', *, *, #298, .F. );
#264 = ORIENTED_EDGE( '', *, *, #309, .F. );
#265 = ORIENTED_EDGE( '', *, *, #294, .F. );
#266 = ORIENTED_EDGE( '', *, *, #322, .F. );
#267 = CARTESIAN_POINT( '', ( -1.01139367186873E-017, 0.000000000000000, 28.5000000000000 ) );
#268 = DIRECTION( '', ( 6.42154712297608E-019, -0.000000000000000, -1.00000000000000 ) );
#269 = DIRECTION( '', ( -1.00000000000000, 0.000000000000000, -6.42154712297608E-019 ) );
#270 = SURFACE_STYLE_FILL_AREA( #324 );
#271 = ORIENTED_EDGE( '', *, *, #325, .F. );
#272 = ORIENTED_EDGE( '', *, *, #291, .T. );
#273 = CARTESIAN_POINT( '', ( -8.18747258179450E-018, 0.000000000000000, 25.5000000000000 ) );
#274 = DIRECTION( '', ( 6.42154712297608E-019, -0.000000000000000, -1.00000000000000 ) );
#275 = DIRECTION( '', ( 1.00000000000000, 0.000000000000000, 6.42154712297608E-019 ) );
#276 = SURFACE_STYLE_FILL_AREA( #326 );
#277 = ORIENTED_EDGE( '', *, *, #314, .T. );
#278 = ORIENTED_EDGE( '', *, *, #319, .F. );
#279 = ORIENTED_EDGE( '', *, *, #310, .T. );
#280 = ORIENTED_EDGE( '', *, *, #296, .T. );
#281 = CARTESIAN_POINT( '', ( -1.00000000000000, -12.5000000000000, 26.0000000000000 ) );
#282 = DIRECTION( '', ( 0.000000000000000, 0.000000000000000, 1.00000000000000 ) );
#283 = DIRECTION( '', ( 1.00000000000000, 0.000000000000000, 0.000000000000000 ) );
#284 = SURFACE_STYLE_FILL_AREA( #327 );
#285 = ORIENTED_EDGE( '', *, *, #304, .F. );
#286 = ORIENTED_EDGE( '', *, *, #325, .T. );
#287 = CARTESIAN_POINT( '', ( 4.25000000000000, 0.000000000000000, 4.50000000000000 ) );
#288 = DIRECTION( '', ( -6.42154712297608E-019, 0.000000000000000, 1.00000000000000 ) );
#289 = DIRECTION( '', ( 1.00000000000000, 0.000000000000000, 6.42154712297608E-019 ) );
#290 = FILL_AREA_STYLE( '', ( #328 ) );
#291 = EDGE_CURVE( '', #329, #329, #330, .T. );
#292 = FILL_AREA_STYLE( '', ( #331 ) );
#293 = EDGE_CURVE( '', #332, #333, #334, .T. );
#294 = EDGE_CURVE( '', #333, #335, #336, .T. );
#295 = EDGE_CURVE( '', #335, #337, #338, .F. );
#296 = EDGE_CURVE( '', #339, #337, #340, .T. );
#297 = EDGE_CURVE( '', #339, #341, #342, .T. );
#298 = EDGE_CURVE( '', #341, #332, #343, .T. );
#299 = FILL_AREA_STYLE( '', ( #344 ) );
#300 = EDGE_CURVE( '', #345, #345, #346, .F. );
#301 = EDGE_CURVE( '', #347, #347, #348, .T. );
#302 = FILL_AREA_STYLE( '', ( #349 ) );
#303 = EDGE_CURVE( '', #350, #350, #351, .T. );
#304 = EDGE_CURVE( '', #352, #352, #353, .T. );
#305 = FILL_AREA_STYLE( '', ( #354 ) );
#306 = EDGE_CURVE( '', #355, #356, #357, .T. );
#307 = EDGE_CURVE( '', #356, #355, #358, .F. );
#308 = FILL_AREA_STYLE( '', ( #359 ) );
#309 = EDGE_CURVE( '', #335, #341, #360, .T. );
#310 = EDGE_CURVE( '', #361, #339, #362, .T. );
#311 = EDGE_CURVE( '', #363, #361, #364, .F. );
#312 = EDGE_CURVE( '', #363, #365, #366, .T. );
#313 = EDGE_CURVE( '', #367, #365, #368, .T. );
#314 = EDGE_CURVE( '', #337, #367, #369, .T. );
#315 = FILL_AREA_STYLE( '', ( #370 ) );
#316 = EDGE_CURVE( '', #365, #356, #371, .T. );
#317 = EDGE_CURVE( '', #355, #363, #372, .T. );
#318 = FILL_AREA_STYLE( '', ( #373 ) );
#319 = EDGE_CURVE( '', #361, #367, #374, .T. );
#320 = FILL_AREA_STYLE( '', ( #375 ) );
#321 = FILL_AREA_STYLE( '', ( #376 ) );
#322 = EDGE_CURVE( '', #332, #333, #377, .F. );
#323 = FILL_AREA_STYLE( '', ( #378 ) );
#324 = FILL_AREA_STYLE( '', ( #379 ) );
#325 = EDGE_CURVE( '', #380, #380, #381, .T. );
#326 = FILL_AREA_STYLE( '', ( #382 ) );
#327 = FILL_AREA_STYLE( '', ( #383 ) );
#328 = FILL_AREA_STYLE_COLOUR( '', #384 );
#329 = VERTEX_POINT( '', #385 );
#330 = CIRCLE( '', #386, 4.25000000000000 );
#331 = FILL_AREA_STYLE_COLOUR( '', #387 );
#332 = VERTEX_POINT( '', #388 );
#333 = VERTEX_POINT( '', #389 );
#334 = LINE( '', #390, #391 );
#335 = VERTEX_POINT( '', #392 );
#336 = B_SPLINE_CURVE_WITH_KNOTS( '', 3, ( #393, #394, #395, #396 ), .UNSPECIFIED., .F., .F., ( 4, 4 ), ( 0.000000000000000, 0.00213169584889623 ), .UNSPECIFIED. );
#337 = VERTEX_POINT( '', #397 );
#338 = LINE( '', #398, #399 );
#339 = VERTEX_POINT( '', #400 );
#340 = LINE( '', #401, #402 );
#341 = VERTEX_POINT( '', #403 );
#342 = LINE( '', #404, #405 );
#343 = B_SPLINE_CURVE_WITH_KNOTS( '', 3, ( #406, #407, #408, #409 ), .UNSPECIFIED., .F., .F., ( 4, 4 ), ( 0.000000000000000, 0.00213169584889623 ), .UNSPECIFIED. );
#344 = FILL_AREA_STYLE_COLOUR( '', #410 );
#345 = VERTEX_POINT( '', #411 );
#346 = CIRCLE( '', #412, 6.00000000000000 );
#347 = VERTEX_POINT( '', #413 );
#348 = CIRCLE( '', #414, 8.00000000000000 );
#349 = FILL_AREA_STYLE_COLOUR( '', #415 );
#350 = VERTEX_POINT( '', #416 );
#351 = CIRCLE( '', #417, 5.25000000000000 );
#352 = VERTEX_POINT( '', #418 );
#353 = CIRCLE( '', #419, 5.25000000000000 );
#354 = FILL_AREA_STYLE_COLOUR( '', #420 );
#355 = VERTEX_POINT( '', #421 );
#356 = VERTEX_POINT( '', #422 );
#357 = LINE( '', #423, #424 );
#358 = CIRCLE( '', #425, 6.50000000000000 );
#359 = FILL_AREA_STYLE_COLOUR( '', #426 );
#360 = CIRCLE( '', #427, 8.00000000000000 );
#361 = VERTEX_POINT( '', #428 );
#362 = CIRCLE( '', #429, 8.00000000000000 );
#363 = VERTEX_POINT( '', #430 );
#364 = LINE( '', #431, #432 );
#365 = VERTEX_POINT( '', #433 );
#366 = CIRCLE( '', #434, 8.00000000000000 );
#367 = VERTEX_POINT( '', #435 );
#368 = LINE( '', #436, #437 );
#369 = CIRCLE( '', #438, 8.00000000000000 );
#370 = FILL_AREA_STYLE_COLOUR( '', #439 );
#371 = B_SPLINE_CURVE_WITH_KNOTS( '', 3, ( #440, #441, #442, #443 ), .UNSPECIFIED., .F., .F., ( 4, 4 ), ( 0.000000000000000, 0.00213169584889623 ), .UNSPECIFIED. );
#372 = B_SPLINE_CURVE_WITH_KNOTS( '', 3, ( #444, #445, #446, #447 ), .UNSPECIFIED., .F., .F., ( 4, 4 ), ( 0.000000000000000, 0.00213169584889623 ), .UNSPECIFIED. );
#373 = FILL_AREA_STYLE_COLOUR( '', #448 );
#374 = LINE( '', #449, #450 );
#375 = FILL_AREA_STYLE_COLOUR( '', #451 );
#376 = FILL_AREA_STYLE_COLOUR( '', #452 );
#377 = CIRCLE( '', #453, 6.50000000000000 );
#378 = FILL_AREA_STYLE_COLOUR( '', #454 );
#379 = FILL_AREA_STYLE_COLOUR( '', #455 );
#380 = VERTEX_POINT( '', #456 );
#381 = CIRCLE( '', #457, 4.25000000000000 );
#382 = FILL_AREA_STYLE_COLOUR( '', #458 );
#383 = FILL_AREA_STYLE_COLOUR( '', #459 );
#384 = COLOUR_RGB( '', 0.800000011920929, 0.800000011920929, 0.800000011920929 );
#385 = CARTESIAN_POINT( '', ( 4.25000000000000, 0.000000000000000, 4.25000000000000 ) );
#386 = AXIS2_PLACEMENT_3D( '', #460, #461, #462 );
#387 = COLOUR_RGB( '', 0.800000011920929, 0.800000011920929, 0.800000011920929 );
#388 = CARTESIAN_POINT( '', ( 1.00000000000000, -6.42261628933257, 28.5000000000000 ) );
#389 = CARTESIAN_POINT( '', ( 1.00000000000000, 6.42261628933257, 28.5000000000000 ) );
#390 = CARTESIAN_POINT( '', ( 1.00000000000000, -12.5000000000000, 28.5000000000000 ) );
#391 = VECTOR( '', #463, 1000.00000000000 );
#392 = CARTESIAN_POINT( '', ( 1.00000000000000, 7.93725393319377, 27.0000000000000 ) );
#393 = CARTESIAN_POINT( '', ( 1.00000000000000, 6.42261628933257, 28.5000000000000 ) );
#394 = CARTESIAN_POINT( '', ( 1.00000000000000, 6.92806152084952, 28.0005721881067 ) );
#395 = CARTESIAN_POINT( '', ( 1.00000000000000, 7.43283414983020, 27.5004634886854 ) );
#396 = CARTESIAN_POINT( '', ( 1.00000000000000, 7.93725393319377, 27.0000000000000 ) );
#397 = CARTESIAN_POINT( '', ( 1.00000000000000, 7.93725393319377, 26.0000000000000 ) );
#398 = CARTESIAN_POINT( '', ( 1.00000000000000, 7.93725393319377, 25.5000000000000 ) );
#399 = VECTOR( '', #464, 1000.00000000000 );
#400 = CARTESIAN_POINT( '', ( 1.00000000000000, -7.93725393319377, 26.0000000000000 ) );
#401 = CARTESIAN_POINT( '', ( 1.00000000000000, -12.5000000000000, 26.0000000000000 ) );
#402 = VECTOR( '', #465, 1000.00000000000 );
#403 = CARTESIAN_POINT( '', ( 1.00000000000000, -7.93725393319377, 27.0000000000000 ) );
#404 = CARTESIAN_POINT( '', ( 1.00000000000000, -7.93725393319377, 25.5000000000000 ) );
#405 = VECTOR( '', #466, 1000.00000000000 );
#406 = CARTESIAN_POINT( '', ( 1.00000000000000, -7.93725393319377, 27.0000000000000 ) );
#407 = CARTESIAN_POINT( '', ( 1.00000000000000, -7.43283414983020, 27.5004634886854 ) );
#408 = CARTESIAN_POINT( '', ( 1.00000000000000, -6.92806152084952, 28.0005721881067 ) );
#409 = CARTESIAN_POINT( '', ( 1.00000000000000, -6.42261628933257, 28.5000000000000 ) );
#410 = COLOUR_RGB( '', 0.800000011920929, 0.800000011920929, 0.800000011920929 );
#411 = CARTESIAN_POINT( '', ( 6.00000000000000, 0.000000000000000, 6.00000000000000 ) );
#412 = AXIS2_PLACEMENT_3D( '', #467, #468, #469 );
#413 = CARTESIAN_POINT( '', ( 8.00000000000000, 0.000000000000000, 8.00000000000000 ) );
#414 = AXIS2_PLACEMENT_3D( '', #470, #471, #472 );
#415 = COLOUR_RGB( '', 0.800000011920929, 0.800000011920929, 0.800000011920929 );
#416 = CARTESIAN_POINT( '', ( 5.25000000000000, 0.000000000000000, 6.00000000000000 ) );
#417 = AXIS2_PLACEMENT_3D( '', #473, #474, #475 );
#418 = CARTESIAN_POINT( '', ( 5.25000000000000, 0.000000000000000, 4.50000000000000 ) );
#419 = AXIS2_PLACEMENT_3D( '', #476, #477, #478 );
#420 = COLOUR_RGB( '', 0.800000011920929, 0.800000011920929, 0.800000011920929 );
#421 = CARTESIAN_POINT( '', ( -1.00000000000000, -6.42261628933257, 28.5000000000000 ) );
#422 = CARTESIAN_POINT( '', ( -1.00000000000000, 6.42261628933257, 28.5000000000000 ) );
#423 = CARTESIAN_POINT( '', ( -1.00000000000000, -12.5000000000000, 28.5000000000000 ) );
#424 = VECTOR( '', #479, 1000.00000000000 );
#425 = AXIS2_PLACEMENT_3D( '', #480, #481, #482 );
#426 = COLOUR_RGB( '', 0.752941191196442, 0.752941191196442, 0.752941191196442 );
#427 = AXIS2_PLACEMENT_3D( '', #483, #484, #485 );
#428 = CARTESIAN_POINT( '', ( -1.00000000000000, -7.93725393319377, 26.0000000000000 ) );
#429 = AXIS2_PLACEMENT_3D( '', #486, #487, #488 );
#430 = CARTESIAN_POINT( '', ( -1.00000000000000, -7.93725393319377, 27.0000000000000 ) );
#431 = CARTESIAN_POINT( '', ( -1.00000000000000, -7.93725393319377, 25.5000000000000 ) );
#432 = VECTOR( '', #489, 1000.00000000000 );
#433 = CARTESIAN_POINT( '', ( -1.00000000000000, 7.93725393319377, 27.0000000000000 ) );
#434 = AXIS2_PLACEMENT_3D( '', #490, #491, #492 );
#435 = CARTESIAN_POINT( '', ( -1.00000000000000, 7.93725393319377, 26.0000000000000 ) );
#436 = CARTESIAN_POINT( '', ( -1.00000000000000, 7.93725393319377, 25.5000000000000 ) );
#437 = VECTOR( '', #493, 1000.00000000000 );
#438 = AXIS2_PLACEMENT_3D( '', #494, #495, #496 );
#439 = COLOUR_RGB( '', 0.800000011920929, 0.800000011920929, 0.800000011920929 );
#440 = CARTESIAN_POINT( '', ( -1.00000000000000, 7.93725393319377, 27.0000000000000 ) );
#441 = CARTESIAN_POINT( '', ( -1.00000000000000, 7.43283414983020, 27.5004634886854 ) );
#442 = CARTESIAN_POINT( '', ( -1.00000000000000, 6.92806152084952, 28.0005721881067 ) );
#443 = CARTESIAN_POINT( '', ( -1.00000000000000, 6.42261628933257, 28.5000000000000 ) );
#444 = CARTESIAN_POINT( '', ( -1.00000000000000, -6.42261628933257, 28.5000000000000 ) );
#445 = CARTESIAN_POINT( '', ( -1.00000000000000, -6.92806152084952, 28.0005721881067 ) );
#446 = CARTESIAN_POINT( '', ( -1.00000000000000, -7.43283414983020, 27.5004634886854 ) );
#447 = CARTESIAN_POINT( '', ( -1.00000000000000, -7.93725393319377, 27.0000000000000 ) );
#448 = COLOUR_RGB( '', 0.800000011920929, 0.800000011920929, 0.800000011920929 );
#449 = CARTESIAN_POINT( '', ( -1.00000000000000, -12.5000000000000, 26.0000000000000 ) );
#450 = VECTOR( '', #497, 1000.00000000000 );
#451 = COLOUR_RGB( '', 0.800000011920929, 0.800000011920929, 0.800000011920929 );
#452 = COLOUR_RGB( '', 0.800000011920929, 0.800000011920929, 0.800000011920929 );
#453 = AXIS2_PLACEMENT_3D( '', #498, #499, #500 );
#454 = COLOUR_RGB( '', 0.800000011920929, 0.800000011920929, 0.800000011920929 );
#455 = COLOUR_RGB( '', 0.800000011920929, 0.800000011920929, 0.800000011920929 );
#456 = CARTESIAN_POINT( '', ( 4.25000000000000, 0.000000000000000, 4.50000000000000 ) );
#457 = AXIS2_PLACEMENT_3D( '', #501, #502, #503 );
#458 = COLOUR_RGB( '', 0.800000011920929, 0.800000011920929, 0.800000011920929 );
#459 = COLOUR_RGB( '', 0.800000011920929, 0.800000011920929, 0.800000011920929 );
#460 = CARTESIAN_POINT( '', ( 5.45831505452967E-018, 0.000000000000000, 4.25000000000000 ) );
#461 = DIRECTION( '', ( -6.42154712297608E-019, 0.000000000000000, 1.00000000000000 ) );
#462 = DIRECTION( '', ( 1.00000000000000, 0.000000000000000, 6.42154712297608E-019 ) );
#463 = DIRECTION( '', ( 0.000000000000000, 1.00000000000000, 0.000000000000000 ) );
#464 = DIRECTION( '', ( -6.42154712297608E-019, 0.000000000000000, 1.00000000000000 ) );
#465 = DIRECTION( '', ( 0.000000000000000, 1.00000000000000, 0.000000000000000 ) );
#466 = DIRECTION( '', ( -6.42154712297608E-019, 0.000000000000000, 1.00000000000000 ) );
#467 = CARTESIAN_POINT( '', ( 4.33454430800885E-018, 0.000000000000000, 6.00000000000000 ) );
#468 = DIRECTION( '', ( -6.42154712297608E-019, 0.000000000000000, 1.00000000000000 ) );
#469 = DIRECTION( '', ( 1.00000000000000, 0.000000000000000, 6.42154712297608E-019 ) );
#470 = CARTESIAN_POINT( '', ( 3.05023488341364E-018, 0.000000000000000, 8.00000000000000 ) );
#471 = DIRECTION( '', ( -6.42154712297607E-019, 0.000000000000000, 1.00000000000000 ) );
#472 = DIRECTION( '', ( 1.00000000000000, 0.000000000000000, 6.42154712297607E-019 ) );
#473 = CARTESIAN_POINT( '', ( 4.33454430800886E-018, 0.000000000000000, 6.00000000000000 ) );
#474 = DIRECTION( '', ( -6.42154712297608E-019, 0.000000000000000, 1.00000000000000 ) );
#475 = DIRECTION( '', ( 1.00000000000000, 0.000000000000000, 6.42154712297608E-019 ) );
#476 = CARTESIAN_POINT( '', ( 5.29777637645526E-018, 0.000000000000000, 4.50000000000000 ) );
#477 = DIRECTION( '', ( -6.42154712297608E-019, 0.000000000000000, 1.00000000000000 ) );
#478 = DIRECTION( '', ( 1.00000000000000, 0.000000000000000, 6.42154712297608E-019 ) );
#479 = DIRECTION( '', ( 0.000000000000000, 1.00000000000000, 0.000000000000000 ) );
#480 = CARTESIAN_POINT( '', ( -1.01139367186873E-017, 0.000000000000000, 28.5000000000000 ) );
#481 = DIRECTION( '', ( 6.42154712297608E-019, 0.000000000000000, -1.00000000000000 ) );
#482 = DIRECTION( '', ( -1.00000000000000, 0.000000000000000, -6.42154712297608E-019 ) );
#483 = CARTESIAN_POINT( '', ( -9.15070465024091E-018, 0.000000000000000, 27.0000000000000 ) );
#484 = DIRECTION( '', ( 6.42154712297608E-019, 0.000000000000000, -1.00000000000000 ) );
#485 = DIRECTION( '', ( -1.00000000000000, 0.000000000000000, -6.42154712297608E-019 ) );
#486 = CARTESIAN_POINT( '', ( -8.50854993794330E-018, 0.000000000000000, 26.0000000000000 ) );
#487 = DIRECTION( '', ( 0.000000000000000, 0.000000000000000, 1.00000000000000 ) );
#488 = DIRECTION( '', ( 1.00000000000000, 0.000000000000000, 0.000000000000000 ) );
#489 = DIRECTION( '', ( -6.42154712297608E-019, 0.000000000000000, 1.00000000000000 ) );
#490 = CARTESIAN_POINT( '', ( -9.15070465024091E-018, 0.000000000000000, 27.0000000000000 ) );
#491 = DIRECTION( '', ( 6.42154712297608E-019, 0.000000000000000, -1.00000000000000 ) );
#492 = DIRECTION( '', ( -1.00000000000000, 0.000000000000000, -6.42154712297608E-019 ) );
#493 = DIRECTION( '', ( -6.42154712297608E-019, 0.000000000000000, 1.00000000000000 ) );
#494 = CARTESIAN_POINT( '', ( -8.50854993794330E-018, 0.000000000000000, 26.0000000000000 ) );
#495 = DIRECTION( '', ( 0.000000000000000, 0.000000000000000, 1.00000000000000 ) );
#496 = DIRECTION( '', ( 1.00000000000000, 0.000000000000000, 0.000000000000000 ) );
#497 = DIRECTION( '', ( 0.000000000000000, 1.00000000000000, 0.000000000000000 ) );
#498 = CARTESIAN_POINT( '', ( -1.01139367186873E-017, 0.000000000000000, 28.5000000000000 ) );
#499 = DIRECTION( '', ( 6.42154712297608E-019, 0.000000000000000, -1.00000000000000 ) );
#500 = DIRECTION( '', ( -1.00000000000000, 0.000000000000000, -6.42154712297608E-019 ) );
#501 = CARTESIAN_POINT( '', ( 5.29777637645526E-018, 0.000000000000000, 4.50000000000000 ) );
#502 = DIRECTION( '', ( -6.42154712297608E-019, 0.000000000000000, 1.00000000000000 ) );
#503 = DIRECTION( '', ( 1.00000000000000, 0.000000000000000, 6.42154712297608E-019 ) );
ENDSEC;
END-ISO-10303-21;
