ISO-10303-21;
HEADER;
FILE_DESCRIPTION( ( 'Unknown' ), '1' );
FILE_NAME( '//SBS2003/HD_Usb/Disegni/08_LIB/Users_3D/PROD_GAMM_3D/APP-I/7747245_APP_34_I.stp', 'Unknown', ( 'Unknown' ), ( 'Unknown' ), 'PSStep 14.0', 'Unknown', '  ' );
FILE_SCHEMA( ( 'AUTOMOTIVE_DESIGN { 1 0 10303 214 1 1 1 1 }' ) );
ENDSEC;
DATA;
#1 = MECHANICAL_DESIGN_GEOMETRIC_PRESENTATION_REPRESENTATION( ' ', ( #10, #11, #12, #13, #14, #15, #16, #17, #18, #19, #20, #21, #22, #23 ), #6 );
#2 = PRODUCT_DEFINITION_CONTEXT( '', #24, 'design' );
#3 = APPLICATION_PROTOCOL_DEFINITION( 'international standard', 'automotive_design', 2001, #24 );
#4 = PRODUCT_CATEGORY_RELATIONSHIP( 'NONE', 'NONE', #25, #26 );
#5 = SHAPE_DEFINITION_REPRESENTATION( #27, #28 );
#6 =  ( GEOMETRIC_REPRESENTATION_CONTEXT( 3 )GLOBAL_UNCERTAINTY_ASSIGNED_CONTEXT( ( #31 ) )GLOBAL_UNIT_ASSIGNED_CONTEXT( ( #33, #34, #35 ) )REPRESENTATION_CONTEXT( 'NONE', 'WORKSPACE' ) );
#10 = STYLED_ITEM( '', ( #37 ), #38 );
#11 = STYLED_ITEM( '', ( #39 ), #40 );
#12 = STYLED_ITEM( '', ( #41 ), #42 );
#13 = STYLED_ITEM( '', ( #43 ), #44 );
#14 = STYLED_ITEM( '', ( #45 ), #46 );
#15 = STYLED_ITEM( '', ( #47 ), #48 );
#16 = STYLED_ITEM( '', ( #49 ), #50 );
#17 = STYLED_ITEM( '', ( #51 ), #52 );
#18 = STYLED_ITEM( '', ( #53 ), #54 );
#19 = STYLED_ITEM( '', ( #55 ), #56 );
#20 = STYLED_ITEM( '', ( #57 ), #58 );
#21 = STYLED_ITEM( '', ( #59 ), #60 );
#22 = STYLED_ITEM( '', ( #61 ), #62 );
#23 = STYLED_ITEM( '', ( #63 ), #64 );
#24 = APPLICATION_CONTEXT( 'core data for automotive mechanical design processes' );
#25 = PRODUCT_CATEGORY( 'part', 'NONE' );
#26 = PRODUCT_RELATED_PRODUCT_CATEGORY( 'detail', ' ', ( #65 ) );
#27 = PRODUCT_DEFINITION_SHAPE( 'NONE', 'NONE', #66 );
#28 = ADVANCED_BREP_SHAPE_REPRESENTATION( '1', ( #67, #68 ), #6 );
#31 = UNCERTAINTY_MEASURE_WITH_UNIT( LENGTH_MEASURE( 0.00100000000000000 ), #33, '', '' );
#33 =  ( CONVERSION_BASED_UNIT( 'MILLIMETRE', #71 )LENGTH_UNIT(  )NAMED_UNIT( #74 ) );
#34 =  ( NAMED_UNIT( #76 )PLANE_ANGLE_UNIT(  )SI_UNIT( $, .RADIAN. ) );
#35 =  ( NAMED_UNIT( #76 )SI_UNIT( $, .STERADIAN. )SOLID_ANGLE_UNIT(  ) );
#37 = PRESENTATION_STYLE_ASSIGNMENT( ( #82 ) );
#38 = ADVANCED_FACE( '', ( #83 ), #84, .T. );
#39 = PRESENTATION_STYLE_ASSIGNMENT( ( #85 ) );
#40 = ADVANCED_FACE( '', ( #86, #87 ), #88, .T. );
#41 = PRESENTATION_STYLE_ASSIGNMENT( ( #89 ) );
#42 = ADVANCED_FACE( '', ( #90, #91 ), #92, .F. );
#43 = PRESENTATION_STYLE_ASSIGNMENT( ( #93 ) );
#44 = ADVANCED_FACE( '', ( #94 ), #95, .T. );
#45 = PRESENTATION_STYLE_ASSIGNMENT( ( #96 ) );
#46 = ADVANCED_FACE( '', ( #97, #98 ), #99, .T. );
#47 = PRESENTATION_STYLE_ASSIGNMENT( ( #100 ) );
#48 = ADVANCED_FACE( '', ( #101, #102 ), #103, .F. );
#49 = PRESENTATION_STYLE_ASSIGNMENT( ( #104 ) );
#50 = ADVANCED_FACE( '', ( #105 ), #106, .F. );
#51 = PRESENTATION_STYLE_ASSIGNMENT( ( #107 ) );
#52 = ADVANCED_FACE( '', ( #108, #109 ), #110, .T. );
#53 = PRESENTATION_STYLE_ASSIGNMENT( ( #111 ) );
#54 = ADVANCED_FACE( '', ( #112 ), #113, .F. );
#55 = PRESENTATION_STYLE_ASSIGNMENT( ( #114 ) );
#56 = ADVANCED_FACE( '', ( #115, #116 ), #117, .T. );
#57 = PRESENTATION_STYLE_ASSIGNMENT( ( #118 ) );
#58 = ADVANCED_FACE( '', ( #119 ), #120, .T. );
#59 = PRESENTATION_STYLE_ASSIGNMENT( ( #121 ) );
#60 = ADVANCED_FACE( '', ( #122 ), #123, .T. );
#61 = PRESENTATION_STYLE_ASSIGNMENT( ( #124 ) );
#62 = ADVANCED_FACE( '', ( #125 ), #126, .T. );
#63 = PRESENTATION_STYLE_ASSIGNMENT( ( #127 ) );
#64 = ADVANCED_FACE( '', ( #128 ), #129, .T. );
#65 = PRODUCT( '1', '1', 'PART-1-DESC', ( #130 ) );
#66 = PRODUCT_DEFINITION( 'NONE', 'NONE', #131, #2 );
#67 = MANIFOLD_SOLID_BREP( '1', #132 );
#68 = AXIS2_PLACEMENT_3D( '', #133, #134, #135 );
#71 = LENGTH_MEASURE_WITH_UNIT( LENGTH_MEASURE( 1.00000000000000 ), #136 );
#74 = DIMENSIONAL_EXPONENTS( 1.00000000000000, 0.000000000000000, 0.000000000000000, 0.000000000000000, 0.000000000000000, 0.000000000000000, 0.000000000000000 );
#76 = DIMENSIONAL_EXPONENTS( 0.000000000000000, 0.000000000000000, 0.000000000000000, 0.000000000000000, 0.000000000000000, 0.000000000000000, 0.000000000000000 );
#82 = SURFACE_STYLE_USAGE( .BOTH., #137 );
#83 = FACE_OUTER_BOUND( '', #138, .T. );
#84 = CONICAL_SURFACE( '', #139, 10.5000000000000, 0.785398163397448 );
#85 = SURFACE_STYLE_USAGE( .BOTH., #140 );
#86 = FACE_OUTER_BOUND( '', #141, .T. );
#87 = FACE_OUTER_BOUND( '', #142, .T. );
#88 = CYLINDRICAL_SURFACE( '', #143, 6.00000000000000 );
#89 = SURFACE_STYLE_USAGE( .BOTH., #144 );
#90 = FACE_OUTER_BOUND( '', #145, .T. );
#91 = FACE_BOUND( '', #146, .T. );
#92 = PLANE( '', #147 );
#93 = SURFACE_STYLE_USAGE( .BOTH., #148 );
#94 = FACE_OUTER_BOUND( '', #149, .T. );
#95 = CONICAL_SURFACE( '', #150, 10.5000000000000, 0.785398163397448 );
#96 = SURFACE_STYLE_USAGE( .BOTH., #151 );
#97 = FACE_BOUND( '', #152, .T. );
#98 = FACE_OUTER_BOUND( '', #153, .T. );
#99 = CONICAL_SURFACE( '', #154, 12.0000000000000, 0.785398163397448 );
#100 = SURFACE_STYLE_USAGE( .BOTH., #155 );
#101 = FACE_OUTER_BOUND( '', #156, .T. );
#102 = FACE_BOUND( '', #157, .T. );
#103 = PLANE( '', #158 );
#104 = SURFACE_STYLE_USAGE( .BOTH., #159 );
#105 = FACE_OUTER_BOUND( '', #160, .T. );
#106 = PLANE( '', #161 );
#107 = SURFACE_STYLE_USAGE( .BOTH., #162 );
#108 = FACE_OUTER_BOUND( '', #163, .T. );
#109 = FACE_OUTER_BOUND( '', #164, .T. );
#110 = CYLINDRICAL_SURFACE( '', #165, 12.0000000000000 );
#111 = SURFACE_STYLE_USAGE( .BOTH., #166 );
#112 = FACE_OUTER_BOUND( '', #167, .T. );
#113 = PLANE( '', #168 );
#114 = SURFACE_STYLE_USAGE( .BOTH., #169 );
#115 = FACE_OUTER_BOUND( '', #170, .T. );
#116 = FACE_OUTER_BOUND( '', #171, .T. );
#117 = CYLINDRICAL_SURFACE( '', #172, 7.00000000000000 );
#118 = SURFACE_STYLE_USAGE( .BOTH., #173 );
#119 = FACE_OUTER_BOUND( '', #174, .T. );
#120 = PLANE( '', #175 );
#121 = SURFACE_STYLE_USAGE( .BOTH., #176 );
#122 = FACE_OUTER_BOUND( '', #177, .T. );
#123 = PLANE( '', #178 );
#124 = SURFACE_STYLE_USAGE( .BOTH., #179 );
#125 = FACE_OUTER_BOUND( '', #180, .T. );
#126 = PLANE( '', #181 );
#127 = SURFACE_STYLE_USAGE( .BOTH., #182 );
#128 = FACE_OUTER_BOUND( '', #183, .T. );
#129 = SPHERICAL_SURFACE( '', #184, 6.00000000000000 );
#130 = PRODUCT_CONTEXT( '', #24, 'mechanical' );
#131 = PRODUCT_DEFINITION_FORMATION_WITH_SPECIFIED_SOURCE( ' ', 'NONE', #65, .NOT_KNOWN. );
#132 = CLOSED_SHELL( '', ( #52, #38, #58, #60, #44, #46, #40, #48, #50, #56, #42, #64, #54, #62 ) );
#133 = CARTESIAN_POINT( '', ( 0.000000000000000, 0.000000000000000, 0.000000000000000 ) );
#134 = DIRECTION( '', ( 0.000000000000000, 0.000000000000000, 1.00000000000000 ) );
#135 = DIRECTION( '', ( 1.00000000000000, 0.000000000000000, 0.000000000000000 ) );
#136 =  ( LENGTH_UNIT(  )NAMED_UNIT( #74 )SI_UNIT( .MILLI., .METRE. ) );
#137 = SURFACE_SIDE_STYLE( '', ( #186 ) );
#138 = EDGE_LOOP( '', ( #187, #188, #189, #190 ) );
#139 = AXIS2_PLACEMENT_3D( '', #191, #192, #193 );
#140 = SURFACE_SIDE_STYLE( '', ( #194 ) );
#141 = EDGE_LOOP( '', ( #195 ) );
#142 = EDGE_LOOP( '', ( #196 ) );
#143 = AXIS2_PLACEMENT_3D( '', #197, #198, #199 );
#144 = SURFACE_SIDE_STYLE( '', ( #200 ) );
#145 = EDGE_LOOP( '', ( #201 ) );
#146 = EDGE_LOOP( '', ( #202 ) );
#147 = AXIS2_PLACEMENT_3D( '', #203, #204, #205 );
#148 = SURFACE_SIDE_STYLE( '', ( #206 ) );
#149 = EDGE_LOOP( '', ( #207, #208, #209, #210 ) );
#150 = AXIS2_PLACEMENT_3D( '', #211, #212, #213 );
#151 = SURFACE_SIDE_STYLE( '', ( #214 ) );
#152 = EDGE_LOOP( '', ( #215 ) );
#153 = EDGE_LOOP( '', ( #216 ) );
#154 = AXIS2_PLACEMENT_3D( '', #217, #218, #219 );
#155 = SURFACE_SIDE_STYLE( '', ( #220 ) );
#156 = EDGE_LOOP( '', ( #221 ) );
#157 = EDGE_LOOP( '', ( #222 ) );
#158 = AXIS2_PLACEMENT_3D( '', #223, #224, #225 );
#159 = SURFACE_SIDE_STYLE( '', ( #226 ) );
#160 = EDGE_LOOP( '', ( #227, #228 ) );
#161 = AXIS2_PLACEMENT_3D( '', #229, #230, #231 );
#162 = SURFACE_SIDE_STYLE( '', ( #232 ) );
#163 = EDGE_LOOP( '', ( #233 ) );
#164 = EDGE_LOOP( '', ( #234, #235, #236, #237, #238, #239, #240, #241 ) );
#165 = AXIS2_PLACEMENT_3D( '', #242, #243, #244 );
#166 = SURFACE_SIDE_STYLE( '', ( #245 ) );
#167 = EDGE_LOOP( '', ( #246, #247 ) );
#168 = AXIS2_PLACEMENT_3D( '', #248, #249, #250 );
#169 = SURFACE_SIDE_STYLE( '', ( #251 ) );
#170 = EDGE_LOOP( '', ( #252 ) );
#171 = EDGE_LOOP( '', ( #253 ) );
#172 = AXIS2_PLACEMENT_3D( '', #254, #255, #256 );
#173 = SURFACE_SIDE_STYLE( '', ( #257 ) );
#174 = EDGE_LOOP( '', ( #258, #259, #260, #261 ) );
#175 = AXIS2_PLACEMENT_3D( '', #262, #263, #264 );
#176 = SURFACE_SIDE_STYLE( '', ( #265 ) );
#177 = EDGE_LOOP( '', ( #266, #267, #268, #269, #270, #271 ) );
#178 = AXIS2_PLACEMENT_3D( '', #272, #273, #274 );
#179 = SURFACE_SIDE_STYLE( '', ( #275 ) );
#180 = EDGE_LOOP( '', ( #276, #277, #278, #279, #280, #281 ) );
#181 = AXIS2_PLACEMENT_3D( '', #282, #283, #284 );
#182 = SURFACE_SIDE_STYLE( '', ( #285 ) );
#183 = EDGE_LOOP( '', ( #286 ) );
#184 = AXIS2_PLACEMENT_3D( '', #287, #288, #289 );
#186 = SURFACE_STYLE_FILL_AREA( #290 );
#187 = ORIENTED_EDGE( '', *, *, #291, .F. );
#188 = ORIENTED_EDGE( '', *, *, #292, .F. );
#189 = ORIENTED_EDGE( '', *, *, #293, .F. );
#190 = ORIENTED_EDGE( '', *, *, #294, .F. );
#191 = CARTESIAN_POINT( '', ( -1.87830253347051E-017, 0.000000000000000, 42.0000000000000 ) );
#192 = DIRECTION( '', ( 6.42154712297608E-019, -0.000000000000000, -1.00000000000000 ) );
#193 = DIRECTION( '', ( -1.00000000000000, 0.000000000000000, -6.42154712297608E-019 ) );
#194 = SURFACE_STYLE_FILL_AREA( #295 );
#195 = ORIENTED_EDGE( '', *, *, #296, .F. );
#196 = ORIENTED_EDGE( '', *, *, #297, .T. );
#197 = CARTESIAN_POINT( '', ( -8.18747258179450E-018, 0.000000000000000, 25.5000000000000 ) );
#198 = DIRECTION( '', ( 6.42154712297608E-019, -0.000000000000000, -1.00000000000000 ) );
#199 = DIRECTION( '', ( 1.00000000000000, 0.000000000000000, 6.42154712297608E-019 ) );
#200 = SURFACE_STYLE_FILL_AREA( #298 );
#201 = ORIENTED_EDGE( '', *, *, #299, .T. );
#202 = ORIENTED_EDGE( '', *, *, #300, .T. );
#203 = CARTESIAN_POINT( '', ( 7.00000000000000, 0.000000000000000, 10.0000000000000 ) );
#204 = DIRECTION( '', ( -6.42154712297608E-019, 0.000000000000000, 1.00000000000000 ) );
#205 = DIRECTION( '', ( 1.00000000000000, 0.000000000000000, 6.42154712297608E-019 ) );
#206 = SURFACE_STYLE_FILL_AREA( #301 );
#207 = ORIENTED_EDGE( '', *, *, #302, .F. );
#208 = ORIENTED_EDGE( '', *, *, #303, .F. );
#209 = ORIENTED_EDGE( '', *, *, #304, .F. );
#210 = ORIENTED_EDGE( '', *, *, #305, .F. );
#211 = CARTESIAN_POINT( '', ( -1.87830253347051E-017, 0.000000000000000, 42.0000000000000 ) );
#212 = DIRECTION( '', ( 6.42154712297608E-019, -0.000000000000000, -1.00000000000000 ) );
#213 = DIRECTION( '', ( -1.00000000000000, 0.000000000000000, -6.42154712297608E-019 ) );
#214 = SURFACE_STYLE_FILL_AREA( #306 );
#215 = ORIENTED_EDGE( '', *, *, #299, .F. );
#216 = ORIENTED_EDGE( '', *, *, #307, .F. );
#217 = CARTESIAN_POINT( '', ( -1.60538678074403E-019, 0.000000000000000, 13.0000000000000 ) );
#218 = DIRECTION( '', ( -6.42154712297608E-019, 0.000000000000000, 1.00000000000000 ) );
#219 = DIRECTION( '', ( 1.00000000000000, 0.000000000000000, 6.42154712297608E-019 ) );
#220 = SURFACE_STYLE_FILL_AREA( #308 );
#221 = ORIENTED_EDGE( '', *, *, #309, .F. );
#222 = ORIENTED_EDGE( '', *, *, #296, .T. );
#223 = CARTESIAN_POINT( '', ( 6.00000000000000, 0.000000000000000, 8.00000000000000 ) );
#224 = DIRECTION( '', ( -6.42154712297608E-019, 0.000000000000000, 1.00000000000000 ) );
#225 = DIRECTION( '', ( 1.00000000000000, 0.000000000000000, 6.42154712297608E-019 ) );
#226 = SURFACE_STYLE_FILL_AREA( #310 );
#227 = ORIENTED_EDGE( '', *, *, #311, .F. );
#228 = ORIENTED_EDGE( '', *, *, #305, .T. );
#229 = CARTESIAN_POINT( '', ( 12.0000000000000, 0.000000000000000, 42.0000000000000 ) );
#230 = DIRECTION( '', ( 6.42154712297608E-019, 0.000000000000000, -1.00000000000000 ) );
#231 = DIRECTION( '', ( -1.00000000000000, 0.000000000000000, -6.42154712297608E-019 ) );
#232 = SURFACE_STYLE_FILL_AREA( #312 );
#233 = ORIENTED_EDGE( '', *, *, #307, .T. );
#234 = ORIENTED_EDGE( '', *, *, #313, .F. );
#235 = ORIENTED_EDGE( '', *, *, #303, .T. );
#236 = ORIENTED_EDGE( '', *, *, #314, .F. );
#237 = ORIENTED_EDGE( '', *, *, #315, .F. );
#238 = ORIENTED_EDGE( '', *, *, #316, .F. );
#239 = ORIENTED_EDGE( '', *, *, #292, .T. );
#240 = ORIENTED_EDGE( '', *, *, #317, .F. );
#241 = ORIENTED_EDGE( '', *, *, #318, .F. );
#242 = CARTESIAN_POINT( '', ( -8.18747258179450E-018, 0.000000000000000, 25.5000000000000 ) );
#243 = DIRECTION( '', ( 6.42154712297608E-019, -0.000000000000000, -1.00000000000000 ) );
#244 = DIRECTION( '', ( 1.00000000000000, 0.000000000000000, 6.42154712297608E-019 ) );
#245 = SURFACE_STYLE_FILL_AREA( #319 );
#246 = ORIENTED_EDGE( '', *, *, #320, .T. );
#247 = ORIENTED_EDGE( '', *, *, #294, .T. );
#248 = CARTESIAN_POINT( '', ( 12.0000000000000, 0.000000000000000, 42.0000000000000 ) );
#249 = DIRECTION( '', ( 6.42154712297608E-019, 0.000000000000000, -1.00000000000000 ) );
#250 = DIRECTION( '', ( -1.00000000000000, 0.000000000000000, -6.42154712297608E-019 ) );
#251 = SURFACE_STYLE_FILL_AREA( #321 );
#252 = ORIENTED_EDGE( '', *, *, #300, .F. );
#253 = ORIENTED_EDGE( '', *, *, #309, .T. );
#254 = CARTESIAN_POINT( '', ( -8.18747258179450E-018, 0.000000000000000, 25.5000000000000 ) );
#255 = DIRECTION( '', ( 6.42154712297608E-019, -0.000000000000000, -1.00000000000000 ) );
#256 = DIRECTION( '', ( 1.00000000000000, 0.000000000000000, 6.42154712297608E-019 ) );
#257 = SURFACE_STYLE_FILL_AREA( #322 );
#258 = ORIENTED_EDGE( '', *, *, #318, .T. );
#259 = ORIENTED_EDGE( '', *, *, #323, .F. );
#260 = ORIENTED_EDGE( '', *, *, #315, .T. );
#261 = ORIENTED_EDGE( '', *, *, #324, .T. );
#262 = CARTESIAN_POINT( '', ( -1.25000000000000, -12.5000000000000, 39.0000000000000 ) );
#263 = DIRECTION( '', ( 0.000000000000000, 0.000000000000000, 1.00000000000000 ) );
#264 = DIRECTION( '', ( 1.00000000000000, 0.000000000000000, 0.000000000000000 ) );
#265 = SURFACE_STYLE_FILL_AREA( #325 );
#266 = ORIENTED_EDGE( '', *, *, #311, .T. );
#267 = ORIENTED_EDGE( '', *, *, #304, .T. );
#268 = ORIENTED_EDGE( '', *, *, #313, .T. );
#269 = ORIENTED_EDGE( '', *, *, #324, .F. );
#270 = ORIENTED_EDGE( '', *, *, #314, .T. );
#271 = ORIENTED_EDGE( '', *, *, #302, .T. );
#272 = CARTESIAN_POINT( '', ( 1.25000000000000, -12.5000000000000, 39.0000000000000 ) );
#273 = DIRECTION( '', ( -1.00000000000000, 0.000000000000000, 1.44560289664734E-016 ) );
#274 = DIRECTION( '', ( 1.44560289664734E-016, 0.000000000000000, 1.00000000000000 ) );
#275 = SURFACE_STYLE_FILL_AREA( #326 );
#276 = ORIENTED_EDGE( '', *, *, #320, .F. );
#277 = ORIENTED_EDGE( '', *, *, #293, .T. );
#278 = ORIENTED_EDGE( '', *, *, #316, .T. );
#279 = ORIENTED_EDGE( '', *, *, #323, .T. );
#280 = ORIENTED_EDGE( '', *, *, #317, .T. );
#281 = ORIENTED_EDGE( '', *, *, #291, .T. );
#282 = CARTESIAN_POINT( '', ( -1.25000000000000, -12.5000000000000, 42.0000000000000 ) );
#283 = DIRECTION( '', ( 1.00000000000000, 0.000000000000000, 1.44560289664734E-016 ) );
#284 = DIRECTION( '', ( 1.44560289664734E-016, 0.000000000000000, -1.00000000000000 ) );
#285 = SURFACE_STYLE_FILL_AREA( #327 );
#286 = ORIENTED_EDGE( '', *, *, #297, .F. );
#287 = CARTESIAN_POINT( '', ( 4.40872847693047E-015, 0.000000000000000, 6.00000000000000 ) );
#288 = DIRECTION( '', ( -6.42154712297608E-019, 0.000000000000000, 1.00000000000000 ) );
#289 = DIRECTION( '', ( -1.00000000000000, 0.000000000000000, -6.42154712297608E-019 ) );
#290 = FILL_AREA_STYLE( '', ( #328 ) );
#291 = EDGE_CURVE( '', #329, #330, #331, .T. );
#292 = EDGE_CURVE( '', #332, #329, #333, .T. );
#293 = EDGE_CURVE( '', #334, #332, #335, .T. );
#294 = EDGE_CURVE( '', #330, #334, #336, .F. );
#295 = FILL_AREA_STYLE( '', ( #337 ) );
#296 = EDGE_CURVE( '', #338, #338, #339, .T. );
#297 = EDGE_CURVE( '', #340, #340, #341, .T. );
#298 = FILL_AREA_STYLE( '', ( #342 ) );
#299 = EDGE_CURVE( '', #343, #343, #344, .F. );
#300 = EDGE_CURVE( '', #345, #345, #346, .T. );
#301 = FILL_AREA_STYLE( '', ( #347 ) );
#302 = EDGE_CURVE( '', #348, #349, #350, .T. );
#303 = EDGE_CURVE( '', #351, #348, #352, .T. );
#304 = EDGE_CURVE( '', #353, #351, #354, .T. );
#305 = EDGE_CURVE( '', #349, #353, #355, .F. );
#306 = FILL_AREA_STYLE( '', ( #356 ) );
#307 = EDGE_CURVE( '', #357, #357, #358, .T. );
#308 = FILL_AREA_STYLE( '', ( #359 ) );
#309 = EDGE_CURVE( '', #360, #360, #361, .T. );
#310 = FILL_AREA_STYLE( '', ( #362 ) );
#311 = EDGE_CURVE( '', #349, #353, #363, .T. );
#312 = FILL_AREA_STYLE( '', ( #364 ) );
#313 = EDGE_CURVE( '', #351, #365, #366, .F. );
#314 = EDGE_CURVE( '', #367, #348, #368, .T. );
#315 = EDGE_CURVE( '', #369, #367, #370, .T. );
#316 = EDGE_CURVE( '', #332, #369, #371, .F. );
#317 = EDGE_CURVE( '', #372, #329, #373, .T. );
#318 = EDGE_CURVE( '', #365, #372, #374, .T. );
#319 = FILL_AREA_STYLE( '', ( #375 ) );
#320 = EDGE_CURVE( '', #334, #330, #376, .T. );
#321 = FILL_AREA_STYLE( '', ( #377 ) );
#322 = FILL_AREA_STYLE( '', ( #378 ) );
#323 = EDGE_CURVE( '', #369, #372, #379, .T. );
#324 = EDGE_CURVE( '', #367, #365, #380, .T. );
#325 = FILL_AREA_STYLE( '', ( #381 ) );
#326 = FILL_AREA_STYLE( '', ( #382 ) );
#327 = FILL_AREA_STYLE( '', ( #383 ) );
#328 = FILL_AREA_STYLE_COLOUR( '', #384 );
#329 = VERTEX_POINT( '', #385 );
#330 = VERTEX_POINT( '', #386 );
#331 = B_SPLINE_CURVE_WITH_KNOTS( '', 3, ( #387, #388, #389, #390 ), .UNSPECIFIED., .F., .F., ( 4, 4 ), ( 0.000000000000000, 0.00212796939319392 ), .UNSPECIFIED. );
#332 = VERTEX_POINT( '', #391 );
#333 = CIRCLE( '', #392, 12.0000000000000 );
#334 = VERTEX_POINT( '', #393 );
#335 = B_SPLINE_CURVE_WITH_KNOTS( '', 3, ( #394, #395, #396, #397 ), .UNSPECIFIED., .F., .F., ( 4, 4 ), ( 0.000000000000000, 0.00212796939319392 ), .UNSPECIFIED. );
#336 = CIRCLE( '', #398, 10.5000000000000 );
#337 = FILL_AREA_STYLE_COLOUR( '', #399 );
#338 = VERTEX_POINT( '', #400 );
#339 = CIRCLE( '', #401, 6.00000000000000 );
#340 = VERTEX_POINT( '', #402 );
#341 = CIRCLE( '', #403, 6.00000000000000 );
#342 = FILL_AREA_STYLE_COLOUR( '', #404 );
#343 = VERTEX_POINT( '', #405 );
#344 = CIRCLE( '', #406, 9.00000000000000 );
#345 = VERTEX_POINT( '', #407 );
#346 = CIRCLE( '', #408, 7.00000000000000 );
#347 = FILL_AREA_STYLE_COLOUR( '', #409 );
#348 = VERTEX_POINT( '', #410 );
#349 = VERTEX_POINT( '', #411 );
#350 = B_SPLINE_CURVE_WITH_KNOTS( '', 3, ( #412, #413, #414, #415 ), .UNSPECIFIED., .F., .F., ( 4, 4 ), ( 0.000000000000000, 0.00212796939319392 ), .UNSPECIFIED. );
#351 = VERTEX_POINT( '', #416 );
#352 = CIRCLE( '', #417, 12.0000000000000 );
#353 = VERTEX_POINT( '', #418 );
#354 = B_SPLINE_CURVE_WITH_KNOTS( '', 3, ( #419, #420, #421, #422 ), .UNSPECIFIED., .F., .F., ( 4, 4 ), ( 0.000000000000000, 0.00212796939319392 ), .UNSPECIFIED. );
#355 = CIRCLE( '', #423, 10.5000000000000 );
#356 = FILL_AREA_STYLE_COLOUR( '', #424 );
#357 = VERTEX_POINT( '', #425 );
#358 = CIRCLE( '', #426, 12.0000000000000 );
#359 = FILL_AREA_STYLE_COLOUR( '', #427 );
#360 = VERTEX_POINT( '', #428 );
#361 = CIRCLE( '', #429, 7.00000000000000 );
#362 = FILL_AREA_STYLE_COLOUR( '', #430 );
#363 = LINE( '', #431, #432 );
#364 = FILL_AREA_STYLE_COLOUR( '', #433 );
#365 = VERTEX_POINT( '', #434 );
#366 = LINE( '', #435, #436 );
#367 = VERTEX_POINT( '', #437 );
#368 = LINE( '', #438, #439 );
#369 = VERTEX_POINT( '', #440 );
#370 = CIRCLE( '', #441, 12.0000000000000 );
#371 = LINE( '', #442, #443 );
#372 = VERTEX_POINT( '', #444 );
#373 = LINE( '', #445, #446 );
#374 = CIRCLE( '', #447, 12.0000000000000 );
#375 = FILL_AREA_STYLE_COLOUR( '', #448 );
#376 = LINE( '', #449, #450 );
#377 = FILL_AREA_STYLE_COLOUR( '', #451 );
#378 = FILL_AREA_STYLE_COLOUR( '', #452 );
#379 = LINE( '', #453, #454 );
#380 = LINE( '', #455, #456 );
#381 = FILL_AREA_STYLE_COLOUR( '', #457 );
#382 = FILL_AREA_STYLE_COLOUR( '', #458 );
#383 = FILL_AREA_STYLE_COLOUR( '', #459 );
#384 = COLOUR_RGB( '', 0.800000011920929, 0.800000011920929, 0.800000011920929 );
#385 = CARTESIAN_POINT( '', ( -1.25000000000000, 11.9347182622800, 40.5000000000000 ) );
#386 = CARTESIAN_POINT( '', ( -1.25000000000000, 10.4253297309965, 42.0000000000000 ) );
#387 = CARTESIAN_POINT( '', ( -1.25000000000000, 11.9347182622800, 40.5000000000000 ) );
#388 = CARTESIAN_POINT( '', ( -1.25000000000000, 11.4317849167583, 41.0001973152923 ) );
#389 = CARTESIAN_POINT( '', ( -1.25000000000000, 10.9286835223948, 41.5002257860310 ) );
#390 = CARTESIAN_POINT( '', ( -1.25000000000000, 10.4253297309965, 42.0000000000000 ) );
#391 = CARTESIAN_POINT( '', ( -1.25000000000000, -11.9347182622800, 40.5000000000000 ) );
#392 = AXIS2_PLACEMENT_3D( '', #460, #461, #462 );
#393 = CARTESIAN_POINT( '', ( -1.25000000000000, -10.4253297309965, 42.0000000000000 ) );
#394 = CARTESIAN_POINT( '', ( -1.25000000000000, -10.4253297309965, 42.0000000000000 ) );
#395 = CARTESIAN_POINT( '', ( -1.25000000000000, -10.9286835223948, 41.5002257860310 ) );
#396 = CARTESIAN_POINT( '', ( -1.25000000000000, -11.4317849167583, 41.0001973152923 ) );
#397 = CARTESIAN_POINT( '', ( -1.25000000000000, -11.9347182622800, 40.5000000000000 ) );
#398 = AXIS2_PLACEMENT_3D( '', #463, #464, #465 );
#399 = COLOUR_RGB( '', 0.800000011920929, 0.800000011920929, 0.800000011920929 );
#400 = CARTESIAN_POINT( '', ( 6.00000000000000, 0.000000000000000, 8.00000000000000 ) );
#401 = AXIS2_PLACEMENT_3D( '', #466, #467, #468 );
#402 = CARTESIAN_POINT( '', ( 6.00000000000000, 0.000000000000000, 6.00000000000000 ) );
#403 = AXIS2_PLACEMENT_3D( '', #469, #470, #471 );
#404 = COLOUR_RGB( '', 0.800000011920929, 0.800000011920929, 0.800000011920929 );
#405 = CARTESIAN_POINT( '', ( 9.00000000000000, 0.000000000000000, 10.0000000000000 ) );
#406 = AXIS2_PLACEMENT_3D( '', #472, #473, #474 );
#407 = CARTESIAN_POINT( '', ( 7.00000000000000, 0.000000000000000, 10.0000000000000 ) );
#408 = AXIS2_PLACEMENT_3D( '', #475, #476, #477 );
#409 = COLOUR_RGB( '', 0.800000011920929, 0.800000011920929, 0.800000011920929 );
#410 = CARTESIAN_POINT( '', ( 1.25000000000000, -11.9347182622800, 40.5000000000000 ) );
#411 = CARTESIAN_POINT( '', ( 1.25000000000000, -10.4253297309965, 42.0000000000000 ) );
#412 = CARTESIAN_POINT( '', ( 1.25000000000000, -11.9347182622800, 40.5000000000000 ) );
#413 = CARTESIAN_POINT( '', ( 1.25000000000000, -11.4317849167583, 41.0001973152923 ) );
#414 = CARTESIAN_POINT( '', ( 1.25000000000000, -10.9286835223948, 41.5002257860310 ) );
#415 = CARTESIAN_POINT( '', ( 1.25000000000000, -10.4253297309965, 42.0000000000000 ) );
#416 = CARTESIAN_POINT( '', ( 1.25000000000000, 11.9347182622800, 40.5000000000000 ) );
#417 = AXIS2_PLACEMENT_3D( '', #478, #479, #480 );
#418 = CARTESIAN_POINT( '', ( 1.25000000000000, 10.4253297309965, 42.0000000000000 ) );
#419 = CARTESIAN_POINT( '', ( 1.25000000000000, 10.4253297309965, 42.0000000000000 ) );
#420 = CARTESIAN_POINT( '', ( 1.25000000000000, 10.9286835223948, 41.5002257860310 ) );
#421 = CARTESIAN_POINT( '', ( 1.25000000000000, 11.4317849167583, 41.0001973152923 ) );
#422 = CARTESIAN_POINT( '', ( 1.25000000000000, 11.9347182622800, 40.5000000000000 ) );
#423 = AXIS2_PLACEMENT_3D( '', #481, #482, #483 );
#424 = COLOUR_RGB( '', 0.800000011920929, 0.800000011920929, 0.800000011920929 );
#425 = CARTESIAN_POINT( '', ( 12.0000000000000, 0.000000000000000, 13.0000000000000 ) );
#426 = AXIS2_PLACEMENT_3D( '', #484, #485, #486 );
#427 = COLOUR_RGB( '', 0.800000011920929, 0.800000011920929, 0.800000011920929 );
#428 = CARTESIAN_POINT( '', ( 7.00000000000000, 0.000000000000000, 8.00000000000000 ) );
#429 = AXIS2_PLACEMENT_3D( '', #487, #488, #489 );
#430 = COLOUR_RGB( '', 0.800000011920929, 0.800000011920929, 0.800000011920929 );
#431 = CARTESIAN_POINT( '', ( 1.25000000000000, -12.5000000000000, 42.0000000000000 ) );
#432 = VECTOR( '', #490, 1000.00000000000 );
#433 = COLOUR_RGB( '', 0.752941191196442, 0.752941191196442, 0.752941191196442 );
#434 = CARTESIAN_POINT( '', ( 1.25000000000000, 11.9347182622800, 39.0000000000000 ) );
#435 = CARTESIAN_POINT( '', ( 1.25000000000000, 11.9347182622800, 25.5000000000000 ) );
#436 = VECTOR( '', #491, 1000.00000000000 );
#437 = CARTESIAN_POINT( '', ( 1.25000000000000, -11.9347182622800, 39.0000000000000 ) );
#438 = CARTESIAN_POINT( '', ( 1.25000000000000, -11.9347182622800, 25.5000000000000 ) );
#439 = VECTOR( '', #492, 1000.00000000000 );
#440 = CARTESIAN_POINT( '', ( -1.25000000000000, -11.9347182622800, 39.0000000000000 ) );
#441 = AXIS2_PLACEMENT_3D( '', #493, #494, #495 );
#442 = CARTESIAN_POINT( '', ( -1.25000000000000, -11.9347182622800, 25.5000000000000 ) );
#443 = VECTOR( '', #496, 1000.00000000000 );
#444 = CARTESIAN_POINT( '', ( -1.25000000000000, 11.9347182622800, 39.0000000000000 ) );
#445 = CARTESIAN_POINT( '', ( -1.25000000000000, 11.9347182622800, 25.5000000000000 ) );
#446 = VECTOR( '', #497, 1000.00000000000 );
#447 = AXIS2_PLACEMENT_3D( '', #498, #499, #500 );
#448 = COLOUR_RGB( '', 0.800000011920929, 0.800000011920929, 0.800000011920929 );
#449 = CARTESIAN_POINT( '', ( -1.25000000000000, -12.5000000000000, 42.0000000000000 ) );
#450 = VECTOR( '', #501, 1000.00000000000 );
#451 = COLOUR_RGB( '', 0.800000011920929, 0.800000011920929, 0.800000011920929 );
#452 = COLOUR_RGB( '', 0.800000011920929, 0.800000011920929, 0.800000011920929 );
#453 = CARTESIAN_POINT( '', ( -1.25000000000000, -12.5000000000000, 39.0000000000000 ) );
#454 = VECTOR( '', #502, 1000.00000000000 );
#455 = CARTESIAN_POINT( '', ( 1.25000000000000, -12.5000000000000, 39.0000000000000 ) );
#456 = VECTOR( '', #503, 1000.00000000000 );
#457 = COLOUR_RGB( '', 0.800000011920929, 0.800000011920929, 0.800000011920929 );
#458 = COLOUR_RGB( '', 0.800000011920929, 0.800000011920929, 0.800000011920929 );
#459 = COLOUR_RGB( '', 0.800000011920929, 0.800000011920929, 0.800000011920929 );
#460 = CARTESIAN_POINT( '', ( -1.78197932662586E-017, 0.000000000000000, 40.5000000000000 ) );
#461 = DIRECTION( '', ( 6.42154712297608E-019, 0.000000000000000, -1.00000000000000 ) );
#462 = DIRECTION( '', ( -1.00000000000000, 0.000000000000000, -6.42154712297608E-019 ) );
#463 = CARTESIAN_POINT( '', ( -1.87830253347051E-017, 0.000000000000000, 42.0000000000000 ) );
#464 = DIRECTION( '', ( 6.42154712297608E-019, 0.000000000000000, -1.00000000000000 ) );
#465 = DIRECTION( '', ( -1.00000000000000, 0.000000000000000, -6.42154712297608E-019 ) );
#466 = CARTESIAN_POINT( '', ( 3.05023488341364E-018, 0.000000000000000, 8.00000000000000 ) );
#467 = DIRECTION( '', ( -6.42154712297608E-019, 0.000000000000000, 1.00000000000000 ) );
#468 = DIRECTION( '', ( 1.00000000000000, 0.000000000000000, 6.42154712297608E-019 ) );
#469 = CARTESIAN_POINT( '', ( 4.33454430800886E-018, 0.000000000000000, 6.00000000000000 ) );
#470 = DIRECTION( '', ( -6.42154712297608E-019, 0.000000000000000, 1.00000000000000 ) );
#471 = DIRECTION( '', ( 1.00000000000000, 0.000000000000000, 6.42154712297608E-019 ) );
#472 = CARTESIAN_POINT( '', ( 1.76592545881842E-018, 0.000000000000000, 10.0000000000000 ) );
#473 = DIRECTION( '', ( -6.42154712297608E-019, 0.000000000000000, 1.00000000000000 ) );
#474 = DIRECTION( '', ( 1.00000000000000, 0.000000000000000, 6.42154712297608E-019 ) );
#475 = CARTESIAN_POINT( '', ( 1.76592545881842E-018, 0.000000000000000, 10.0000000000000 ) );
#476 = DIRECTION( '', ( -6.42154712297608E-019, 0.000000000000000, 1.00000000000000 ) );
#477 = DIRECTION( '', ( 1.00000000000000, 0.000000000000000, 6.42154712297608E-019 ) );
#478 = CARTESIAN_POINT( '', ( -1.78197932662586E-017, 0.000000000000000, 40.5000000000000 ) );
#479 = DIRECTION( '', ( 6.42154712297608E-019, 0.000000000000000, -1.00000000000000 ) );
#480 = DIRECTION( '', ( -1.00000000000000, 0.000000000000000, -6.42154712297608E-019 ) );
#481 = CARTESIAN_POINT( '', ( -1.87830253347051E-017, 0.000000000000000, 42.0000000000000 ) );
#482 = DIRECTION( '', ( 6.42154712297608E-019, 0.000000000000000, -1.00000000000000 ) );
#483 = DIRECTION( '', ( -1.00000000000000, 0.000000000000000, -6.42154712297608E-019 ) );
#484 = CARTESIAN_POINT( '', ( -1.60538678074403E-019, 0.000000000000000, 13.0000000000000 ) );
#485 = DIRECTION( '', ( -6.42154712297608E-019, 0.000000000000000, 1.00000000000000 ) );
#486 = DIRECTION( '', ( 1.00000000000000, 0.000000000000000, 6.42154712297608E-019 ) );
#487 = CARTESIAN_POINT( '', ( 3.05023488341364E-018, 0.000000000000000, 8.00000000000000 ) );
#488 = DIRECTION( '', ( -6.42154712297608E-019, 0.000000000000000, 1.00000000000000 ) );
#489 = DIRECTION( '', ( 1.00000000000000, 0.000000000000000, 6.42154712297608E-019 ) );
#490 = DIRECTION( '', ( 0.000000000000000, 1.00000000000000, 0.000000000000000 ) );
#491 = DIRECTION( '', ( -6.42154712297608E-019, 0.000000000000000, 1.00000000000000 ) );
#492 = DIRECTION( '', ( -6.42154712297608E-019, 0.000000000000000, 1.00000000000000 ) );
#493 = CARTESIAN_POINT( '', ( -1.68565611978122E-017, 0.000000000000000, 39.0000000000000 ) );
#494 = DIRECTION( '', ( 0.000000000000000, 0.000000000000000, 1.00000000000000 ) );
#495 = DIRECTION( '', ( 1.00000000000000, 0.000000000000000, 0.000000000000000 ) );
#496 = DIRECTION( '', ( -6.42154712297608E-019, 0.000000000000000, 1.00000000000000 ) );
#497 = DIRECTION( '', ( -6.42154712297608E-019, 0.000000000000000, 1.00000000000000 ) );
#498 = CARTESIAN_POINT( '', ( -1.68565611978122E-017, 0.000000000000000, 39.0000000000000 ) );
#499 = DIRECTION( '', ( 0.000000000000000, 0.000000000000000, 1.00000000000000 ) );
#500 = DIRECTION( '', ( 1.00000000000000, 0.000000000000000, 0.000000000000000 ) );
#501 = DIRECTION( '', ( 0.000000000000000, 1.00000000000000, 0.000000000000000 ) );
#502 = DIRECTION( '', ( 0.000000000000000, 1.00000000000000, 0.000000000000000 ) );
#503 = DIRECTION( '', ( 0.000000000000000, 1.00000000000000, 0.000000000000000 ) );
ENDSEC;
END-ISO-10303-21;
