ISO-10303-21;
HEADER;
FILE_DESCRIPTION( ( 'Unknown' ), '1' );
FILE_NAME( '//SBS2003/HD_Usb/Disegni/08_LIB/Users_3D/PROD_GAMM_3D/APP-A/7747310_APP_12_A.stp', 'Unknown', ( 'Unknown' ), ( 'Unknown' ), 'PSStep 14.0', 'Unknown', '  ' );
FILE_SCHEMA( ( 'AUTOMOTIVE_DESIGN { 1 0 10303 214 1 1 1 1 }' ) );
ENDSEC;
DATA;
#1 = MECHANICAL_DESIGN_GEOMETRIC_PRESENTATION_REPRESENTATION( ' ', ( #10, #11, #12, #13, #14, #15, #16, #17, #18, #19, #20, #21, #22 ), #6 );
#2 = PRODUCT_DEFINITION_CONTEXT( '', #23, 'design' );
#3 = APPLICATION_PROTOCOL_DEFINITION( 'international standard', 'automotive_design', 2001, #23 );
#4 = PRODUCT_CATEGORY_RELATIONSHIP( 'NONE', 'NONE', #24, #25 );
#5 = SHAPE_DEFINITION_REPRESENTATION( #26, #27 );
#6 =  ( GEOMETRIC_REPRESENTATION_CONTEXT( 3 )GLOBAL_UNCERTAINTY_ASSIGNED_CONTEXT( ( #30 ) )GLOBAL_UNIT_ASSIGNED_CONTEXT( ( #32, #33, #34 ) )REPRESENTATION_CONTEXT( 'NONE', 'WORKSPACE' ) );
#10 = STYLED_ITEM( '', ( #36 ), #37 );
#11 = STYLED_ITEM( '', ( #38 ), #39 );
#12 = STYLED_ITEM( '', ( #40 ), #41 );
#13 = STYLED_ITEM( '', ( #42 ), #43 );
#14 = STYLED_ITEM( '', ( #44 ), #45 );
#15 = STYLED_ITEM( '', ( #46 ), #47 );
#16 = STYLED_ITEM( '', ( #48 ), #49 );
#17 = STYLED_ITEM( '', ( #50 ), #51 );
#18 = STYLED_ITEM( '', ( #52 ), #53 );
#19 = STYLED_ITEM( '', ( #54 ), #55 );
#20 = STYLED_ITEM( '', ( #56 ), #57 );
#21 = STYLED_ITEM( '', ( #58 ), #59 );
#22 = STYLED_ITEM( '', ( #60 ), #61 );
#23 = APPLICATION_CONTEXT( 'core data for automotive mechanical design processes' );
#24 = PRODUCT_CATEGORY( 'part', 'NONE' );
#25 = PRODUCT_RELATED_PRODUCT_CATEGORY( 'detail', ' ', ( #62 ) );
#26 = PRODUCT_DEFINITION_SHAPE( 'NONE', 'NONE', #63 );
#27 = ADVANCED_BREP_SHAPE_REPRESENTATION( '1', ( #64, #65 ), #6 );
#30 = UNCERTAINTY_MEASURE_WITH_UNIT( LENGTH_MEASURE( 0.00100000000000000 ), #32, '', '' );
#32 =  ( CONVERSION_BASED_UNIT( 'MILLIMETRE', #68 )LENGTH_UNIT(  )NAMED_UNIT( #71 ) );
#33 =  ( NAMED_UNIT( #73 )PLANE_ANGLE_UNIT(  )SI_UNIT( $, .RADIAN. ) );
#34 =  ( NAMED_UNIT( #73 )SI_UNIT( $, .STERADIAN. )SOLID_ANGLE_UNIT(  ) );
#36 = PRESENTATION_STYLE_ASSIGNMENT( ( #79 ) );
#37 = ADVANCED_FACE( '', ( #80 ), #81, .T. );
#38 = PRESENTATION_STYLE_ASSIGNMENT( ( #82 ) );
#39 = ADVANCED_FACE( '', ( #83 ), #84, .F. );
#40 = PRESENTATION_STYLE_ASSIGNMENT( ( #85 ) );
#41 = ADVANCED_FACE( '', ( #86, #87 ), #88, .T. );
#42 = PRESENTATION_STYLE_ASSIGNMENT( ( #89 ) );
#43 = ADVANCED_FACE( '', ( #90 ), #91, .T. );
#44 = PRESENTATION_STYLE_ASSIGNMENT( ( #92 ) );
#45 = ADVANCED_FACE( '', ( #93, #94 ), #95, .T. );
#46 = PRESENTATION_STYLE_ASSIGNMENT( ( #96 ) );
#47 = ADVANCED_FACE( '', ( #97, #98 ), #99, .F. );
#48 = PRESENTATION_STYLE_ASSIGNMENT( ( #100 ) );
#49 = ADVANCED_FACE( '', ( #101 ), #102, .T. );
#50 = PRESENTATION_STYLE_ASSIGNMENT( ( #103 ) );
#51 = ADVANCED_FACE( '', ( #104 ), #105, .T. );
#52 = PRESENTATION_STYLE_ASSIGNMENT( ( #106 ) );
#53 = ADVANCED_FACE( '', ( #107, #108 ), #109, .T. );
#54 = PRESENTATION_STYLE_ASSIGNMENT( ( #110 ) );
#55 = ADVANCED_FACE( '', ( #111 ), #112, .T. );
#56 = PRESENTATION_STYLE_ASSIGNMENT( ( #113 ) );
#57 = ADVANCED_FACE( '', ( #114 ), #115, .F. );
#58 = PRESENTATION_STYLE_ASSIGNMENT( ( #116 ) );
#59 = ADVANCED_FACE( '', ( #117, #118 ), #119, .T. );
#60 = PRESENTATION_STYLE_ASSIGNMENT( ( #120 ) );
#61 = ADVANCED_FACE( '', ( #121 ), #122, .T. );
#62 = PRODUCT( '1', '1', 'PART-1-DESC', ( #123 ) );
#63 = PRODUCT_DEFINITION( 'NONE', 'NONE', #124, #2 );
#64 = MANIFOLD_SOLID_BREP( '1', #125 );
#65 = AXIS2_PLACEMENT_3D( '', #126, #127, #128 );
#68 = LENGTH_MEASURE_WITH_UNIT( LENGTH_MEASURE( 1.00000000000000 ), #129 );
#71 = DIMENSIONAL_EXPONENTS( 1.00000000000000, 0.000000000000000, 0.000000000000000, 0.000000000000000, 0.000000000000000, 0.000000000000000, 0.000000000000000 );
#73 = DIMENSIONAL_EXPONENTS( 0.000000000000000, 0.000000000000000, 0.000000000000000, 0.000000000000000, 0.000000000000000, 0.000000000000000, 0.000000000000000 );
#79 = SURFACE_STYLE_USAGE( .BOTH., #130 );
#80 = FACE_OUTER_BOUND( '', #131, .T. );
#81 = SPHERICAL_SURFACE( '', #132, 1.20000000000000 );
#82 = SURFACE_STYLE_USAGE( .BOTH., #133 );
#83 = FACE_OUTER_BOUND( '', #134, .T. );
#84 = PLANE( '', #135 );
#85 = SURFACE_STYLE_USAGE( .BOTH., #136 );
#86 = FACE_BOUND( '', #137, .T. );
#87 = FACE_OUTER_BOUND( '', #138, .T. );
#88 = CONICAL_SURFACE( '', #139, 2.50000000000000, 0.785398163397449 );
#89 = SURFACE_STYLE_USAGE( .BOTH., #140 );
#90 = FACE_OUTER_BOUND( '', #141, .T. );
#91 = CONICAL_SURFACE( '', #142, 2.00000000000000, 0.785398163397448 );
#92 = SURFACE_STYLE_USAGE( .BOTH., #143 );
#93 = FACE_OUTER_BOUND( '', #144, .T. );
#94 = FACE_OUTER_BOUND( '', #145, .T. );
#95 = CYLINDRICAL_SURFACE( '', #146, 1.20000000000000 );
#96 = SURFACE_STYLE_USAGE( .BOTH., #147 );
#97 = FACE_OUTER_BOUND( '', #148, .T. );
#98 = FACE_BOUND( '', #149, .T. );
#99 = PLANE( '', #150 );
#100 = SURFACE_STYLE_USAGE( .BOTH., #151 );
#101 = FACE_OUTER_BOUND( '', #152, .T. );
#102 = PLANE( '', #153 );
#103 = SURFACE_STYLE_USAGE( .BOTH., #154 );
#104 = FACE_OUTER_BOUND( '', #155, .T. );
#105 = PLANE( '', #156 );
#106 = SURFACE_STYLE_USAGE( .BOTH., #157 );
#107 = FACE_OUTER_BOUND( '', #158, .T. );
#108 = FACE_OUTER_BOUND( '', #159, .T. );
#109 = CYLINDRICAL_SURFACE( '', #160, 1.75000000000000 );
#110 = SURFACE_STYLE_USAGE( .BOTH., #161 );
#111 = FACE_OUTER_BOUND( '', #162, .T. );
#112 = PLANE( '', #163 );
#113 = SURFACE_STYLE_USAGE( .BOTH., #164 );
#114 = FACE_OUTER_BOUND( '', #165, .T. );
#115 = PLANE( '', #166 );
#116 = SURFACE_STYLE_USAGE( .BOTH., #167 );
#117 = FACE_OUTER_BOUND( '', #168, .T. );
#118 = FACE_OUTER_BOUND( '', #169, .T. );
#119 = CYLINDRICAL_SURFACE( '', #170, 2.50000000000000 );
#120 = SURFACE_STYLE_USAGE( .BOTH., #171 );
#121 = FACE_OUTER_BOUND( '', #172, .T. );
#122 = CONICAL_SURFACE( '', #173, 2.00000000000000, 0.785398163397448 );
#123 = PRODUCT_CONTEXT( '', #23, 'mechanical' );
#124 = PRODUCT_DEFINITION_FORMATION_WITH_SPECIFIED_SOURCE( ' ', 'NONE', #62, .NOT_KNOWN. );
#125 = CLOSED_SHELL( '', ( #59, #43, #49, #51, #61, #41, #37, #45, #57, #47, #53, #39, #55 ) );
#126 = CARTESIAN_POINT( '', ( 0.000000000000000, 0.000000000000000, 0.000000000000000 ) );
#127 = DIRECTION( '', ( 0.000000000000000, 0.000000000000000, 1.00000000000000 ) );
#128 = DIRECTION( '', ( 1.00000000000000, 0.000000000000000, 0.000000000000000 ) );
#129 =  ( LENGTH_UNIT(  )NAMED_UNIT( #71 )SI_UNIT( .MILLI., .METRE. ) );
#130 = SURFACE_SIDE_STYLE( '', ( #175 ) );
#131 = EDGE_LOOP( '', ( #176 ) );
#132 = AXIS2_PLACEMENT_3D( '', #177, #178, #179 );
#133 = SURFACE_SIDE_STYLE( '', ( #180 ) );
#134 = EDGE_LOOP( '', ( #181, #182 ) );
#135 = AXIS2_PLACEMENT_3D( '', #183, #184, #185 );
#136 = SURFACE_SIDE_STYLE( '', ( #186 ) );
#137 = EDGE_LOOP( '', ( #187 ) );
#138 = EDGE_LOOP( '', ( #188 ) );
#139 = AXIS2_PLACEMENT_3D( '', #189, #190, #191 );
#140 = SURFACE_SIDE_STYLE( '', ( #192 ) );
#141 = EDGE_LOOP( '', ( #193, #194, #195, #196 ) );
#142 = AXIS2_PLACEMENT_3D( '', #197, #198, #199 );
#143 = SURFACE_SIDE_STYLE( '', ( #200 ) );
#144 = EDGE_LOOP( '', ( #201 ) );
#145 = EDGE_LOOP( '', ( #202 ) );
#146 = AXIS2_PLACEMENT_3D( '', #203, #204, #205 );
#147 = SURFACE_SIDE_STYLE( '', ( #206 ) );
#148 = EDGE_LOOP( '', ( #207 ) );
#149 = EDGE_LOOP( '', ( #208 ) );
#150 = AXIS2_PLACEMENT_3D( '', #209, #210, #211 );
#151 = SURFACE_SIDE_STYLE( '', ( #212 ) );
#152 = EDGE_LOOP( '', ( #213, #214, #215, #216 ) );
#153 = AXIS2_PLACEMENT_3D( '', #217, #218, #219 );
#154 = SURFACE_SIDE_STYLE( '', ( #220 ) );
#155 = EDGE_LOOP( '', ( #221, #222, #223, #224, #225, #226 ) );
#156 = AXIS2_PLACEMENT_3D( '', #227, #228, #229 );
#157 = SURFACE_SIDE_STYLE( '', ( #230 ) );
#158 = EDGE_LOOP( '', ( #231 ) );
#159 = EDGE_LOOP( '', ( #232 ) );
#160 = AXIS2_PLACEMENT_3D( '', #233, #234, #235 );
#161 = SURFACE_SIDE_STYLE( '', ( #236 ) );
#162 = EDGE_LOOP( '', ( #237, #238, #239, #240, #241, #242 ) );
#163 = AXIS2_PLACEMENT_3D( '', #243, #244, #245 );
#164 = SURFACE_SIDE_STYLE( '', ( #246 ) );
#165 = EDGE_LOOP( '', ( #247, #248 ) );
#166 = AXIS2_PLACEMENT_3D( '', #249, #250, #251 );
#167 = SURFACE_SIDE_STYLE( '', ( #252 ) );
#168 = EDGE_LOOP( '', ( #253 ) );
#169 = EDGE_LOOP( '', ( #254, #255, #256, #257, #258, #259, #260, #261 ) );
#170 = AXIS2_PLACEMENT_3D( '', #262, #263, #264 );
#171 = SURFACE_SIDE_STYLE( '', ( #265 ) );
#172 = EDGE_LOOP( '', ( #266, #267, #268, #269 ) );
#173 = AXIS2_PLACEMENT_3D( '', #270, #271, #272 );
#175 = SURFACE_STYLE_FILL_AREA( #273 );
#176 = ORIENTED_EDGE( '', *, *, #274, .F. );
#177 = CARTESIAN_POINT( '', ( 0.000000000000000, 0.000000000000000, 1.20000000000000 ) );
#178 = DIRECTION( '', ( 1.37926407679271E-017, 0.000000000000000, 1.00000000000000 ) );
#179 = DIRECTION( '', ( 1.00000000000000, 0.000000000000000, -1.37926407679271E-017 ) );
#180 = SURFACE_STYLE_FILL_AREA( #275 );
#181 = ORIENTED_EDGE( '', *, *, #276, .T. );
#182 = ORIENTED_EDGE( '', *, *, #277, .T. );
#183 = CARTESIAN_POINT( '', ( 2.50000000000000, 0.000000000000000, 14.0000000000000 ) );
#184 = DIRECTION( '', ( -1.37926407679271E-017, 0.000000000000000, -1.00000000000000 ) );
#185 = DIRECTION( '', ( -1.00000000000000, 0.000000000000000, 1.37926407679271E-017 ) );
#186 = SURFACE_STYLE_FILL_AREA( #278 );
#187 = ORIENTED_EDGE( '', *, *, #279, .F. );
#188 = ORIENTED_EDGE( '', *, *, #280, .F. );
#189 = CARTESIAN_POINT( '', ( -2.41371213438723E-017, 0.000000000000000, 3.50000000000000 ) );
#190 = DIRECTION( '', ( 1.37926407679270E-017, -0.000000000000000, 1.00000000000000 ) );
#191 = DIRECTION( '', ( 1.00000000000000, 0.000000000000000, -1.37926407679270E-017 ) );
#192 = SURFACE_STYLE_FILL_AREA( #281 );
#193 = ORIENTED_EDGE( '', *, *, #282, .F. );
#194 = ORIENTED_EDGE( '', *, *, #283, .F. );
#195 = ORIENTED_EDGE( '', *, *, #284, .F. );
#196 = ORIENTED_EDGE( '', *, *, #277, .F. );
#197 = CARTESIAN_POINT( '', ( 1.20685606719362E-016, 0.000000000000000, 14.0000000000000 ) );
#198 = DIRECTION( '', ( -1.37926407679271E-017, 0.000000000000000, -1.00000000000000 ) );
#199 = DIRECTION( '', ( -1.00000000000000, 0.000000000000000, 1.37926407679271E-017 ) );
#200 = SURFACE_STYLE_FILL_AREA( #285 );
#201 = ORIENTED_EDGE( '', *, *, #286, .F. );
#202 = ORIENTED_EDGE( '', *, *, #274, .T. );
#203 = CARTESIAN_POINT( '', ( 7.24113640316170E-017, 0.000000000000000, 10.5000000000000 ) );
#204 = DIRECTION( '', ( -1.37926407679271E-017, -0.000000000000000, -1.00000000000000 ) );
#205 = DIRECTION( '', ( 1.00000000000000, 0.000000000000000, -1.37926407679271E-017 ) );
#206 = SURFACE_STYLE_FILL_AREA( #287 );
#207 = ORIENTED_EDGE( '', *, *, #288, .F. );
#208 = ORIENTED_EDGE( '', *, *, #286, .T. );
#209 = CARTESIAN_POINT( '', ( 1.20000000000000, 0.000000000000000, 2.00000000000000 ) );
#210 = DIRECTION( '', ( 1.37926407679271E-017, 0.000000000000000, 1.00000000000000 ) );
#211 = DIRECTION( '', ( 1.00000000000000, 0.000000000000000, -1.37926407679271E-017 ) );
#212 = SURFACE_STYLE_FILL_AREA( #289 );
#213 = ORIENTED_EDGE( '', *, *, #290, .T. );
#214 = ORIENTED_EDGE( '', *, *, #291, .F. );
#215 = ORIENTED_EDGE( '', *, *, #292, .T. );
#216 = ORIENTED_EDGE( '', *, *, #293, .T. );
#217 = CARTESIAN_POINT( '', ( -0.250000000000000, -15.0000000000000, 13.0000000000000 ) );
#218 = DIRECTION( '', ( 0.000000000000000, 0.000000000000000, 1.00000000000000 ) );
#219 = DIRECTION( '', ( 1.00000000000000, 0.000000000000000, 0.000000000000000 ) );
#220 = SURFACE_STYLE_FILL_AREA( #294 );
#221 = ORIENTED_EDGE( '', *, *, #295, .T. );
#222 = ORIENTED_EDGE( '', *, *, #296, .T. );
#223 = ORIENTED_EDGE( '', *, *, #297, .T. );
#224 = ORIENTED_EDGE( '', *, *, #293, .F. );
#225 = ORIENTED_EDGE( '', *, *, #298, .T. );
#226 = ORIENTED_EDGE( '', *, *, #299, .T. );
#227 = CARTESIAN_POINT( '', ( 0.250000000000000, -15.0000000000000, 13.0000000000000 ) );
#228 = DIRECTION( '', ( -1.00000000000000, 0.000000000000000, 1.08420217248550E-016 ) );
#229 = DIRECTION( '', ( 1.08420217248550E-016, 0.000000000000000, 1.00000000000000 ) );
#230 = SURFACE_STYLE_FILL_AREA( #300 );
#231 = ORIENTED_EDGE( '', *, *, #279, .T. );
#232 = ORIENTED_EDGE( '', *, *, #288, .T. );
#233 = CARTESIAN_POINT( '', ( 7.24113640316170E-017, 0.000000000000000, 10.5000000000000 ) );
#234 = DIRECTION( '', ( -1.37926407679271E-017, -0.000000000000000, -1.00000000000000 ) );
#235 = DIRECTION( '', ( 1.00000000000000, 0.000000000000000, -1.37926407679271E-017 ) );
#236 = SURFACE_STYLE_FILL_AREA( #301 );
#237 = ORIENTED_EDGE( '', *, *, #276, .F. );
#238 = ORIENTED_EDGE( '', *, *, #284, .T. );
#239 = ORIENTED_EDGE( '', *, *, #302, .T. );
#240 = ORIENTED_EDGE( '', *, *, #291, .T. );
#241 = ORIENTED_EDGE( '', *, *, #303, .T. );
#242 = ORIENTED_EDGE( '', *, *, #282, .T. );
#243 = CARTESIAN_POINT( '', ( -0.250000000000000, -15.0000000000000, 14.0000000000000 ) );
#244 = DIRECTION( '', ( 1.00000000000000, 0.000000000000000, 1.08420217248550E-016 ) );
#245 = DIRECTION( '', ( 1.08420217248550E-016, 0.000000000000000, -1.00000000000000 ) );
#246 = SURFACE_STYLE_FILL_AREA( #304 );
#247 = ORIENTED_EDGE( '', *, *, #295, .F. );
#248 = ORIENTED_EDGE( '', *, *, #305, .T. );
#249 = CARTESIAN_POINT( '', ( 2.50000000000000, 0.000000000000000, 14.0000000000000 ) );
#250 = DIRECTION( '', ( -1.37926407679271E-017, 0.000000000000000, -1.00000000000000 ) );
#251 = DIRECTION( '', ( -1.00000000000000, 0.000000000000000, 1.37926407679271E-017 ) );
#252 = SURFACE_STYLE_FILL_AREA( #306 );
#253 = ORIENTED_EDGE( '', *, *, #280, .T. );
#254 = ORIENTED_EDGE( '', *, *, #297, .F. );
#255 = ORIENTED_EDGE( '', *, *, #307, .T. );
#256 = ORIENTED_EDGE( '', *, *, #298, .F. );
#257 = ORIENTED_EDGE( '', *, *, #292, .F. );
#258 = ORIENTED_EDGE( '', *, *, #302, .F. );
#259 = ORIENTED_EDGE( '', *, *, #283, .T. );
#260 = ORIENTED_EDGE( '', *, *, #303, .F. );
#261 = ORIENTED_EDGE( '', *, *, #290, .F. );
#262 = CARTESIAN_POINT( '', ( 7.24113640316170E-017, 0.000000000000000, 10.5000000000000 ) );
#263 = DIRECTION( '', ( -1.37926407679271E-017, -0.000000000000000, -1.00000000000000 ) );
#264 = DIRECTION( '', ( 1.00000000000000, 0.000000000000000, -1.37926407679271E-017 ) );
#265 = SURFACE_STYLE_FILL_AREA( #308 );
#266 = ORIENTED_EDGE( '', *, *, #299, .F. );
#267 = ORIENTED_EDGE( '', *, *, #307, .F. );
#268 = ORIENTED_EDGE( '', *, *, #296, .F. );
#269 = ORIENTED_EDGE( '', *, *, #305, .F. );
#270 = CARTESIAN_POINT( '', ( 1.20685606719362E-016, 0.000000000000000, 14.0000000000000 ) );
#271 = DIRECTION( '', ( -1.37926407679271E-017, 0.000000000000000, -1.00000000000000 ) );
#272 = DIRECTION( '', ( -1.00000000000000, 0.000000000000000, 1.37926407679271E-017 ) );
#273 = FILL_AREA_STYLE( '', ( #309 ) );
#274 = EDGE_CURVE( '', #310, #310, #311, .T. );
#275 = FILL_AREA_STYLE( '', ( #312 ) );
#276 = EDGE_CURVE( '', #313, #314, #315, .T. );
#277 = EDGE_CURVE( '', #314, #313, #316, .F. );
#278 = FILL_AREA_STYLE( '', ( #317 ) );
#279 = EDGE_CURVE( '', #318, #318, #319, .F. );
#280 = EDGE_CURVE( '', #320, #320, #321, .T. );
#281 = FILL_AREA_STYLE( '', ( #322 ) );
#282 = EDGE_CURVE( '', #323, #314, #324, .T. );
#283 = EDGE_CURVE( '', #325, #323, #326, .T. );
#284 = EDGE_CURVE( '', #313, #325, #327, .T. );
#285 = FILL_AREA_STYLE( '', ( #328 ) );
#286 = EDGE_CURVE( '', #329, #329, #330, .T. );
#287 = FILL_AREA_STYLE( '', ( #331 ) );
#288 = EDGE_CURVE( '', #332, #332, #333, .T. );
#289 = FILL_AREA_STYLE( '', ( #334 ) );
#290 = EDGE_CURVE( '', #335, #336, #337, .T. );
#291 = EDGE_CURVE( '', #338, #336, #339, .T. );
#292 = EDGE_CURVE( '', #338, #340, #341, .T. );
#293 = EDGE_CURVE( '', #340, #335, #342, .T. );
#294 = FILL_AREA_STYLE( '', ( #343 ) );
#295 = EDGE_CURVE( '', #344, #345, #346, .T. );
#296 = EDGE_CURVE( '', #345, #347, #348, .T. );
#297 = EDGE_CURVE( '', #347, #335, #349, .F. );
#298 = EDGE_CURVE( '', #340, #350, #351, .T. );
#299 = EDGE_CURVE( '', #350, #344, #352, .T. );
#300 = FILL_AREA_STYLE( '', ( #353 ) );
#301 = FILL_AREA_STYLE( '', ( #354 ) );
#302 = EDGE_CURVE( '', #325, #338, #355, .F. );
#303 = EDGE_CURVE( '', #336, #323, #356, .T. );
#304 = FILL_AREA_STYLE( '', ( #357 ) );
#305 = EDGE_CURVE( '', #344, #345, #358, .F. );
#306 = FILL_AREA_STYLE( '', ( #359 ) );
#307 = EDGE_CURVE( '', #347, #350, #360, .T. );
#308 = FILL_AREA_STYLE( '', ( #361 ) );
#309 = FILL_AREA_STYLE_COLOUR( '', #362 );
#310 = VERTEX_POINT( '', #363 );
#311 = CIRCLE( '', #364, 1.20000000000000 );
#312 = FILL_AREA_STYLE_COLOUR( '', #365 );
#313 = VERTEX_POINT( '', #366 );
#314 = VERTEX_POINT( '', #367 );
#315 = LINE( '', #368, #369 );
#316 = CIRCLE( '', #370, 2.00000000000000 );
#317 = FILL_AREA_STYLE_COLOUR( '', #371 );
#318 = VERTEX_POINT( '', #372 );
#319 = CIRCLE( '', #373, 1.75000000000000 );
#320 = VERTEX_POINT( '', #374 );
#321 = CIRCLE( '', #375, 2.50000000000000 );
#322 = FILL_AREA_STYLE_COLOUR( '', #376 );
#323 = VERTEX_POINT( '', #377 );
#324 = B_SPLINE_CURVE_WITH_KNOTS( '', 3, ( #378, #379, #380, #381 ), .UNSPECIFIED., .F., .F., ( 4, 4 ), ( 0.000000000000000, 0.000709341288932106 ), .UNSPECIFIED. );
#325 = VERTEX_POINT( '', #382 );
#326 = CIRCLE( '', #383, 2.50000000000000 );
#327 = B_SPLINE_CURVE_WITH_KNOTS( '', 3, ( #384, #385, #386, #387 ), .UNSPECIFIED., .F., .F., ( 4, 4 ), ( 0.000000000000000, 0.000709341288932106 ), .UNSPECIFIED. );
#328 = FILL_AREA_STYLE_COLOUR( '', #388 );
#329 = VERTEX_POINT( '', #389 );
#330 = CIRCLE( '', #390, 1.20000000000000 );
#331 = FILL_AREA_STYLE_COLOUR( '', #391 );
#332 = VERTEX_POINT( '', #392 );
#333 = CIRCLE( '', #393, 1.75000000000000 );
#334 = FILL_AREA_STYLE_COLOUR( '', #394 );
#335 = VERTEX_POINT( '', #395 );
#336 = VERTEX_POINT( '', #396 );
#337 = CIRCLE( '', #397, 2.50000000000000 );
#338 = VERTEX_POINT( '', #398 );
#339 = LINE( '', #399, #400 );
#340 = VERTEX_POINT( '', #401 );
#341 = CIRCLE( '', #402, 2.50000000000000 );
#342 = LINE( '', #403, #404 );
#343 = FILL_AREA_STYLE_COLOUR( '', #405 );
#344 = VERTEX_POINT( '', #406 );
#345 = VERTEX_POINT( '', #407 );
#346 = LINE( '', #408, #409 );
#347 = VERTEX_POINT( '', #410 );
#348 = B_SPLINE_CURVE_WITH_KNOTS( '', 3, ( #411, #412, #413, #414 ), .UNSPECIFIED., .F., .F., ( 4, 4 ), ( 0.000000000000000, 0.000709341288932106 ), .UNSPECIFIED. );
#349 = LINE( '', #415, #416 );
#350 = VERTEX_POINT( '', #417 );
#351 = LINE( '', #418, #419 );
#352 = B_SPLINE_CURVE_WITH_KNOTS( '', 3, ( #420, #421, #422, #423 ), .UNSPECIFIED., .F., .F., ( 4, 4 ), ( 0.000000000000000, 0.000709341288932106 ), .UNSPECIFIED. );
#353 = FILL_AREA_STYLE_COLOUR( '', #424 );
#354 = FILL_AREA_STYLE_COLOUR( '', #425 );
#355 = LINE( '', #426, #427 );
#356 = LINE( '', #428, #429 );
#357 = FILL_AREA_STYLE_COLOUR( '', #430 );
#358 = CIRCLE( '', #431, 2.00000000000000 );
#359 = FILL_AREA_STYLE_COLOUR( '', #432 );
#360 = CIRCLE( '', #433, 2.50000000000000 );
#361 = FILL_AREA_STYLE_COLOUR( '', #434 );
#362 = COLOUR_RGB( '', 0.200000002980232, 0.200000002980232, 0.200000002980232 );
#363 = CARTESIAN_POINT( '', ( 1.20000000000000, 0.000000000000000, 1.20000000000000 ) );
#364 = AXIS2_PLACEMENT_3D( '', #435, #436, #437 );
#365 = COLOUR_RGB( '', 0.200000002980232, 0.200000002980232, 0.200000002980232 );
#366 = CARTESIAN_POINT( '', ( -0.250000000000000, -1.98431348329844, 14.0000000000000 ) );
#367 = CARTESIAN_POINT( '', ( -0.250000000000000, 1.98431348329844, 14.0000000000000 ) );
#368 = CARTESIAN_POINT( '', ( -0.250000000000000, -15.0000000000000, 14.0000000000000 ) );
#369 = VECTOR( '', #438, 1000.00000000000 );
#370 = AXIS2_PLACEMENT_3D( '', #439, #440, #441 );
#371 = COLOUR_RGB( '', 0.200000002980232, 0.200000002980232, 0.200000002980232 );
#372 = CARTESIAN_POINT( '', ( 1.75000000000000, 0.000000000000000, 2.75000000000000 ) );
#373 = AXIS2_PLACEMENT_3D( '', #442, #443, #444 );
#374 = CARTESIAN_POINT( '', ( 2.50000000000000, 0.000000000000000, 3.50000000000000 ) );
#375 = AXIS2_PLACEMENT_3D( '', #445, #446, #447 );
#376 = COLOUR_RGB( '', 0.200000002980232, 0.200000002980232, 0.200000002980232 );
#377 = CARTESIAN_POINT( '', ( -0.250000000000000, 2.48746859276655, 13.5000000000000 ) );
#378 = CARTESIAN_POINT( '', ( -0.250000000000000, 2.48746859276655, 13.5000000000000 ) );
#379 = CARTESIAN_POINT( '', ( -0.250000000000000, 2.31985569021310, 13.6667727323377 ) );
#380 = CARTESIAN_POINT( '', ( -0.250000000000000, 2.15216377933351, 13.8334661972010 ) );
#381 = CARTESIAN_POINT( '', ( -0.250000000000000, 1.98431348329844, 14.0000000000000 ) );
#382 = CARTESIAN_POINT( '', ( -0.250000000000000, -2.48746859276655, 13.5000000000000 ) );
#383 = AXIS2_PLACEMENT_3D( '', #448, #449, #450 );
#384 = CARTESIAN_POINT( '', ( -0.250000000000000, -1.98431348329844, 14.0000000000000 ) );
#385 = CARTESIAN_POINT( '', ( -0.250000000000000, -2.15216377933352, 13.8334661972010 ) );
#386 = CARTESIAN_POINT( '', ( -0.250000000000000, -2.31985569021310, 13.6667727323377 ) );
#387 = CARTESIAN_POINT( '', ( -0.250000000000000, -2.48746859276655, 13.5000000000000 ) );
#388 = COLOUR_RGB( '', 0.200000002980232, 0.200000002980232, 0.200000002980232 );
#389 = CARTESIAN_POINT( '', ( 1.20000000000000, 0.000000000000000, 2.00000000000000 ) );
#390 = AXIS2_PLACEMENT_3D( '', #451, #452, #453 );
#391 = COLOUR_RGB( '', 0.200000002980232, 0.200000002980232, 0.200000002980232 );
#392 = CARTESIAN_POINT( '', ( 1.75000000000000, 0.000000000000000, 2.00000000000000 ) );
#393 = AXIS2_PLACEMENT_3D( '', #454, #455, #456 );
#394 = COLOUR_RGB( '', 0.200000002980232, 0.200000002980232, 0.200000002980232 );
#395 = CARTESIAN_POINT( '', ( 0.250000000000000, 2.48746859276655, 13.0000000000000 ) );
#396 = CARTESIAN_POINT( '', ( -0.250000000000000, 2.48746859276655, 13.0000000000000 ) );
#397 = AXIS2_PLACEMENT_3D( '', #457, #458, #459 );
#398 = CARTESIAN_POINT( '', ( -0.250000000000000, -2.48746859276655, 13.0000000000000 ) );
#399 = CARTESIAN_POINT( '', ( -0.250000000000000, -15.0000000000000, 13.0000000000000 ) );
#400 = VECTOR( '', #460, 1000.00000000000 );
#401 = CARTESIAN_POINT( '', ( 0.250000000000000, -2.48746859276655, 13.0000000000000 ) );
#402 = AXIS2_PLACEMENT_3D( '', #461, #462, #463 );
#403 = CARTESIAN_POINT( '', ( 0.250000000000000, -15.0000000000000, 13.0000000000000 ) );
#404 = VECTOR( '', #464, 1000.00000000000 );
#405 = COLOUR_RGB( '', 0.200000002980232, 0.200000002980232, 0.200000002980232 );
#406 = CARTESIAN_POINT( '', ( 0.250000000000000, -1.98431348329844, 14.0000000000000 ) );
#407 = CARTESIAN_POINT( '', ( 0.250000000000000, 1.98431348329844, 14.0000000000000 ) );
#408 = CARTESIAN_POINT( '', ( 0.250000000000000, -15.0000000000000, 14.0000000000000 ) );
#409 = VECTOR( '', #465, 1000.00000000000 );
#410 = CARTESIAN_POINT( '', ( 0.250000000000000, 2.48746859276655, 13.5000000000000 ) );
#411 = CARTESIAN_POINT( '', ( 0.250000000000000, 1.98431348329844, 14.0000000000000 ) );
#412 = CARTESIAN_POINT( '', ( 0.250000000000000, 2.15216377933352, 13.8334661972010 ) );
#413 = CARTESIAN_POINT( '', ( 0.250000000000000, 2.31985569021310, 13.6667727323377 ) );
#414 = CARTESIAN_POINT( '', ( 0.250000000000000, 2.48746859276655, 13.5000000000000 ) );
#415 = CARTESIAN_POINT( '', ( 0.250000000000000, 2.48746859276655, 10.5000000000000 ) );
#416 = VECTOR( '', #466, 1000.00000000000 );
#417 = CARTESIAN_POINT( '', ( 0.250000000000000, -2.48746859276655, 13.5000000000000 ) );
#418 = CARTESIAN_POINT( '', ( 0.250000000000000, -2.48746859276655, 10.5000000000000 ) );
#419 = VECTOR( '', #467, 1000.00000000000 );
#420 = CARTESIAN_POINT( '', ( 0.250000000000000, -2.48746859276655, 13.5000000000000 ) );
#421 = CARTESIAN_POINT( '', ( 0.250000000000000, -2.31985569021310, 13.6667727323377 ) );
#422 = CARTESIAN_POINT( '', ( 0.250000000000000, -2.15216377933352, 13.8334661972010 ) );
#423 = CARTESIAN_POINT( '', ( 0.250000000000000, -1.98431348329844, 14.0000000000000 ) );
#424 = COLOUR_RGB( '', 0.200000002980232, 0.200000002980232, 0.200000002980232 );
#425 = COLOUR_RGB( '', 0.200000002980232, 0.200000002980232, 0.200000002980232 );
#426 = CARTESIAN_POINT( '', ( -0.250000000000000, -2.48746859276655, 10.5000000000000 ) );
#427 = VECTOR( '', #468, 1000.00000000000 );
#428 = CARTESIAN_POINT( '', ( -0.250000000000000, 2.48746859276655, 10.5000000000000 ) );
#429 = VECTOR( '', #469, 1000.00000000000 );
#430 = COLOUR_RGB( '', 0.200000002980232, 0.200000002980232, 0.200000002980232 );
#431 = AXIS2_PLACEMENT_3D( '', #470, #471, #472 );
#432 = COLOUR_RGB( '', 0.752941191196442, 0.752941191196442, 0.752941191196442 );
#433 = AXIS2_PLACEMENT_3D( '', #473, #474, #475 );
#434 = COLOUR_RGB( '', 0.200000002980232, 0.200000002980232, 0.200000002980232 );
#435 = CARTESIAN_POINT( '', ( -5.58601951101045E-017, 0.000000000000000, 1.20000000000000 ) );
#436 = DIRECTION( '', ( 1.37926407679271E-017, 0.000000000000000, 1.00000000000000 ) );
#437 = DIRECTION( '', ( 1.00000000000000, 0.000000000000000, -1.37926407679271E-017 ) );
#438 = DIRECTION( '', ( 0.000000000000000, 1.00000000000000, 0.000000000000000 ) );
#439 = CARTESIAN_POINT( '', ( 1.20685606719362E-016, 0.000000000000000, 14.0000000000000 ) );
#440 = DIRECTION( '', ( -1.37926407679271E-017, 0.000000000000000, -1.00000000000000 ) );
#441 = DIRECTION( '', ( -1.00000000000000, 0.000000000000000, 1.37926407679271E-017 ) );
#442 = CARTESIAN_POINT( '', ( -3.44816019198176E-017, 0.000000000000000, 2.75000000000000 ) );
#443 = DIRECTION( '', ( 1.37926407679270E-017, 0.000000000000000, 1.00000000000000 ) );
#444 = DIRECTION( '', ( 1.00000000000000, 0.000000000000000, -1.37926407679270E-017 ) );
#445 = CARTESIAN_POINT( '', ( -2.41371213438723E-017, 0.000000000000000, 3.50000000000000 ) );
#446 = DIRECTION( '', ( 1.37926407679270E-017, 0.000000000000000, 1.00000000000000 ) );
#447 = DIRECTION( '', ( 1.00000000000000, 0.000000000000000, -1.37926407679270E-017 ) );
#448 = CARTESIAN_POINT( '', ( 1.13789286335398E-016, 0.000000000000000, 13.5000000000000 ) );
#449 = DIRECTION( '', ( -1.37926407679271E-017, 0.000000000000000, -1.00000000000000 ) );
#450 = DIRECTION( '', ( -1.00000000000000, 0.000000000000000, 1.37926407679271E-017 ) );
#451 = CARTESIAN_POINT( '', ( -4.48260824957630E-017, 0.000000000000000, 2.00000000000000 ) );
#452 = DIRECTION( '', ( 1.37926407679271E-017, 0.000000000000000, 1.00000000000000 ) );
#453 = DIRECTION( '', ( 1.00000000000000, 0.000000000000000, -1.37926407679271E-017 ) );
#454 = CARTESIAN_POINT( '', ( -4.48260824957630E-017, 0.000000000000000, 2.00000000000000 ) );
#455 = DIRECTION( '', ( 1.37926407679271E-017, 0.000000000000000, 1.00000000000000 ) );
#456 = DIRECTION( '', ( 1.00000000000000, 0.000000000000000, -1.37926407679271E-017 ) );
#457 = CARTESIAN_POINT( '', ( 1.06892965951435E-016, 0.000000000000000, 13.0000000000000 ) );
#458 = DIRECTION( '', ( 0.000000000000000, 0.000000000000000, 1.00000000000000 ) );
#459 = DIRECTION( '', ( 1.00000000000000, 0.000000000000000, 0.000000000000000 ) );
#460 = DIRECTION( '', ( 0.000000000000000, 1.00000000000000, 0.000000000000000 ) );
#461 = CARTESIAN_POINT( '', ( 1.06892965951435E-016, 0.000000000000000, 13.0000000000000 ) );
#462 = DIRECTION( '', ( 0.000000000000000, 0.000000000000000, 1.00000000000000 ) );
#463 = DIRECTION( '', ( 1.00000000000000, 0.000000000000000, 0.000000000000000 ) );
#464 = DIRECTION( '', ( 0.000000000000000, 1.00000000000000, 0.000000000000000 ) );
#465 = DIRECTION( '', ( 0.000000000000000, 1.00000000000000, 0.000000000000000 ) );
#466 = DIRECTION( '', ( 1.37926407679271E-017, 0.000000000000000, 1.00000000000000 ) );
#467 = DIRECTION( '', ( 1.37926407679271E-017, 0.000000000000000, 1.00000000000000 ) );
#468 = DIRECTION( '', ( 1.37926407679271E-017, 0.000000000000000, 1.00000000000000 ) );
#469 = DIRECTION( '', ( 1.37926407679271E-017, 0.000000000000000, 1.00000000000000 ) );
#470 = CARTESIAN_POINT( '', ( 1.20685606719362E-016, 0.000000000000000, 14.0000000000000 ) );
#471 = DIRECTION( '', ( -1.37926407679271E-017, 0.000000000000000, -1.00000000000000 ) );
#472 = DIRECTION( '', ( -1.00000000000000, 0.000000000000000, 1.37926407679271E-017 ) );
#473 = CARTESIAN_POINT( '', ( 1.13789286335398E-016, 0.000000000000000, 13.5000000000000 ) );
#474 = DIRECTION( '', ( -1.37926407679271E-017, 0.000000000000000, -1.00000000000000 ) );
#475 = DIRECTION( '', ( -1.00000000000000, 0.000000000000000, 1.37926407679271E-017 ) );
ENDSEC;
END-ISO-10303-21;
