ISO-10303-21;
HEADER;
FILE_DESCRIPTION( ( 'Unknown' ), '1' );
FILE_NAME( '//SBS2003/HD_Usb/Disegni/08_LIB/Users_3D/PROD_GAMM_3D/APP-A/7747311_APP_12_AR.stp', 'Unknown', ( 'Unknown' ), ( 'Unknown' ), 'PSStep 14.0', 'Unknown', '  ' );
FILE_SCHEMA( ( 'AUTOMOTIVE_DESIGN { 1 0 10303 214 1 1 1 1 }' ) );
ENDSEC;
DATA;
#1 = MECHANICAL_DESIGN_GEOMETRIC_PRESENTATION_REPRESENTATION( ' ', ( #10, #11, #12, #13, #14, #15, #16, #17, #18, #19, #20, #21, #22 ), #6 );
#2 = PRODUCT_DEFINITION_CONTEXT( '', #23, 'design' );
#3 = APPLICATION_PROTOCOL_DEFINITION( 'international standard', 'automotive_design', 2001, #23 );
#4 = PRODUCT_CATEGORY_RELATIONSHIP( 'NONE', 'NONE', #24, #25 );
#5 = SHAPE_DEFINITION_REPRESENTATION( #26, #27 );
#6 =  ( GEOMETRIC_REPRESENTATION_CONTEXT( 3 )GLOBAL_UNCERTAINTY_ASSIGNED_CONTEXT( ( #30 ) )GLOBAL_UNIT_ASSIGNED_CONTEXT( ( #32, #33, #34 ) )REPRESENTATION_CONTEXT( 'NONE', 'WORKSPACE' ) );
#10 = STYLED_ITEM( '', ( #36 ), #37 );
#11 = STYLED_ITEM( '', ( #38 ), #39 );
#12 = STYLED_ITEM( '', ( #40 ), #41 );
#13 = STYLED_ITEM( '', ( #42 ), #43 );
#14 = STYLED_ITEM( '', ( #44 ), #45 );
#15 = STYLED_ITEM( '', ( #46 ), #47 );
#16 = STYLED_ITEM( '', ( #48 ), #49 );
#17 = STYLED_ITEM( '', ( #50 ), #51 );
#18 = STYLED_ITEM( '', ( #52 ), #53 );
#19 = STYLED_ITEM( '', ( #54 ), #55 );
#20 = STYLED_ITEM( '', ( #56 ), #57 );
#21 = STYLED_ITEM( '', ( #58 ), #59 );
#22 = STYLED_ITEM( '', ( #60 ), #61 );
#23 = APPLICATION_CONTEXT( 'core data for automotive mechanical design processes' );
#24 = PRODUCT_CATEGORY( 'part', 'NONE' );
#25 = PRODUCT_RELATED_PRODUCT_CATEGORY( 'detail', ' ', ( #62 ) );
#26 = PRODUCT_DEFINITION_SHAPE( 'NONE', 'NONE', #63 );
#27 = ADVANCED_BREP_SHAPE_REPRESENTATION( '1', ( #64, #65 ), #6 );
#30 = UNCERTAINTY_MEASURE_WITH_UNIT( LENGTH_MEASURE( 0.00100000000000000 ), #32, '', '' );
#32 =  ( CONVERSION_BASED_UNIT( 'MILLIMETRE', #68 )LENGTH_UNIT(  )NAMED_UNIT( #71 ) );
#33 =  ( NAMED_UNIT( #73 )PLANE_ANGLE_UNIT(  )SI_UNIT( $, .RADIAN. ) );
#34 =  ( NAMED_UNIT( #73 )SI_UNIT( $, .STERADIAN. )SOLID_ANGLE_UNIT(  ) );
#36 = PRESENTATION_STYLE_ASSIGNMENT( ( #79 ) );
#37 = ADVANCED_FACE( '', ( #80, #81 ), #82, .T. );
#38 = PRESENTATION_STYLE_ASSIGNMENT( ( #83 ) );
#39 = ADVANCED_FACE( '', ( #84 ), #85, .T. );
#40 = PRESENTATION_STYLE_ASSIGNMENT( ( #86 ) );
#41 = ADVANCED_FACE( '', ( #87 ), #88, .T. );
#42 = PRESENTATION_STYLE_ASSIGNMENT( ( #89 ) );
#43 = ADVANCED_FACE( '', ( #90 ), #91, .T. );
#44 = PRESENTATION_STYLE_ASSIGNMENT( ( #92 ) );
#45 = ADVANCED_FACE( '', ( #93, #94 ), #95, .T. );
#46 = PRESENTATION_STYLE_ASSIGNMENT( ( #96 ) );
#47 = ADVANCED_FACE( '', ( #97 ), #98, .T. );
#48 = PRESENTATION_STYLE_ASSIGNMENT( ( #99 ) );
#49 = ADVANCED_FACE( '', ( #100, #101 ), #102, .F. );
#50 = PRESENTATION_STYLE_ASSIGNMENT( ( #103 ) );
#51 = ADVANCED_FACE( '', ( #104, #105 ), #106, .T. );
#52 = PRESENTATION_STYLE_ASSIGNMENT( ( #107 ) );
#53 = ADVANCED_FACE( '', ( #108 ), #109, .F. );
#54 = PRESENTATION_STYLE_ASSIGNMENT( ( #110 ) );
#55 = ADVANCED_FACE( '', ( #111 ), #112, .F. );
#56 = PRESENTATION_STYLE_ASSIGNMENT( ( #113 ) );
#57 = ADVANCED_FACE( '', ( #114 ), #115, .T. );
#58 = PRESENTATION_STYLE_ASSIGNMENT( ( #116 ) );
#59 = ADVANCED_FACE( '', ( #117, #118 ), #119, .T. );
#60 = PRESENTATION_STYLE_ASSIGNMENT( ( #120 ) );
#61 = ADVANCED_FACE( '', ( #121 ), #122, .T. );
#62 = PRODUCT( '1', '1', 'PART-1-DESC', ( #123 ) );
#63 = PRODUCT_DEFINITION( 'NONE', 'NONE', #124, #2 );
#64 = MANIFOLD_SOLID_BREP( '1', #125 );
#65 = AXIS2_PLACEMENT_3D( '', #126, #127, #128 );
#68 = LENGTH_MEASURE_WITH_UNIT( LENGTH_MEASURE( 1.00000000000000 ), #129 );
#71 = DIMENSIONAL_EXPONENTS( 1.00000000000000, 0.000000000000000, 0.000000000000000, 0.000000000000000, 0.000000000000000, 0.000000000000000, 0.000000000000000 );
#73 = DIMENSIONAL_EXPONENTS( 0.000000000000000, 0.000000000000000, 0.000000000000000, 0.000000000000000, 0.000000000000000, 0.000000000000000, 0.000000000000000 );
#79 = SURFACE_STYLE_USAGE( .BOTH., #130 );
#80 = FACE_OUTER_BOUND( '', #131, .T. );
#81 = FACE_OUTER_BOUND( '', #132, .T. );
#82 = CYLINDRICAL_SURFACE( '', #133, 2.50000000000000 );
#83 = SURFACE_STYLE_USAGE( .BOTH., #134 );
#84 = FACE_OUTER_BOUND( '', #135, .T. );
#85 = CONICAL_SURFACE( '', #136, 2.00000000000000, 0.785398163397448 );
#86 = SURFACE_STYLE_USAGE( .BOTH., #137 );
#87 = FACE_OUTER_BOUND( '', #138, .T. );
#88 = SPHERICAL_SURFACE( '', #139, 1.20000000000000 );
#89 = SURFACE_STYLE_USAGE( .BOTH., #140 );
#90 = FACE_OUTER_BOUND( '', #141, .T. );
#91 = PLANE( '', #142 );
#92 = SURFACE_STYLE_USAGE( .BOTH., #143 );
#93 = FACE_BOUND( '', #144, .T. );
#94 = FACE_OUTER_BOUND( '', #145, .T. );
#95 = CONICAL_SURFACE( '', #146, 2.50000000000000, 0.785398163397449 );
#96 = SURFACE_STYLE_USAGE( .BOTH., #147 );
#97 = FACE_OUTER_BOUND( '', #148, .T. );
#98 = PLANE( '', #149 );
#99 = SURFACE_STYLE_USAGE( .BOTH., #150 );
#100 = FACE_OUTER_BOUND( '', #151, .T. );
#101 = FACE_BOUND( '', #152, .T. );
#102 = PLANE( '', #153 );
#103 = SURFACE_STYLE_USAGE( .BOTH., #154 );
#104 = FACE_OUTER_BOUND( '', #155, .T. );
#105 = FACE_OUTER_BOUND( '', #156, .T. );
#106 = CYLINDRICAL_SURFACE( '', #157, 1.75000000000000 );
#107 = SURFACE_STYLE_USAGE( .BOTH., #158 );
#108 = FACE_OUTER_BOUND( '', #159, .T. );
#109 = PLANE( '', #160 );
#110 = SURFACE_STYLE_USAGE( .BOTH., #161 );
#111 = FACE_OUTER_BOUND( '', #162, .T. );
#112 = PLANE( '', #163 );
#113 = SURFACE_STYLE_USAGE( .BOTH., #164 );
#114 = FACE_OUTER_BOUND( '', #165, .T. );
#115 = CONICAL_SURFACE( '', #166, 2.00000000000000, 0.785398163397448 );
#116 = SURFACE_STYLE_USAGE( .BOTH., #167 );
#117 = FACE_OUTER_BOUND( '', #168, .T. );
#118 = FACE_OUTER_BOUND( '', #169, .T. );
#119 = CYLINDRICAL_SURFACE( '', #170, 1.20000000000000 );
#120 = SURFACE_STYLE_USAGE( .BOTH., #171 );
#121 = FACE_OUTER_BOUND( '', #172, .T. );
#122 = PLANE( '', #173 );
#123 = PRODUCT_CONTEXT( '', #23, 'mechanical' );
#124 = PRODUCT_DEFINITION_FORMATION_WITH_SPECIFIED_SOURCE( ' ', 'NONE', #62, .NOT_KNOWN. );
#125 = CLOSED_SHELL( '', ( #37, #57, #43, #61, #39, #45, #41, #59, #53, #49, #51, #55, #47 ) );
#126 = CARTESIAN_POINT( '', ( 0.000000000000000, 0.000000000000000, 0.000000000000000 ) );
#127 = DIRECTION( '', ( 0.000000000000000, 0.000000000000000, 1.00000000000000 ) );
#128 = DIRECTION( '', ( 1.00000000000000, 0.000000000000000, 0.000000000000000 ) );
#129 =  ( LENGTH_UNIT(  )NAMED_UNIT( #71 )SI_UNIT( .MILLI., .METRE. ) );
#130 = SURFACE_SIDE_STYLE( '', ( #175 ) );
#131 = EDGE_LOOP( '', ( #176 ) );
#132 = EDGE_LOOP( '', ( #177, #178, #179, #180, #181, #182, #183, #184 ) );
#133 = AXIS2_PLACEMENT_3D( '', #185, #186, #187 );
#134 = SURFACE_SIDE_STYLE( '', ( #188 ) );
#135 = EDGE_LOOP( '', ( #189, #190, #191, #192 ) );
#136 = AXIS2_PLACEMENT_3D( '', #193, #194, #195 );
#137 = SURFACE_SIDE_STYLE( '', ( #196 ) );
#138 = EDGE_LOOP( '', ( #197 ) );
#139 = AXIS2_PLACEMENT_3D( '', #198, #199, #200 );
#140 = SURFACE_SIDE_STYLE( '', ( #201 ) );
#141 = EDGE_LOOP( '', ( #202, #203, #204, #205 ) );
#142 = AXIS2_PLACEMENT_3D( '', #206, #207, #208 );
#143 = SURFACE_SIDE_STYLE( '', ( #209 ) );
#144 = EDGE_LOOP( '', ( #210 ) );
#145 = EDGE_LOOP( '', ( #211 ) );
#146 = AXIS2_PLACEMENT_3D( '', #212, #213, #214 );
#147 = SURFACE_SIDE_STYLE( '', ( #215 ) );
#148 = EDGE_LOOP( '', ( #216, #217, #218, #219, #220, #221 ) );
#149 = AXIS2_PLACEMENT_3D( '', #222, #223, #224 );
#150 = SURFACE_SIDE_STYLE( '', ( #225 ) );
#151 = EDGE_LOOP( '', ( #226 ) );
#152 = EDGE_LOOP( '', ( #227 ) );
#153 = AXIS2_PLACEMENT_3D( '', #228, #229, #230 );
#154 = SURFACE_SIDE_STYLE( '', ( #231 ) );
#155 = EDGE_LOOP( '', ( #232 ) );
#156 = EDGE_LOOP( '', ( #233 ) );
#157 = AXIS2_PLACEMENT_3D( '', #234, #235, #236 );
#158 = SURFACE_SIDE_STYLE( '', ( #237 ) );
#159 = EDGE_LOOP( '', ( #238, #239 ) );
#160 = AXIS2_PLACEMENT_3D( '', #240, #241, #242 );
#161 = SURFACE_SIDE_STYLE( '', ( #243 ) );
#162 = EDGE_LOOP( '', ( #244, #245 ) );
#163 = AXIS2_PLACEMENT_3D( '', #246, #247, #248 );
#164 = SURFACE_SIDE_STYLE( '', ( #249 ) );
#165 = EDGE_LOOP( '', ( #250, #251, #252, #253 ) );
#166 = AXIS2_PLACEMENT_3D( '', #254, #255, #256 );
#167 = SURFACE_SIDE_STYLE( '', ( #257 ) );
#168 = EDGE_LOOP( '', ( #258 ) );
#169 = EDGE_LOOP( '', ( #259 ) );
#170 = AXIS2_PLACEMENT_3D( '', #260, #261, #262 );
#171 = SURFACE_SIDE_STYLE( '', ( #263 ) );
#172 = EDGE_LOOP( '', ( #264, #265, #266, #267, #268, #269 ) );
#173 = AXIS2_PLACEMENT_3D( '', #270, #271, #272 );
#175 = SURFACE_STYLE_FILL_AREA( #273 );
#176 = ORIENTED_EDGE( '', *, *, #274, .T. );
#177 = ORIENTED_EDGE( '', *, *, #275, .F. );
#178 = ORIENTED_EDGE( '', *, *, #276, .T. );
#179 = ORIENTED_EDGE( '', *, *, #277, .F. );
#180 = ORIENTED_EDGE( '', *, *, #278, .F. );
#181 = ORIENTED_EDGE( '', *, *, #279, .F. );
#182 = ORIENTED_EDGE( '', *, *, #280, .T. );
#183 = ORIENTED_EDGE( '', *, *, #281, .F. );
#184 = ORIENTED_EDGE( '', *, *, #282, .F. );
#185 = CARTESIAN_POINT( '', ( 7.24113640316170E-017, 0.000000000000000, 10.5000000000000 ) );
#186 = DIRECTION( '', ( -1.37926407679271E-017, -0.000000000000000, -1.00000000000000 ) );
#187 = DIRECTION( '', ( 1.00000000000000, 0.000000000000000, -1.37926407679271E-017 ) );
#188 = SURFACE_STYLE_FILL_AREA( #283 );
#189 = ORIENTED_EDGE( '', *, *, #284, .F. );
#190 = ORIENTED_EDGE( '', *, *, #276, .F. );
#191 = ORIENTED_EDGE( '', *, *, #285, .F. );
#192 = ORIENTED_EDGE( '', *, *, #286, .F. );
#193 = CARTESIAN_POINT( '', ( 1.20685606719362E-016, 0.000000000000000, 14.0000000000000 ) );
#194 = DIRECTION( '', ( -1.37926407679271E-017, 0.000000000000000, -1.00000000000000 ) );
#195 = DIRECTION( '', ( -1.00000000000000, 0.000000000000000, 1.37926407679271E-017 ) );
#196 = SURFACE_STYLE_FILL_AREA( #287 );
#197 = ORIENTED_EDGE( '', *, *, #288, .F. );
#198 = CARTESIAN_POINT( '', ( 0.000000000000000, 0.000000000000000, 1.20000000000000 ) );
#199 = DIRECTION( '', ( 1.37926407679271E-017, 0.000000000000000, 1.00000000000000 ) );
#200 = DIRECTION( '', ( 1.00000000000000, 0.000000000000000, -1.37926407679271E-017 ) );
#201 = SURFACE_STYLE_FILL_AREA( #289 );
#202 = ORIENTED_EDGE( '', *, *, #282, .T. );
#203 = ORIENTED_EDGE( '', *, *, #290, .F. );
#204 = ORIENTED_EDGE( '', *, *, #278, .T. );
#205 = ORIENTED_EDGE( '', *, *, #291, .T. );
#206 = CARTESIAN_POINT( '', ( -0.250000000000000, -15.0000000000000, 13.0000000000000 ) );
#207 = DIRECTION( '', ( 0.000000000000000, 0.000000000000000, 1.00000000000000 ) );
#208 = DIRECTION( '', ( 1.00000000000000, 0.000000000000000, 0.000000000000000 ) );
#209 = SURFACE_STYLE_FILL_AREA( #292 );
#210 = ORIENTED_EDGE( '', *, *, #293, .F. );
#211 = ORIENTED_EDGE( '', *, *, #274, .F. );
#212 = CARTESIAN_POINT( '', ( -2.41371213438723E-017, 0.000000000000000, 3.50000000000000 ) );
#213 = DIRECTION( '', ( 1.37926407679270E-017, -0.000000000000000, 1.00000000000000 ) );
#214 = DIRECTION( '', ( 1.00000000000000, 0.000000000000000, -1.37926407679270E-017 ) );
#215 = SURFACE_STYLE_FILL_AREA( #294 );
#216 = ORIENTED_EDGE( '', *, *, #295, .F. );
#217 = ORIENTED_EDGE( '', *, *, #296, .T. );
#218 = ORIENTED_EDGE( '', *, *, #279, .T. );
#219 = ORIENTED_EDGE( '', *, *, #290, .T. );
#220 = ORIENTED_EDGE( '', *, *, #281, .T. );
#221 = ORIENTED_EDGE( '', *, *, #297, .T. );
#222 = CARTESIAN_POINT( '', ( -0.250000000000000, -15.0000000000000, 14.0000000000000 ) );
#223 = DIRECTION( '', ( 1.00000000000000, 0.000000000000000, 1.08420217248550E-016 ) );
#224 = DIRECTION( '', ( 1.08420217248550E-016, 0.000000000000000, -1.00000000000000 ) );
#225 = SURFACE_STYLE_FILL_AREA( #298 );
#226 = ORIENTED_EDGE( '', *, *, #299, .F. );
#227 = ORIENTED_EDGE( '', *, *, #300, .T. );
#228 = CARTESIAN_POINT( '', ( 1.20000000000000, 0.000000000000000, 2.00000000000000 ) );
#229 = DIRECTION( '', ( 1.37926407679271E-017, 0.000000000000000, 1.00000000000000 ) );
#230 = DIRECTION( '', ( 1.00000000000000, 0.000000000000000, -1.37926407679271E-017 ) );
#231 = SURFACE_STYLE_FILL_AREA( #301 );
#232 = ORIENTED_EDGE( '', *, *, #293, .T. );
#233 = ORIENTED_EDGE( '', *, *, #299, .T. );
#234 = CARTESIAN_POINT( '', ( 7.24113640316170E-017, 0.000000000000000, 10.5000000000000 ) );
#235 = DIRECTION( '', ( -1.37926407679271E-017, -0.000000000000000, -1.00000000000000 ) );
#236 = DIRECTION( '', ( 1.00000000000000, 0.000000000000000, -1.37926407679271E-017 ) );
#237 = SURFACE_STYLE_FILL_AREA( #302 );
#238 = ORIENTED_EDGE( '', *, *, #303, .F. );
#239 = ORIENTED_EDGE( '', *, *, #286, .T. );
#240 = CARTESIAN_POINT( '', ( 2.50000000000000, 0.000000000000000, 14.0000000000000 ) );
#241 = DIRECTION( '', ( -1.37926407679271E-017, 0.000000000000000, -1.00000000000000 ) );
#242 = DIRECTION( '', ( -1.00000000000000, 0.000000000000000, 1.37926407679271E-017 ) );
#243 = SURFACE_STYLE_FILL_AREA( #304 );
#244 = ORIENTED_EDGE( '', *, *, #295, .T. );
#245 = ORIENTED_EDGE( '', *, *, #305, .T. );
#246 = CARTESIAN_POINT( '', ( 2.50000000000000, 0.000000000000000, 14.0000000000000 ) );
#247 = DIRECTION( '', ( -1.37926407679271E-017, 0.000000000000000, -1.00000000000000 ) );
#248 = DIRECTION( '', ( -1.00000000000000, 0.000000000000000, 1.37926407679271E-017 ) );
#249 = SURFACE_STYLE_FILL_AREA( #306 );
#250 = ORIENTED_EDGE( '', *, *, #297, .F. );
#251 = ORIENTED_EDGE( '', *, *, #280, .F. );
#252 = ORIENTED_EDGE( '', *, *, #296, .F. );
#253 = ORIENTED_EDGE( '', *, *, #305, .F. );
#254 = CARTESIAN_POINT( '', ( 1.20685606719362E-016, 0.000000000000000, 14.0000000000000 ) );
#255 = DIRECTION( '', ( -1.37926407679271E-017, 0.000000000000000, -1.00000000000000 ) );
#256 = DIRECTION( '', ( -1.00000000000000, 0.000000000000000, 1.37926407679271E-017 ) );
#257 = SURFACE_STYLE_FILL_AREA( #307 );
#258 = ORIENTED_EDGE( '', *, *, #300, .F. );
#259 = ORIENTED_EDGE( '', *, *, #288, .T. );
#260 = CARTESIAN_POINT( '', ( 7.24113640316170E-017, 0.000000000000000, 10.5000000000000 ) );
#261 = DIRECTION( '', ( -1.37926407679271E-017, -0.000000000000000, -1.00000000000000 ) );
#262 = DIRECTION( '', ( 1.00000000000000, 0.000000000000000, -1.37926407679271E-017 ) );
#263 = SURFACE_STYLE_FILL_AREA( #308 );
#264 = ORIENTED_EDGE( '', *, *, #303, .T. );
#265 = ORIENTED_EDGE( '', *, *, #285, .T. );
#266 = ORIENTED_EDGE( '', *, *, #275, .T. );
#267 = ORIENTED_EDGE( '', *, *, #291, .F. );
#268 = ORIENTED_EDGE( '', *, *, #277, .T. );
#269 = ORIENTED_EDGE( '', *, *, #284, .T. );
#270 = CARTESIAN_POINT( '', ( 0.250000000000000, -15.0000000000000, 13.0000000000000 ) );
#271 = DIRECTION( '', ( -1.00000000000000, 0.000000000000000, 1.08420217248550E-016 ) );
#272 = DIRECTION( '', ( 1.08420217248550E-016, 0.000000000000000, 1.00000000000000 ) );
#273 = FILL_AREA_STYLE( '', ( #309 ) );
#274 = EDGE_CURVE( '', #310, #310, #311, .T. );
#275 = EDGE_CURVE( '', #312, #313, #314, .F. );
#276 = EDGE_CURVE( '', #312, #315, #316, .T. );
#277 = EDGE_CURVE( '', #317, #315, #318, .T. );
#278 = EDGE_CURVE( '', #319, #317, #320, .T. );
#279 = EDGE_CURVE( '', #321, #319, #322, .F. );
#280 = EDGE_CURVE( '', #321, #323, #324, .T. );
#281 = EDGE_CURVE( '', #325, #323, #326, .T. );
#282 = EDGE_CURVE( '', #313, #325, #327, .T. );
#283 = FILL_AREA_STYLE( '', ( #328 ) );
#284 = EDGE_CURVE( '', #315, #329, #330, .T. );
#285 = EDGE_CURVE( '', #331, #312, #332, .T. );
#286 = EDGE_CURVE( '', #329, #331, #333, .F. );
#287 = FILL_AREA_STYLE( '', ( #334 ) );
#288 = EDGE_CURVE( '', #335, #335, #336, .T. );
#289 = FILL_AREA_STYLE( '', ( #337 ) );
#290 = EDGE_CURVE( '', #319, #325, #338, .T. );
#291 = EDGE_CURVE( '', #317, #313, #339, .T. );
#292 = FILL_AREA_STYLE( '', ( #340 ) );
#293 = EDGE_CURVE( '', #341, #341, #342, .F. );
#294 = FILL_AREA_STYLE( '', ( #343 ) );
#295 = EDGE_CURVE( '', #344, #345, #346, .T. );
#296 = EDGE_CURVE( '', #344, #321, #347, .T. );
#297 = EDGE_CURVE( '', #323, #345, #348, .T. );
#298 = FILL_AREA_STYLE( '', ( #349 ) );
#299 = EDGE_CURVE( '', #350, #350, #351, .T. );
#300 = EDGE_CURVE( '', #352, #352, #353, .T. );
#301 = FILL_AREA_STYLE( '', ( #354 ) );
#302 = FILL_AREA_STYLE( '', ( #355 ) );
#303 = EDGE_CURVE( '', #329, #331, #356, .T. );
#304 = FILL_AREA_STYLE( '', ( #357 ) );
#305 = EDGE_CURVE( '', #345, #344, #358, .F. );
#306 = FILL_AREA_STYLE( '', ( #359 ) );
#307 = FILL_AREA_STYLE( '', ( #360 ) );
#308 = FILL_AREA_STYLE( '', ( #361 ) );
#309 = FILL_AREA_STYLE_COLOUR( '', #362 );
#310 = VERTEX_POINT( '', #363 );
#311 = CIRCLE( '', #364, 2.50000000000000 );
#312 = VERTEX_POINT( '', #365 );
#313 = VERTEX_POINT( '', #366 );
#314 = LINE( '', #367, #368 );
#315 = VERTEX_POINT( '', #369 );
#316 = CIRCLE( '', #370, 2.50000000000000 );
#317 = VERTEX_POINT( '', #371 );
#318 = LINE( '', #372, #373 );
#319 = VERTEX_POINT( '', #374 );
#320 = CIRCLE( '', #375, 2.50000000000000 );
#321 = VERTEX_POINT( '', #376 );
#322 = LINE( '', #377, #378 );
#323 = VERTEX_POINT( '', #379 );
#324 = CIRCLE( '', #380, 2.50000000000000 );
#325 = VERTEX_POINT( '', #381 );
#326 = LINE( '', #382, #383 );
#327 = CIRCLE( '', #384, 2.50000000000000 );
#328 = FILL_AREA_STYLE_COLOUR( '', #385 );
#329 = VERTEX_POINT( '', #386 );
#330 = B_SPLINE_CURVE_WITH_KNOTS( '', 3, ( #387, #388, #389, #390 ), .UNSPECIFIED., .F., .F., ( 4, 4 ), ( 0.000000000000000, 0.000709341288932106 ), .UNSPECIFIED. );
#331 = VERTEX_POINT( '', #391 );
#332 = B_SPLINE_CURVE_WITH_KNOTS( '', 3, ( #392, #393, #394, #395 ), .UNSPECIFIED., .F., .F., ( 4, 4 ), ( 0.000000000000000, 0.000709341288932106 ), .UNSPECIFIED. );
#333 = CIRCLE( '', #396, 2.00000000000000 );
#334 = FILL_AREA_STYLE_COLOUR( '', #397 );
#335 = VERTEX_POINT( '', #398 );
#336 = CIRCLE( '', #399, 1.20000000000000 );
#337 = FILL_AREA_STYLE_COLOUR( '', #400 );
#338 = LINE( '', #401, #402 );
#339 = LINE( '', #403, #404 );
#340 = FILL_AREA_STYLE_COLOUR( '', #405 );
#341 = VERTEX_POINT( '', #406 );
#342 = CIRCLE( '', #407, 1.75000000000000 );
#343 = FILL_AREA_STYLE_COLOUR( '', #408 );
#344 = VERTEX_POINT( '', #409 );
#345 = VERTEX_POINT( '', #410 );
#346 = LINE( '', #411, #412 );
#347 = B_SPLINE_CURVE_WITH_KNOTS( '', 3, ( #413, #414, #415, #416 ), .UNSPECIFIED., .F., .F., ( 4, 4 ), ( 0.000000000000000, 0.000709341288932106 ), .UNSPECIFIED. );
#348 = B_SPLINE_CURVE_WITH_KNOTS( '', 3, ( #417, #418, #419, #420 ), .UNSPECIFIED., .F., .F., ( 4, 4 ), ( 0.000000000000000, 0.000709341288932106 ), .UNSPECIFIED. );
#349 = FILL_AREA_STYLE_COLOUR( '', #421 );
#350 = VERTEX_POINT( '', #422 );
#351 = CIRCLE( '', #423, 1.75000000000000 );
#352 = VERTEX_POINT( '', #424 );
#353 = CIRCLE( '', #425, 1.20000000000000 );
#354 = FILL_AREA_STYLE_COLOUR( '', #426 );
#355 = FILL_AREA_STYLE_COLOUR( '', #427 );
#356 = LINE( '', #428, #429 );
#357 = FILL_AREA_STYLE_COLOUR( '', #430 );
#358 = CIRCLE( '', #431, 2.00000000000000 );
#359 = FILL_AREA_STYLE_COLOUR( '', #432 );
#360 = FILL_AREA_STYLE_COLOUR( '', #433 );
#361 = FILL_AREA_STYLE_COLOUR( '', #434 );
#362 = COLOUR_RGB( '', 0.752941191196442, 0.752941191196442, 0.752941191196442 );
#363 = CARTESIAN_POINT( '', ( 2.50000000000000, 0.000000000000000, 3.50000000000000 ) );
#364 = AXIS2_PLACEMENT_3D( '', #435, #436, #437 );
#365 = CARTESIAN_POINT( '', ( 0.250000000000000, 2.48746859276655, 13.5000000000000 ) );
#366 = CARTESIAN_POINT( '', ( 0.250000000000000, 2.48746859276655, 13.0000000000000 ) );
#367 = CARTESIAN_POINT( '', ( 0.250000000000000, 2.48746859276655, 10.5000000000000 ) );
#368 = VECTOR( '', #438, 1000.00000000000 );
#369 = CARTESIAN_POINT( '', ( 0.250000000000000, -2.48746859276655, 13.5000000000000 ) );
#370 = AXIS2_PLACEMENT_3D( '', #439, #440, #441 );
#371 = CARTESIAN_POINT( '', ( 0.250000000000000, -2.48746859276655, 13.0000000000000 ) );
#372 = CARTESIAN_POINT( '', ( 0.250000000000000, -2.48746859276655, 10.5000000000000 ) );
#373 = VECTOR( '', #442, 1000.00000000000 );
#374 = CARTESIAN_POINT( '', ( -0.250000000000000, -2.48746859276655, 13.0000000000000 ) );
#375 = AXIS2_PLACEMENT_3D( '', #443, #444, #445 );
#376 = CARTESIAN_POINT( '', ( -0.250000000000000, -2.48746859276655, 13.5000000000000 ) );
#377 = CARTESIAN_POINT( '', ( -0.250000000000000, -2.48746859276655, 10.5000000000000 ) );
#378 = VECTOR( '', #446, 1000.00000000000 );
#379 = CARTESIAN_POINT( '', ( -0.250000000000000, 2.48746859276655, 13.5000000000000 ) );
#380 = AXIS2_PLACEMENT_3D( '', #447, #448, #449 );
#381 = CARTESIAN_POINT( '', ( -0.250000000000000, 2.48746859276655, 13.0000000000000 ) );
#382 = CARTESIAN_POINT( '', ( -0.250000000000000, 2.48746859276655, 10.5000000000000 ) );
#383 = VECTOR( '', #450, 1000.00000000000 );
#384 = AXIS2_PLACEMENT_3D( '', #451, #452, #453 );
#385 = COLOUR_RGB( '', 0.200000002980232, 0.200000002980232, 0.200000002980232 );
#386 = CARTESIAN_POINT( '', ( 0.250000000000000, -1.98431348329844, 14.0000000000000 ) );
#387 = CARTESIAN_POINT( '', ( 0.250000000000000, -2.48746859276655, 13.5000000000000 ) );
#388 = CARTESIAN_POINT( '', ( 0.250000000000000, -2.31985569021310, 13.6667727323377 ) );
#389 = CARTESIAN_POINT( '', ( 0.250000000000000, -2.15216377933352, 13.8334661972010 ) );
#390 = CARTESIAN_POINT( '', ( 0.250000000000000, -1.98431348329844, 14.0000000000000 ) );
#391 = CARTESIAN_POINT( '', ( 0.250000000000000, 1.98431348329844, 14.0000000000000 ) );
#392 = CARTESIAN_POINT( '', ( 0.250000000000000, 1.98431348329844, 14.0000000000000 ) );
#393 = CARTESIAN_POINT( '', ( 0.250000000000000, 2.15216377933352, 13.8334661972010 ) );
#394 = CARTESIAN_POINT( '', ( 0.250000000000000, 2.31985569021310, 13.6667727323377 ) );
#395 = CARTESIAN_POINT( '', ( 0.250000000000000, 2.48746859276655, 13.5000000000000 ) );
#396 = AXIS2_PLACEMENT_3D( '', #454, #455, #456 );
#397 = COLOUR_RGB( '', 0.200000002980232, 0.200000002980232, 0.200000002980232 );
#398 = CARTESIAN_POINT( '', ( 1.20000000000000, 0.000000000000000, 1.20000000000000 ) );
#399 = AXIS2_PLACEMENT_3D( '', #457, #458, #459 );
#400 = COLOUR_RGB( '', 0.200000002980232, 0.200000002980232, 0.200000002980232 );
#401 = CARTESIAN_POINT( '', ( -0.250000000000000, -15.0000000000000, 13.0000000000000 ) );
#402 = VECTOR( '', #460, 1000.00000000000 );
#403 = CARTESIAN_POINT( '', ( 0.250000000000000, -15.0000000000000, 13.0000000000000 ) );
#404 = VECTOR( '', #461, 1000.00000000000 );
#405 = COLOUR_RGB( '', 0.200000002980232, 0.200000002980232, 0.200000002980232 );
#406 = CARTESIAN_POINT( '', ( 1.75000000000000, 0.000000000000000, 2.75000000000000 ) );
#407 = AXIS2_PLACEMENT_3D( '', #462, #463, #464 );
#408 = COLOUR_RGB( '', 0.200000002980232, 0.200000002980232, 0.200000002980232 );
#409 = CARTESIAN_POINT( '', ( -0.250000000000000, -1.98431348329844, 14.0000000000000 ) );
#410 = CARTESIAN_POINT( '', ( -0.250000000000000, 1.98431348329844, 14.0000000000000 ) );
#411 = CARTESIAN_POINT( '', ( -0.250000000000000, -15.0000000000000, 14.0000000000000 ) );
#412 = VECTOR( '', #465, 1000.00000000000 );
#413 = CARTESIAN_POINT( '', ( -0.250000000000000, -1.98431348329844, 14.0000000000000 ) );
#414 = CARTESIAN_POINT( '', ( -0.250000000000000, -2.15216377933352, 13.8334661972010 ) );
#415 = CARTESIAN_POINT( '', ( -0.250000000000000, -2.31985569021310, 13.6667727323377 ) );
#416 = CARTESIAN_POINT( '', ( -0.250000000000000, -2.48746859276655, 13.5000000000000 ) );
#417 = CARTESIAN_POINT( '', ( -0.250000000000000, 2.48746859276655, 13.5000000000000 ) );
#418 = CARTESIAN_POINT( '', ( -0.250000000000000, 2.31985569021310, 13.6667727323377 ) );
#419 = CARTESIAN_POINT( '', ( -0.250000000000000, 2.15216377933351, 13.8334661972010 ) );
#420 = CARTESIAN_POINT( '', ( -0.250000000000000, 1.98431348329844, 14.0000000000000 ) );
#421 = COLOUR_RGB( '', 0.200000002980232, 0.200000002980232, 0.200000002980232 );
#422 = CARTESIAN_POINT( '', ( 1.75000000000000, 0.000000000000000, 2.00000000000000 ) );
#423 = AXIS2_PLACEMENT_3D( '', #466, #467, #468 );
#424 = CARTESIAN_POINT( '', ( 1.20000000000000, 0.000000000000000, 2.00000000000000 ) );
#425 = AXIS2_PLACEMENT_3D( '', #469, #470, #471 );
#426 = COLOUR_RGB( '', 0.200000002980232, 0.200000002980232, 0.200000002980232 );
#427 = COLOUR_RGB( '', 0.200000002980232, 0.200000002980232, 0.200000002980232 );
#428 = CARTESIAN_POINT( '', ( 0.250000000000000, -15.0000000000000, 14.0000000000000 ) );
#429 = VECTOR( '', #472, 1000.00000000000 );
#430 = COLOUR_RGB( '', 0.200000002980232, 0.200000002980232, 0.200000002980232 );
#431 = AXIS2_PLACEMENT_3D( '', #473, #474, #475 );
#432 = COLOUR_RGB( '', 0.200000002980232, 0.200000002980232, 0.200000002980232 );
#433 = COLOUR_RGB( '', 0.200000002980232, 0.200000002980232, 0.200000002980232 );
#434 = COLOUR_RGB( '', 0.200000002980232, 0.200000002980232, 0.200000002980232 );
#435 = CARTESIAN_POINT( '', ( -2.41371213438723E-017, 0.000000000000000, 3.50000000000000 ) );
#436 = DIRECTION( '', ( 1.37926407679270E-017, 0.000000000000000, 1.00000000000000 ) );
#437 = DIRECTION( '', ( 1.00000000000000, 0.000000000000000, -1.37926407679270E-017 ) );
#438 = DIRECTION( '', ( 1.37926407679271E-017, 0.000000000000000, 1.00000000000000 ) );
#439 = CARTESIAN_POINT( '', ( 1.13789286335398E-016, 0.000000000000000, 13.5000000000000 ) );
#440 = DIRECTION( '', ( -1.37926407679271E-017, 0.000000000000000, -1.00000000000000 ) );
#441 = DIRECTION( '', ( -1.00000000000000, 0.000000000000000, 1.37926407679271E-017 ) );
#442 = DIRECTION( '', ( 1.37926407679271E-017, 0.000000000000000, 1.00000000000000 ) );
#443 = CARTESIAN_POINT( '', ( 1.06892965951435E-016, 0.000000000000000, 13.0000000000000 ) );
#444 = DIRECTION( '', ( 0.000000000000000, 0.000000000000000, 1.00000000000000 ) );
#445 = DIRECTION( '', ( 1.00000000000000, 0.000000000000000, 0.000000000000000 ) );
#446 = DIRECTION( '', ( 1.37926407679271E-017, 0.000000000000000, 1.00000000000000 ) );
#447 = CARTESIAN_POINT( '', ( 1.13789286335398E-016, 0.000000000000000, 13.5000000000000 ) );
#448 = DIRECTION( '', ( -1.37926407679271E-017, 0.000000000000000, -1.00000000000000 ) );
#449 = DIRECTION( '', ( -1.00000000000000, 0.000000000000000, 1.37926407679271E-017 ) );
#450 = DIRECTION( '', ( 1.37926407679271E-017, 0.000000000000000, 1.00000000000000 ) );
#451 = CARTESIAN_POINT( '', ( 1.06892965951435E-016, 0.000000000000000, 13.0000000000000 ) );
#452 = DIRECTION( '', ( 0.000000000000000, 0.000000000000000, 1.00000000000000 ) );
#453 = DIRECTION( '', ( 1.00000000000000, 0.000000000000000, 0.000000000000000 ) );
#454 = CARTESIAN_POINT( '', ( 1.20685606719362E-016, 0.000000000000000, 14.0000000000000 ) );
#455 = DIRECTION( '', ( -1.37926407679271E-017, 0.000000000000000, -1.00000000000000 ) );
#456 = DIRECTION( '', ( -1.00000000000000, 0.000000000000000, 1.37926407679271E-017 ) );
#457 = CARTESIAN_POINT( '', ( -5.58601951101045E-017, 0.000000000000000, 1.20000000000000 ) );
#458 = DIRECTION( '', ( 1.37926407679271E-017, 0.000000000000000, 1.00000000000000 ) );
#459 = DIRECTION( '', ( 1.00000000000000, 0.000000000000000, -1.37926407679271E-017 ) );
#460 = DIRECTION( '', ( 0.000000000000000, 1.00000000000000, 0.000000000000000 ) );
#461 = DIRECTION( '', ( 0.000000000000000, 1.00000000000000, 0.000000000000000 ) );
#462 = CARTESIAN_POINT( '', ( -3.44816019198176E-017, 0.000000000000000, 2.75000000000000 ) );
#463 = DIRECTION( '', ( 1.37926407679270E-017, 0.000000000000000, 1.00000000000000 ) );
#464 = DIRECTION( '', ( 1.00000000000000, 0.000000000000000, -1.37926407679270E-017 ) );
#465 = DIRECTION( '', ( 0.000000000000000, 1.00000000000000, 0.000000000000000 ) );
#466 = CARTESIAN_POINT( '', ( -4.48260824957630E-017, 0.000000000000000, 2.00000000000000 ) );
#467 = DIRECTION( '', ( 1.37926407679271E-017, 0.000000000000000, 1.00000000000000 ) );
#468 = DIRECTION( '', ( 1.00000000000000, 0.000000000000000, -1.37926407679271E-017 ) );
#469 = CARTESIAN_POINT( '', ( -4.48260824957630E-017, 0.000000000000000, 2.00000000000000 ) );
#470 = DIRECTION( '', ( 1.37926407679271E-017, 0.000000000000000, 1.00000000000000 ) );
#471 = DIRECTION( '', ( 1.00000000000000, 0.000000000000000, -1.37926407679271E-017 ) );
#472 = DIRECTION( '', ( 0.000000000000000, 1.00000000000000, 0.000000000000000 ) );
#473 = CARTESIAN_POINT( '', ( 1.20685606719362E-016, 0.000000000000000, 14.0000000000000 ) );
#474 = DIRECTION( '', ( -1.37926407679271E-017, 0.000000000000000, -1.00000000000000 ) );
#475 = DIRECTION( '', ( -1.00000000000000, 0.000000000000000, 1.37926407679271E-017 ) );
ENDSEC;
END-ISO-10303-21;
