ISO-10303-21;
HEADER;
FILE_DESCRIPTION( ( 'Unknown' ), '1' );
FILE_NAME( '//SBS2003/HD_Usb/Disegni/08_LIB/Users_3D/PROD_GAMM_3D/APP-A/7747315_APP_14_A.stp', 'Unknown', ( 'Unknown' ), ( 'Unknown' ), 'PSStep 14.0', 'Unknown', '  ' );
FILE_SCHEMA( ( 'AUTOMOTIVE_DESIGN { 1 0 10303 214 1 1 1 1 }' ) );
ENDSEC;
DATA;
#1 = MECHANICAL_DESIGN_GEOMETRIC_PRESENTATION_REPRESENTATION( ' ', ( #10, #11, #12, #13, #14, #15, #16, #17, #18, #19, #20, #21, #22 ), #6 );
#2 = PRODUCT_DEFINITION_CONTEXT( '', #23, 'design' );
#3 = APPLICATION_PROTOCOL_DEFINITION( 'international standard', 'automotive_design', 2001, #23 );
#4 = PRODUCT_CATEGORY_RELATIONSHIP( 'NONE', 'NONE', #24, #25 );
#5 = SHAPE_DEFINITION_REPRESENTATION( #26, #27 );
#6 =  ( GEOMETRIC_REPRESENTATION_CONTEXT( 3 )GLOBAL_UNCERTAINTY_ASSIGNED_CONTEXT( ( #30 ) )GLOBAL_UNIT_ASSIGNED_CONTEXT( ( #32, #33, #34 ) )REPRESENTATION_CONTEXT( 'NONE', 'WORKSPACE' ) );
#10 = STYLED_ITEM( '', ( #36 ), #37 );
#11 = STYLED_ITEM( '', ( #38 ), #39 );
#12 = STYLED_ITEM( '', ( #40 ), #41 );
#13 = STYLED_ITEM( '', ( #42 ), #43 );
#14 = STYLED_ITEM( '', ( #44 ), #45 );
#15 = STYLED_ITEM( '', ( #46 ), #47 );
#16 = STYLED_ITEM( '', ( #48 ), #49 );
#17 = STYLED_ITEM( '', ( #50 ), #51 );
#18 = STYLED_ITEM( '', ( #52 ), #53 );
#19 = STYLED_ITEM( '', ( #54 ), #55 );
#20 = STYLED_ITEM( '', ( #56 ), #57 );
#21 = STYLED_ITEM( '', ( #58 ), #59 );
#22 = STYLED_ITEM( '', ( #60 ), #61 );
#23 = APPLICATION_CONTEXT( 'core data for automotive mechanical design processes' );
#24 = PRODUCT_CATEGORY( 'part', 'NONE' );
#25 = PRODUCT_RELATED_PRODUCT_CATEGORY( 'detail', ' ', ( #62 ) );
#26 = PRODUCT_DEFINITION_SHAPE( 'NONE', 'NONE', #63 );
#27 = ADVANCED_BREP_SHAPE_REPRESENTATION( '1', ( #64, #65 ), #6 );
#30 = UNCERTAINTY_MEASURE_WITH_UNIT( LENGTH_MEASURE( 0.00100000000000000 ), #32, '', '' );
#32 =  ( CONVERSION_BASED_UNIT( 'MILLIMETRE', #68 )LENGTH_UNIT(  )NAMED_UNIT( #71 ) );
#33 =  ( NAMED_UNIT( #73 )PLANE_ANGLE_UNIT(  )SI_UNIT( $, .RADIAN. ) );
#34 =  ( NAMED_UNIT( #73 )SI_UNIT( $, .STERADIAN. )SOLID_ANGLE_UNIT(  ) );
#36 = PRESENTATION_STYLE_ASSIGNMENT( ( #79 ) );
#37 = ADVANCED_FACE( '', ( #80, #81 ), #82, .T. );
#38 = PRESENTATION_STYLE_ASSIGNMENT( ( #83 ) );
#39 = ADVANCED_FACE( '', ( #84, #85 ), #86, .F. );
#40 = PRESENTATION_STYLE_ASSIGNMENT( ( #87 ) );
#41 = ADVANCED_FACE( '', ( #88 ), #89, .F. );
#42 = PRESENTATION_STYLE_ASSIGNMENT( ( #90 ) );
#43 = ADVANCED_FACE( '', ( #91, #92 ), #93, .T. );
#44 = PRESENTATION_STYLE_ASSIGNMENT( ( #94 ) );
#45 = ADVANCED_FACE( '', ( #95 ), #96, .T. );
#46 = PRESENTATION_STYLE_ASSIGNMENT( ( #97 ) );
#47 = ADVANCED_FACE( '', ( #98 ), #99, .F. );
#48 = PRESENTATION_STYLE_ASSIGNMENT( ( #100 ) );
#49 = ADVANCED_FACE( '', ( #101 ), #102, .T. );
#50 = PRESENTATION_STYLE_ASSIGNMENT( ( #103 ) );
#51 = ADVANCED_FACE( '', ( #104, #105 ), #106, .T. );
#52 = PRESENTATION_STYLE_ASSIGNMENT( ( #107 ) );
#53 = ADVANCED_FACE( '', ( #108 ), #109, .T. );
#54 = PRESENTATION_STYLE_ASSIGNMENT( ( #110 ) );
#55 = ADVANCED_FACE( '', ( #111 ), #112, .T. );
#56 = PRESENTATION_STYLE_ASSIGNMENT( ( #113 ) );
#57 = ADVANCED_FACE( '', ( #114, #115 ), #116, .T. );
#58 = PRESENTATION_STYLE_ASSIGNMENT( ( #117 ) );
#59 = ADVANCED_FACE( '', ( #118 ), #119, .T. );
#60 = PRESENTATION_STYLE_ASSIGNMENT( ( #120 ) );
#61 = ADVANCED_FACE( '', ( #121 ), #122, .T. );
#62 = PRODUCT( '1', '1', 'PART-1-DESC', ( #123 ) );
#63 = PRODUCT_DEFINITION( 'NONE', 'NONE', #124, #2 );
#64 = MANIFOLD_SOLID_BREP( '1', #125 );
#65 = AXIS2_PLACEMENT_3D( '', #126, #127, #128 );
#68 = LENGTH_MEASURE_WITH_UNIT( LENGTH_MEASURE( 1.00000000000000 ), #129 );
#71 = DIMENSIONAL_EXPONENTS( 1.00000000000000, 0.000000000000000, 0.000000000000000, 0.000000000000000, 0.000000000000000, 0.000000000000000, 0.000000000000000 );
#73 = DIMENSIONAL_EXPONENTS( 0.000000000000000, 0.000000000000000, 0.000000000000000, 0.000000000000000, 0.000000000000000, 0.000000000000000, 0.000000000000000 );
#79 = SURFACE_STYLE_USAGE( .BOTH., #130 );
#80 = FACE_OUTER_BOUND( '', #131, .T. );
#81 = FACE_OUTER_BOUND( '', #132, .T. );
#82 = CYLINDRICAL_SURFACE( '', #133, 1.35000000000000 );
#83 = SURFACE_STYLE_USAGE( .BOTH., #134 );
#84 = FACE_OUTER_BOUND( '', #135, .T. );
#85 = FACE_BOUND( '', #136, .T. );
#86 = PLANE( '', #137 );
#87 = SURFACE_STYLE_USAGE( .BOTH., #138 );
#88 = FACE_OUTER_BOUND( '', #139, .T. );
#89 = PLANE( '', #140 );
#90 = SURFACE_STYLE_USAGE( .BOTH., #141 );
#91 = FACE_OUTER_BOUND( '', #142, .T. );
#92 = FACE_OUTER_BOUND( '', #143, .T. );
#93 = CYLINDRICAL_SURFACE( '', #144, 3.00000000000000 );
#94 = SURFACE_STYLE_USAGE( .BOTH., #145 );
#95 = FACE_OUTER_BOUND( '', #146, .T. );
#96 = CONICAL_SURFACE( '', #147, 2.50000000000000, 0.785398163397448 );
#97 = SURFACE_STYLE_USAGE( .BOTH., #148 );
#98 = FACE_OUTER_BOUND( '', #149, .T. );
#99 = PLANE( '', #150 );
#100 = SURFACE_STYLE_USAGE( .BOTH., #151 );
#101 = FACE_OUTER_BOUND( '', #152, .T. );
#102 = SPHERICAL_SURFACE( '', #153, 1.35000000000000 );
#103 = SURFACE_STYLE_USAGE( .BOTH., #154 );
#104 = FACE_OUTER_BOUND( '', #155, .T. );
#105 = FACE_OUTER_BOUND( '', #156, .T. );
#106 = CYLINDRICAL_SURFACE( '', #157, 2.00000000000000 );
#107 = SURFACE_STYLE_USAGE( .BOTH., #158 );
#108 = FACE_OUTER_BOUND( '', #159, .T. );
#109 = PLANE( '', #160 );
#110 = SURFACE_STYLE_USAGE( .BOTH., #161 );
#111 = FACE_OUTER_BOUND( '', #162, .T. );
#112 = CONICAL_SURFACE( '', #163, 2.50000000000000, 0.785398163397448 );
#113 = SURFACE_STYLE_USAGE( .BOTH., #164 );
#114 = FACE_BOUND( '', #165, .T. );
#115 = FACE_OUTER_BOUND( '', #166, .T. );
#116 = CONICAL_SURFACE( '', #167, 3.00000000000000, 0.785398163397449 );
#117 = SURFACE_STYLE_USAGE( .BOTH., #168 );
#118 = FACE_OUTER_BOUND( '', #169, .T. );
#119 = PLANE( '', #170 );
#120 = SURFACE_STYLE_USAGE( .BOTH., #171 );
#121 = FACE_OUTER_BOUND( '', #172, .T. );
#122 = PLANE( '', #173 );
#123 = PRODUCT_CONTEXT( '', #23, 'mechanical' );
#124 = PRODUCT_DEFINITION_FORMATION_WITH_SPECIFIED_SOURCE( ' ', 'NONE', #62, .NOT_KNOWN. );
#125 = CLOSED_SHELL( '', ( #43, #45, #59, #61, #55, #57, #49, #37, #41, #39, #51, #47, #53 ) );
#126 = CARTESIAN_POINT( '', ( 0.000000000000000, 0.000000000000000, 0.000000000000000 ) );
#127 = DIRECTION( '', ( 0.000000000000000, 0.000000000000000, 1.00000000000000 ) );
#128 = DIRECTION( '', ( 1.00000000000000, 0.000000000000000, 0.000000000000000 ) );
#129 =  ( LENGTH_UNIT(  )NAMED_UNIT( #71 )SI_UNIT( .MILLI., .METRE. ) );
#130 = SURFACE_SIDE_STYLE( '', ( #175 ) );
#131 = EDGE_LOOP( '', ( #176 ) );
#132 = EDGE_LOOP( '', ( #177 ) );
#133 = AXIS2_PLACEMENT_3D( '', #178, #179, #180 );
#134 = SURFACE_SIDE_STYLE( '', ( #181 ) );
#135 = EDGE_LOOP( '', ( #182 ) );
#136 = EDGE_LOOP( '', ( #183 ) );
#137 = AXIS2_PLACEMENT_3D( '', #184, #185, #186 );
#138 = SURFACE_SIDE_STYLE( '', ( #187 ) );
#139 = EDGE_LOOP( '', ( #188, #189 ) );
#140 = AXIS2_PLACEMENT_3D( '', #190, #191, #192 );
#141 = SURFACE_SIDE_STYLE( '', ( #193 ) );
#142 = EDGE_LOOP( '', ( #194 ) );
#143 = EDGE_LOOP( '', ( #195, #196, #197, #198, #199, #200, #201, #202 ) );
#144 = AXIS2_PLACEMENT_3D( '', #203, #204, #205 );
#145 = SURFACE_SIDE_STYLE( '', ( #206 ) );
#146 = EDGE_LOOP( '', ( #207, #208, #209, #210 ) );
#147 = AXIS2_PLACEMENT_3D( '', #211, #212, #213 );
#148 = SURFACE_SIDE_STYLE( '', ( #214 ) );
#149 = EDGE_LOOP( '', ( #215, #216 ) );
#150 = AXIS2_PLACEMENT_3D( '', #217, #218, #219 );
#151 = SURFACE_SIDE_STYLE( '', ( #220 ) );
#152 = EDGE_LOOP( '', ( #221 ) );
#153 = AXIS2_PLACEMENT_3D( '', #222, #223, #224 );
#154 = SURFACE_SIDE_STYLE( '', ( #225 ) );
#155 = EDGE_LOOP( '', ( #226 ) );
#156 = EDGE_LOOP( '', ( #227 ) );
#157 = AXIS2_PLACEMENT_3D( '', #228, #229, #230 );
#158 = SURFACE_SIDE_STYLE( '', ( #231 ) );
#159 = EDGE_LOOP( '', ( #232, #233, #234, #235, #236, #237 ) );
#160 = AXIS2_PLACEMENT_3D( '', #238, #239, #240 );
#161 = SURFACE_SIDE_STYLE( '', ( #241 ) );
#162 = EDGE_LOOP( '', ( #242, #243, #244, #245 ) );
#163 = AXIS2_PLACEMENT_3D( '', #246, #247, #248 );
#164 = SURFACE_SIDE_STYLE( '', ( #249 ) );
#165 = EDGE_LOOP( '', ( #250 ) );
#166 = EDGE_LOOP( '', ( #251 ) );
#167 = AXIS2_PLACEMENT_3D( '', #252, #253, #254 );
#168 = SURFACE_SIDE_STYLE( '', ( #255 ) );
#169 = EDGE_LOOP( '', ( #256, #257, #258, #259 ) );
#170 = AXIS2_PLACEMENT_3D( '', #260, #261, #262 );
#171 = SURFACE_SIDE_STYLE( '', ( #263 ) );
#172 = EDGE_LOOP( '', ( #264, #265, #266, #267, #268, #269 ) );
#173 = AXIS2_PLACEMENT_3D( '', #270, #271, #272 );
#175 = SURFACE_STYLE_FILL_AREA( #273 );
#176 = ORIENTED_EDGE( '', *, *, #274, .F. );
#177 = ORIENTED_EDGE( '', *, *, #275, .T. );
#178 = CARTESIAN_POINT( '', ( 7.24113640316170E-017, 0.000000000000000, 10.5000000000000 ) );
#179 = DIRECTION( '', ( -1.37926407679271E-017, -0.000000000000000, -1.00000000000000 ) );
#180 = DIRECTION( '', ( 1.00000000000000, 0.000000000000000, -1.37926407679271E-017 ) );
#181 = SURFACE_STYLE_FILL_AREA( #276 );
#182 = ORIENTED_EDGE( '', *, *, #277, .F. );
#183 = ORIENTED_EDGE( '', *, *, #274, .T. );
#184 = CARTESIAN_POINT( '', ( 1.35000000000000, 0.000000000000000, 2.00000000000000 ) );
#185 = DIRECTION( '', ( 1.37926407679271E-017, 0.000000000000000, 1.00000000000000 ) );
#186 = DIRECTION( '', ( 1.00000000000000, 0.000000000000000, -1.37926407679271E-017 ) );
#187 = SURFACE_STYLE_FILL_AREA( #278 );
#188 = ORIENTED_EDGE( '', *, *, #279, .F. );
#189 = ORIENTED_EDGE( '', *, *, #280, .T. );
#190 = CARTESIAN_POINT( '', ( 3.00000000000000, 0.000000000000000, 16.0000000000000 ) );
#191 = DIRECTION( '', ( -1.37926407679271E-017, 0.000000000000000, -1.00000000000000 ) );
#192 = DIRECTION( '', ( -1.00000000000000, 0.000000000000000, 1.37926407679271E-017 ) );
#193 = SURFACE_STYLE_FILL_AREA( #281 );
#194 = ORIENTED_EDGE( '', *, *, #282, .T. );
#195 = ORIENTED_EDGE( '', *, *, #283, .F. );
#196 = ORIENTED_EDGE( '', *, *, #284, .T. );
#197 = ORIENTED_EDGE( '', *, *, #285, .F. );
#198 = ORIENTED_EDGE( '', *, *, #286, .F. );
#199 = ORIENTED_EDGE( '', *, *, #287, .F. );
#200 = ORIENTED_EDGE( '', *, *, #288, .T. );
#201 = ORIENTED_EDGE( '', *, *, #289, .F. );
#202 = ORIENTED_EDGE( '', *, *, #290, .F. );
#203 = CARTESIAN_POINT( '', ( 7.24113640316170E-017, 0.000000000000000, 10.5000000000000 ) );
#204 = DIRECTION( '', ( -1.37926407679271E-017, -0.000000000000000, -1.00000000000000 ) );
#205 = DIRECTION( '', ( 1.00000000000000, 0.000000000000000, -1.37926407679271E-017 ) );
#206 = SURFACE_STYLE_FILL_AREA( #291 );
#207 = ORIENTED_EDGE( '', *, *, #292, .F. );
#208 = ORIENTED_EDGE( '', *, *, #288, .F. );
#209 = ORIENTED_EDGE( '', *, *, #293, .F. );
#210 = ORIENTED_EDGE( '', *, *, #294, .F. );
#211 = CARTESIAN_POINT( '', ( 1.48270888255216E-016, 0.000000000000000, 16.0000000000000 ) );
#212 = DIRECTION( '', ( -1.37926407679270E-017, 0.000000000000000, -1.00000000000000 ) );
#213 = DIRECTION( '', ( -1.00000000000000, 0.000000000000000, 1.37926407679270E-017 ) );
#214 = SURFACE_STYLE_FILL_AREA( #295 );
#215 = ORIENTED_EDGE( '', *, *, #296, .T. );
#216 = ORIENTED_EDGE( '', *, *, #294, .T. );
#217 = CARTESIAN_POINT( '', ( 3.00000000000000, 0.000000000000000, 16.0000000000000 ) );
#218 = DIRECTION( '', ( -1.37926407679271E-017, 0.000000000000000, -1.00000000000000 ) );
#219 = DIRECTION( '', ( -1.00000000000000, 0.000000000000000, 1.37926407679271E-017 ) );
#220 = SURFACE_STYLE_FILL_AREA( #297 );
#221 = ORIENTED_EDGE( '', *, *, #275, .F. );
#222 = CARTESIAN_POINT( '', ( 0.000000000000000, 0.000000000000000, 1.35000000000000 ) );
#223 = DIRECTION( '', ( 1.37926407679271E-017, 0.000000000000000, 1.00000000000000 ) );
#224 = DIRECTION( '', ( 1.00000000000000, 0.000000000000000, -1.37926407679271E-017 ) );
#225 = SURFACE_STYLE_FILL_AREA( #298 );
#226 = ORIENTED_EDGE( '', *, *, #299, .F. );
#227 = ORIENTED_EDGE( '', *, *, #277, .T. );
#228 = CARTESIAN_POINT( '', ( 7.24113640316170E-017, 0.000000000000000, 10.5000000000000 ) );
#229 = DIRECTION( '', ( -1.37926407679271E-017, -0.000000000000000, -1.00000000000000 ) );
#230 = DIRECTION( '', ( 1.00000000000000, 0.000000000000000, -1.37926407679271E-017 ) );
#231 = SURFACE_STYLE_FILL_AREA( #300 );
#232 = ORIENTED_EDGE( '', *, *, #296, .F. );
#233 = ORIENTED_EDGE( '', *, *, #293, .T. );
#234 = ORIENTED_EDGE( '', *, *, #287, .T. );
#235 = ORIENTED_EDGE( '', *, *, #301, .T. );
#236 = ORIENTED_EDGE( '', *, *, #289, .T. );
#237 = ORIENTED_EDGE( '', *, *, #292, .T. );
#238 = CARTESIAN_POINT( '', ( -0.500000000000000, -12.5000000000000, 16.0000000000000 ) );
#239 = DIRECTION( '', ( 1.00000000000000, 0.000000000000000, 1.08420217248550E-016 ) );
#240 = DIRECTION( '', ( 1.08420217248550E-016, 0.000000000000000, -1.00000000000000 ) );
#241 = SURFACE_STYLE_FILL_AREA( #302 );
#242 = ORIENTED_EDGE( '', *, *, #303, .F. );
#243 = ORIENTED_EDGE( '', *, *, #284, .F. );
#244 = ORIENTED_EDGE( '', *, *, #304, .F. );
#245 = ORIENTED_EDGE( '', *, *, #280, .F. );
#246 = CARTESIAN_POINT( '', ( 1.48270888255216E-016, 0.000000000000000, 16.0000000000000 ) );
#247 = DIRECTION( '', ( -1.37926407679270E-017, 0.000000000000000, -1.00000000000000 ) );
#248 = DIRECTION( '', ( -1.00000000000000, 0.000000000000000, 1.37926407679270E-017 ) );
#249 = SURFACE_STYLE_FILL_AREA( #305 );
#250 = ORIENTED_EDGE( '', *, *, #299, .T. );
#251 = ORIENTED_EDGE( '', *, *, #282, .F. );
#252 = CARTESIAN_POINT( '', ( -2.41371213438723E-017, 0.000000000000000, 3.50000000000000 ) );
#253 = DIRECTION( '', ( 1.37926407679270E-017, -0.000000000000000, 1.00000000000000 ) );
#254 = DIRECTION( '', ( 1.00000000000000, 0.000000000000000, -1.37926407679270E-017 ) );
#255 = SURFACE_STYLE_FILL_AREA( #306 );
#256 = ORIENTED_EDGE( '', *, *, #290, .T. );
#257 = ORIENTED_EDGE( '', *, *, #301, .F. );
#258 = ORIENTED_EDGE( '', *, *, #286, .T. );
#259 = ORIENTED_EDGE( '', *, *, #307, .T. );
#260 = CARTESIAN_POINT( '', ( -0.500000000000000, -12.5000000000000, 15.0000000000000 ) );
#261 = DIRECTION( '', ( 0.000000000000000, 0.000000000000000, 1.00000000000000 ) );
#262 = DIRECTION( '', ( 1.00000000000000, 0.000000000000000, 0.000000000000000 ) );
#263 = SURFACE_STYLE_FILL_AREA( #308 );
#264 = ORIENTED_EDGE( '', *, *, #279, .T. );
#265 = ORIENTED_EDGE( '', *, *, #304, .T. );
#266 = ORIENTED_EDGE( '', *, *, #283, .T. );
#267 = ORIENTED_EDGE( '', *, *, #307, .F. );
#268 = ORIENTED_EDGE( '', *, *, #285, .T. );
#269 = ORIENTED_EDGE( '', *, *, #303, .T. );
#270 = CARTESIAN_POINT( '', ( 0.500000000000000, -12.5000000000000, 15.0000000000000 ) );
#271 = DIRECTION( '', ( -1.00000000000000, 0.000000000000000, 1.08420217248550E-016 ) );
#272 = DIRECTION( '', ( 1.08420217248550E-016, 0.000000000000000, 1.00000000000000 ) );
#273 = FILL_AREA_STYLE( '', ( #309 ) );
#274 = EDGE_CURVE( '', #310, #310, #311, .T. );
#275 = EDGE_CURVE( '', #312, #312, #313, .T. );
#276 = FILL_AREA_STYLE( '', ( #314 ) );
#277 = EDGE_CURVE( '', #315, #315, #316, .T. );
#278 = FILL_AREA_STYLE( '', ( #317 ) );
#279 = EDGE_CURVE( '', #318, #319, #320, .T. );
#280 = EDGE_CURVE( '', #318, #319, #321, .F. );
#281 = FILL_AREA_STYLE( '', ( #322 ) );
#282 = EDGE_CURVE( '', #323, #323, #324, .T. );
#283 = EDGE_CURVE( '', #325, #326, #327, .F. );
#284 = EDGE_CURVE( '', #325, #328, #329, .T. );
#285 = EDGE_CURVE( '', #330, #328, #331, .T. );
#286 = EDGE_CURVE( '', #332, #330, #333, .T. );
#287 = EDGE_CURVE( '', #334, #332, #335, .F. );
#288 = EDGE_CURVE( '', #334, #336, #337, .T. );
#289 = EDGE_CURVE( '', #338, #336, #339, .T. );
#290 = EDGE_CURVE( '', #326, #338, #340, .T. );
#291 = FILL_AREA_STYLE( '', ( #341 ) );
#292 = EDGE_CURVE( '', #336, #342, #343, .T. );
#293 = EDGE_CURVE( '', #344, #334, #345, .T. );
#294 = EDGE_CURVE( '', #342, #344, #346, .F. );
#295 = FILL_AREA_STYLE( '', ( #347 ) );
#296 = EDGE_CURVE( '', #344, #342, #348, .T. );
#297 = FILL_AREA_STYLE( '', ( #349 ) );
#298 = FILL_AREA_STYLE( '', ( #350 ) );
#299 = EDGE_CURVE( '', #351, #351, #352, .T. );
#300 = FILL_AREA_STYLE( '', ( #353 ) );
#301 = EDGE_CURVE( '', #332, #338, #354, .T. );
#302 = FILL_AREA_STYLE( '', ( #355 ) );
#303 = EDGE_CURVE( '', #328, #318, #356, .T. );
#304 = EDGE_CURVE( '', #319, #325, #357, .T. );
#305 = FILL_AREA_STYLE( '', ( #358 ) );
#306 = FILL_AREA_STYLE( '', ( #359 ) );
#307 = EDGE_CURVE( '', #330, #326, #360, .T. );
#308 = FILL_AREA_STYLE( '', ( #361 ) );
#309 = FILL_AREA_STYLE_COLOUR( '', #362 );
#310 = VERTEX_POINT( '', #363 );
#311 = CIRCLE( '', #364, 1.35000000000000 );
#312 = VERTEX_POINT( '', #365 );
#313 = CIRCLE( '', #366, 1.35000000000000 );
#314 = FILL_AREA_STYLE_COLOUR( '', #367 );
#315 = VERTEX_POINT( '', #368 );
#316 = CIRCLE( '', #369, 2.00000000000000 );
#317 = FILL_AREA_STYLE_COLOUR( '', #370 );
#318 = VERTEX_POINT( '', #371 );
#319 = VERTEX_POINT( '', #372 );
#320 = LINE( '', #373, #374 );
#321 = CIRCLE( '', #375, 2.50000000000000 );
#322 = FILL_AREA_STYLE_COLOUR( '', #376 );
#323 = VERTEX_POINT( '', #377 );
#324 = CIRCLE( '', #378, 3.00000000000000 );
#325 = VERTEX_POINT( '', #379 );
#326 = VERTEX_POINT( '', #380 );
#327 = LINE( '', #381, #382 );
#328 = VERTEX_POINT( '', #383 );
#329 = CIRCLE( '', #384, 3.00000000000000 );
#330 = VERTEX_POINT( '', #385 );
#331 = LINE( '', #386, #387 );
#332 = VERTEX_POINT( '', #388 );
#333 = CIRCLE( '', #389, 3.00000000000000 );
#334 = VERTEX_POINT( '', #390 );
#335 = LINE( '', #391, #392 );
#336 = VERTEX_POINT( '', #393 );
#337 = CIRCLE( '', #394, 3.00000000000000 );
#338 = VERTEX_POINT( '', #395 );
#339 = LINE( '', #396, #397 );
#340 = CIRCLE( '', #398, 3.00000000000000 );
#341 = FILL_AREA_STYLE_COLOUR( '', #399 );
#342 = VERTEX_POINT( '', #400 );
#343 = B_SPLINE_CURVE_WITH_KNOTS( '', 3, ( #401, #402, #403, #404 ), .UNSPECIFIED., .F., .F., ( 4, 4 ), ( 0.000000000000000, 0.000713178276317053 ), .UNSPECIFIED. );
#344 = VERTEX_POINT( '', #405 );
#345 = B_SPLINE_CURVE_WITH_KNOTS( '', 3, ( #406, #407, #408, #409 ), .UNSPECIFIED., .F., .F., ( 4, 4 ), ( 0.000000000000000, 0.000713178276317053 ), .UNSPECIFIED. );
#346 = CIRCLE( '', #410, 2.50000000000000 );
#347 = FILL_AREA_STYLE_COLOUR( '', #411 );
#348 = LINE( '', #412, #413 );
#349 = FILL_AREA_STYLE_COLOUR( '', #414 );
#350 = FILL_AREA_STYLE_COLOUR( '', #415 );
#351 = VERTEX_POINT( '', #416 );
#352 = CIRCLE( '', #417, 2.00000000000000 );
#353 = FILL_AREA_STYLE_COLOUR( '', #418 );
#354 = LINE( '', #419, #420 );
#355 = FILL_AREA_STYLE_COLOUR( '', #421 );
#356 = B_SPLINE_CURVE_WITH_KNOTS( '', 3, ( #422, #423, #424, #425 ), .UNSPECIFIED., .F., .F., ( 4, 4 ), ( 0.000000000000000, 0.000713178276317053 ), .UNSPECIFIED. );
#357 = B_SPLINE_CURVE_WITH_KNOTS( '', 3, ( #426, #427, #428, #429 ), .UNSPECIFIED., .F., .F., ( 4, 4 ), ( 0.000000000000000, 0.000713178276317053 ), .UNSPECIFIED. );
#358 = FILL_AREA_STYLE_COLOUR( '', #430 );
#359 = FILL_AREA_STYLE_COLOUR( '', #431 );
#360 = LINE( '', #432, #433 );
#361 = FILL_AREA_STYLE_COLOUR( '', #434 );
#362 = COLOUR_RGB( '', 0.200000002980232, 0.200000002980232, 0.200000002980232 );
#363 = CARTESIAN_POINT( '', ( 1.35000000000000, 0.000000000000000, 2.00000000000000 ) );
#364 = AXIS2_PLACEMENT_3D( '', #435, #436, #437 );
#365 = CARTESIAN_POINT( '', ( 1.35000000000000, 0.000000000000000, 1.35000000000000 ) );
#366 = AXIS2_PLACEMENT_3D( '', #438, #439, #440 );
#367 = COLOUR_RGB( '', 0.200000002980232, 0.200000002980232, 0.200000002980232 );
#368 = CARTESIAN_POINT( '', ( 2.00000000000000, 0.000000000000000, 2.00000000000000 ) );
#369 = AXIS2_PLACEMENT_3D( '', #441, #442, #443 );
#370 = COLOUR_RGB( '', 0.200000002980232, 0.200000002980232, 0.200000002980232 );
#371 = CARTESIAN_POINT( '', ( 0.500000000000000, -2.44948974278318, 16.0000000000000 ) );
#372 = CARTESIAN_POINT( '', ( 0.500000000000000, 2.44948974278318, 16.0000000000000 ) );
#373 = CARTESIAN_POINT( '', ( 0.500000000000000, -12.5000000000000, 16.0000000000000 ) );
#374 = VECTOR( '', #444, 1000.00000000000 );
#375 = AXIS2_PLACEMENT_3D( '', #445, #446, #447 );
#376 = COLOUR_RGB( '', 0.752941191196442, 0.752941191196442, 0.752941191196442 );
#377 = CARTESIAN_POINT( '', ( 3.00000000000000, 0.000000000000000, 3.50000000000000 ) );
#378 = AXIS2_PLACEMENT_3D( '', #448, #449, #450 );
#379 = CARTESIAN_POINT( '', ( 0.500000000000000, 2.95803989154981, 15.5000000000000 ) );
#380 = CARTESIAN_POINT( '', ( 0.500000000000000, 2.95803989154981, 15.0000000000000 ) );
#381 = CARTESIAN_POINT( '', ( 0.500000000000000, 2.95803989154981, 10.5000000000000 ) );
#382 = VECTOR( '', #451, 1000.00000000000 );
#383 = CARTESIAN_POINT( '', ( 0.500000000000000, -2.95803989154981, 15.5000000000000 ) );
#384 = AXIS2_PLACEMENT_3D( '', #452, #453, #454 );
#385 = CARTESIAN_POINT( '', ( 0.500000000000000, -2.95803989154981, 15.0000000000000 ) );
#386 = CARTESIAN_POINT( '', ( 0.500000000000000, -2.95803989154981, 10.5000000000000 ) );
#387 = VECTOR( '', #455, 1000.00000000000 );
#388 = CARTESIAN_POINT( '', ( -0.500000000000000, -2.95803989154981, 15.0000000000000 ) );
#389 = AXIS2_PLACEMENT_3D( '', #456, #457, #458 );
#390 = CARTESIAN_POINT( '', ( -0.500000000000000, -2.95803989154981, 15.5000000000000 ) );
#391 = CARTESIAN_POINT( '', ( -0.500000000000000, -2.95803989154981, 10.5000000000000 ) );
#392 = VECTOR( '', #459, 1000.00000000000 );
#393 = CARTESIAN_POINT( '', ( -0.500000000000000, 2.95803989154981, 15.5000000000000 ) );
#394 = AXIS2_PLACEMENT_3D( '', #460, #461, #462 );
#395 = CARTESIAN_POINT( '', ( -0.500000000000000, 2.95803989154981, 15.0000000000000 ) );
#396 = CARTESIAN_POINT( '', ( -0.500000000000000, 2.95803989154981, 10.5000000000000 ) );
#397 = VECTOR( '', #463, 1000.00000000000 );
#398 = AXIS2_PLACEMENT_3D( '', #464, #465, #466 );
#399 = COLOUR_RGB( '', 0.200000002980232, 0.200000002980232, 0.200000002980232 );
#400 = CARTESIAN_POINT( '', ( -0.500000000000000, 2.44948974278318, 16.0000000000000 ) );
#401 = CARTESIAN_POINT( '', ( -0.500000000000000, 2.95803989154981, 15.5000000000000 ) );
#402 = CARTESIAN_POINT( '', ( -0.500000000000000, 2.78876251207873, 15.6669097470708 ) );
#403 = CARTESIAN_POINT( '', ( -0.500000000000000, 2.61929409428724, 15.8336263930843 ) );
#404 = CARTESIAN_POINT( '', ( -0.500000000000000, 2.44948974278318, 16.0000000000000 ) );
#405 = CARTESIAN_POINT( '', ( -0.500000000000000, -2.44948974278318, 16.0000000000000 ) );
#406 = CARTESIAN_POINT( '', ( -0.500000000000000, -2.44948974278318, 16.0000000000000 ) );
#407 = CARTESIAN_POINT( '', ( -0.500000000000000, -2.61929409428724, 15.8336263930843 ) );
#408 = CARTESIAN_POINT( '', ( -0.500000000000000, -2.78876251207873, 15.6669097470708 ) );
#409 = CARTESIAN_POINT( '', ( -0.500000000000000, -2.95803989154981, 15.5000000000000 ) );
#410 = AXIS2_PLACEMENT_3D( '', #467, #468, #469 );
#411 = COLOUR_RGB( '', 0.200000002980232, 0.200000002980232, 0.200000002980232 );
#412 = CARTESIAN_POINT( '', ( -0.500000000000000, -12.5000000000000, 16.0000000000000 ) );
#413 = VECTOR( '', #470, 1000.00000000000 );
#414 = COLOUR_RGB( '', 0.200000002980232, 0.200000002980232, 0.200000002980232 );
#415 = COLOUR_RGB( '', 0.200000002980232, 0.200000002980232, 0.200000002980232 );
#416 = CARTESIAN_POINT( '', ( 2.00000000000000, 0.000000000000000, 2.50000000000000 ) );
#417 = AXIS2_PLACEMENT_3D( '', #471, #472, #473 );
#418 = COLOUR_RGB( '', 0.200000002980232, 0.200000002980232, 0.200000002980232 );
#419 = CARTESIAN_POINT( '', ( -0.500000000000000, -12.5000000000000, 15.0000000000000 ) );
#420 = VECTOR( '', #474, 1000.00000000000 );
#421 = COLOUR_RGB( '', 0.200000002980232, 0.200000002980232, 0.200000002980232 );
#422 = CARTESIAN_POINT( '', ( 0.500000000000000, -2.95803989154981, 15.5000000000000 ) );
#423 = CARTESIAN_POINT( '', ( 0.500000000000000, -2.78876251207873, 15.6669097470708 ) );
#424 = CARTESIAN_POINT( '', ( 0.500000000000000, -2.61929409428724, 15.8336263930843 ) );
#425 = CARTESIAN_POINT( '', ( 0.500000000000000, -2.44948974278318, 16.0000000000000 ) );
#426 = CARTESIAN_POINT( '', ( 0.500000000000000, 2.44948974278318, 16.0000000000000 ) );
#427 = CARTESIAN_POINT( '', ( 0.500000000000000, 2.61929409428724, 15.8336263930843 ) );
#428 = CARTESIAN_POINT( '', ( 0.500000000000000, 2.78876251207873, 15.6669097470708 ) );
#429 = CARTESIAN_POINT( '', ( 0.500000000000000, 2.95803989154981, 15.5000000000000 ) );
#430 = COLOUR_RGB( '', 0.200000002980232, 0.200000002980232, 0.200000002980232 );
#431 = COLOUR_RGB( '', 0.200000002980232, 0.200000002980232, 0.200000002980232 );
#432 = CARTESIAN_POINT( '', ( 0.500000000000000, -12.5000000000000, 15.0000000000000 ) );
#433 = VECTOR( '', #475, 1000.00000000000 );
#434 = COLOUR_RGB( '', 0.200000002980232, 0.200000002980232, 0.200000002980232 );
#435 = CARTESIAN_POINT( '', ( -4.48260824957630E-017, 0.000000000000000, 2.00000000000000 ) );
#436 = DIRECTION( '', ( 1.37926407679271E-017, 0.000000000000000, 1.00000000000000 ) );
#437 = DIRECTION( '', ( 1.00000000000000, 0.000000000000000, -1.37926407679271E-017 ) );
#438 = CARTESIAN_POINT( '', ( -5.37912989949155E-017, 0.000000000000000, 1.35000000000000 ) );
#439 = DIRECTION( '', ( 1.37926407679271E-017, 0.000000000000000, 1.00000000000000 ) );
#440 = DIRECTION( '', ( 1.00000000000000, 0.000000000000000, -1.37926407679271E-017 ) );
#441 = CARTESIAN_POINT( '', ( -4.48260824957630E-017, 0.000000000000000, 2.00000000000000 ) );
#442 = DIRECTION( '', ( 1.37926407679271E-017, 0.000000000000000, 1.00000000000000 ) );
#443 = DIRECTION( '', ( 1.00000000000000, 0.000000000000000, -1.37926407679271E-017 ) );
#444 = DIRECTION( '', ( 0.000000000000000, 1.00000000000000, 0.000000000000000 ) );
#445 = CARTESIAN_POINT( '', ( 1.48270888255216E-016, 0.000000000000000, 16.0000000000000 ) );
#446 = DIRECTION( '', ( -1.37926407679271E-017, 0.000000000000000, -1.00000000000000 ) );
#447 = DIRECTION( '', ( -1.00000000000000, 0.000000000000000, 1.37926407679271E-017 ) );
#448 = CARTESIAN_POINT( '', ( -2.41371213438723E-017, 0.000000000000000, 3.50000000000000 ) );
#449 = DIRECTION( '', ( 1.37926407679270E-017, 0.000000000000000, 1.00000000000000 ) );
#450 = DIRECTION( '', ( 1.00000000000000, 0.000000000000000, -1.37926407679270E-017 ) );
#451 = DIRECTION( '', ( 1.37926407679271E-017, 0.000000000000000, 1.00000000000000 ) );
#452 = CARTESIAN_POINT( '', ( 1.41374567871252E-016, 0.000000000000000, 15.5000000000000 ) );
#453 = DIRECTION( '', ( -1.37926407679270E-017, 0.000000000000000, -1.00000000000000 ) );
#454 = DIRECTION( '', ( -1.00000000000000, 0.000000000000000, 1.37926407679270E-017 ) );
#455 = DIRECTION( '', ( 1.37926407679271E-017, 0.000000000000000, 1.00000000000000 ) );
#456 = CARTESIAN_POINT( '', ( 1.34478247487289E-016, 0.000000000000000, 15.0000000000000 ) );
#457 = DIRECTION( '', ( 0.000000000000000, 0.000000000000000, 1.00000000000000 ) );
#458 = DIRECTION( '', ( 1.00000000000000, 0.000000000000000, 0.000000000000000 ) );
#459 = DIRECTION( '', ( 1.37926407679271E-017, 0.000000000000000, 1.00000000000000 ) );
#460 = CARTESIAN_POINT( '', ( 1.41374567871252E-016, 0.000000000000000, 15.5000000000000 ) );
#461 = DIRECTION( '', ( -1.37926407679270E-017, 0.000000000000000, -1.00000000000000 ) );
#462 = DIRECTION( '', ( -1.00000000000000, 0.000000000000000, 1.37926407679270E-017 ) );
#463 = DIRECTION( '', ( 1.37926407679271E-017, 0.000000000000000, 1.00000000000000 ) );
#464 = CARTESIAN_POINT( '', ( 1.34478247487289E-016, 0.000000000000000, 15.0000000000000 ) );
#465 = DIRECTION( '', ( 0.000000000000000, 0.000000000000000, 1.00000000000000 ) );
#466 = DIRECTION( '', ( 1.00000000000000, 0.000000000000000, 0.000000000000000 ) );
#467 = CARTESIAN_POINT( '', ( 1.48270888255216E-016, 0.000000000000000, 16.0000000000000 ) );
#468 = DIRECTION( '', ( -1.37926407679271E-017, 0.000000000000000, -1.00000000000000 ) );
#469 = DIRECTION( '', ( -1.00000000000000, 0.000000000000000, 1.37926407679271E-017 ) );
#470 = DIRECTION( '', ( 0.000000000000000, 1.00000000000000, 0.000000000000000 ) );
#471 = CARTESIAN_POINT( '', ( -3.79297621117994E-017, 0.000000000000000, 2.50000000000000 ) );
#472 = DIRECTION( '', ( 1.37926407679271E-017, 0.000000000000000, 1.00000000000000 ) );
#473 = DIRECTION( '', ( 1.00000000000000, 0.000000000000000, -1.37926407679271E-017 ) );
#474 = DIRECTION( '', ( 0.000000000000000, 1.00000000000000, 0.000000000000000 ) );
#475 = DIRECTION( '', ( 0.000000000000000, 1.00000000000000, 0.000000000000000 ) );
ENDSEC;
END-ISO-10303-21;
