ISO-10303-21;
HEADER;
FILE_DESCRIPTION( ( 'Unknown' ), '1' );
FILE_NAME( '//SBS2003/HD_Usb/Disegni/08_LIB/Users_3D/PROD_GAMM_3D/APP-A/7747316_APP_14_AR.stp', 'Unknown', ( 'Unknown' ), ( 'Unknown' ), 'PSStep 14.0', 'Unknown', '  ' );
FILE_SCHEMA( ( 'AUTOMOTIVE_DESIGN { 1 0 10303 214 1 1 1 1 }' ) );
ENDSEC;
DATA;
#1 = MECHANICAL_DESIGN_GEOMETRIC_PRESENTATION_REPRESENTATION( ' ', ( #10, #11, #12, #13, #14, #15, #16, #17, #18, #19, #20, #21, #22 ), #6 );
#2 = PRODUCT_DEFINITION_CONTEXT( '', #23, 'design' );
#3 = APPLICATION_PROTOCOL_DEFINITION( 'international standard', 'automotive_design', 2001, #23 );
#4 = PRODUCT_CATEGORY_RELATIONSHIP( 'NONE', 'NONE', #24, #25 );
#5 = SHAPE_DEFINITION_REPRESENTATION( #26, #27 );
#6 =  ( GEOMETRIC_REPRESENTATION_CONTEXT( 3 )GLOBAL_UNCERTAINTY_ASSIGNED_CONTEXT( ( #30 ) )GLOBAL_UNIT_ASSIGNED_CONTEXT( ( #32, #33, #34 ) )REPRESENTATION_CONTEXT( 'NONE', 'WORKSPACE' ) );
#10 = STYLED_ITEM( '', ( #36 ), #37 );
#11 = STYLED_ITEM( '', ( #38 ), #39 );
#12 = STYLED_ITEM( '', ( #40 ), #41 );
#13 = STYLED_ITEM( '', ( #42 ), #43 );
#14 = STYLED_ITEM( '', ( #44 ), #45 );
#15 = STYLED_ITEM( '', ( #46 ), #47 );
#16 = STYLED_ITEM( '', ( #48 ), #49 );
#17 = STYLED_ITEM( '', ( #50 ), #51 );
#18 = STYLED_ITEM( '', ( #52 ), #53 );
#19 = STYLED_ITEM( '', ( #54 ), #55 );
#20 = STYLED_ITEM( '', ( #56 ), #57 );
#21 = STYLED_ITEM( '', ( #58 ), #59 );
#22 = STYLED_ITEM( '', ( #60 ), #61 );
#23 = APPLICATION_CONTEXT( 'core data for automotive mechanical design processes' );
#24 = PRODUCT_CATEGORY( 'part', 'NONE' );
#25 = PRODUCT_RELATED_PRODUCT_CATEGORY( 'detail', ' ', ( #62 ) );
#26 = PRODUCT_DEFINITION_SHAPE( 'NONE', 'NONE', #63 );
#27 = ADVANCED_BREP_SHAPE_REPRESENTATION( '1', ( #64, #65 ), #6 );
#30 = UNCERTAINTY_MEASURE_WITH_UNIT( LENGTH_MEASURE( 0.00100000000000000 ), #32, '', '' );
#32 =  ( CONVERSION_BASED_UNIT( 'MILLIMETRE', #68 )LENGTH_UNIT(  )NAMED_UNIT( #71 ) );
#33 =  ( NAMED_UNIT( #73 )PLANE_ANGLE_UNIT(  )SI_UNIT( $, .RADIAN. ) );
#34 =  ( NAMED_UNIT( #73 )SI_UNIT( $, .STERADIAN. )SOLID_ANGLE_UNIT(  ) );
#36 = PRESENTATION_STYLE_ASSIGNMENT( ( #79 ) );
#37 = ADVANCED_FACE( '', ( #80, #81 ), #82, .T. );
#38 = PRESENTATION_STYLE_ASSIGNMENT( ( #83 ) );
#39 = ADVANCED_FACE( '', ( #84, #85 ), #86, .T. );
#40 = PRESENTATION_STYLE_ASSIGNMENT( ( #87 ) );
#41 = ADVANCED_FACE( '', ( #88 ), #89, .T. );
#42 = PRESENTATION_STYLE_ASSIGNMENT( ( #90 ) );
#43 = ADVANCED_FACE( '', ( #91 ), #92, .T. );
#44 = PRESENTATION_STYLE_ASSIGNMENT( ( #93 ) );
#45 = ADVANCED_FACE( '', ( #94 ), #95, .F. );
#46 = PRESENTATION_STYLE_ASSIGNMENT( ( #96 ) );
#47 = ADVANCED_FACE( '', ( #97 ), #98, .T. );
#48 = PRESENTATION_STYLE_ASSIGNMENT( ( #99 ) );
#49 = ADVANCED_FACE( '', ( #100 ), #101, .T. );
#50 = PRESENTATION_STYLE_ASSIGNMENT( ( #102 ) );
#51 = ADVANCED_FACE( '', ( #103, #104 ), #105, .F. );
#52 = PRESENTATION_STYLE_ASSIGNMENT( ( #106 ) );
#53 = ADVANCED_FACE( '', ( #107 ), #108, .T. );
#54 = PRESENTATION_STYLE_ASSIGNMENT( ( #109 ) );
#55 = ADVANCED_FACE( '', ( #110 ), #111, .T. );
#56 = PRESENTATION_STYLE_ASSIGNMENT( ( #112 ) );
#57 = ADVANCED_FACE( '', ( #113, #114 ), #115, .T. );
#58 = PRESENTATION_STYLE_ASSIGNMENT( ( #116 ) );
#59 = ADVANCED_FACE( '', ( #117, #118 ), #119, .T. );
#60 = PRESENTATION_STYLE_ASSIGNMENT( ( #120 ) );
#61 = ADVANCED_FACE( '', ( #121 ), #122, .F. );
#62 = PRODUCT( '1', '1', 'PART-1-DESC', ( #123 ) );
#63 = PRODUCT_DEFINITION( 'NONE', 'NONE', #124, #2 );
#64 = MANIFOLD_SOLID_BREP( '1', #125 );
#65 = AXIS2_PLACEMENT_3D( '', #126, #127, #128 );
#68 = LENGTH_MEASURE_WITH_UNIT( LENGTH_MEASURE( 1.00000000000000 ), #129 );
#71 = DIMENSIONAL_EXPONENTS( 1.00000000000000, 0.000000000000000, 0.000000000000000, 0.000000000000000, 0.000000000000000, 0.000000000000000, 0.000000000000000 );
#73 = DIMENSIONAL_EXPONENTS( 0.000000000000000, 0.000000000000000, 0.000000000000000, 0.000000000000000, 0.000000000000000, 0.000000000000000, 0.000000000000000 );
#79 = SURFACE_STYLE_USAGE( .BOTH., #130 );
#80 = FACE_OUTER_BOUND( '', #131, .T. );
#81 = FACE_OUTER_BOUND( '', #132, .T. );
#82 = CYLINDRICAL_SURFACE( '', #133, 1.35000000000000 );
#83 = SURFACE_STYLE_USAGE( .BOTH., #134 );
#84 = FACE_OUTER_BOUND( '', #135, .T. );
#85 = FACE_OUTER_BOUND( '', #136, .T. );
#86 = CYLINDRICAL_SURFACE( '', #137, 3.00000000000000 );
#87 = SURFACE_STYLE_USAGE( .BOTH., #138 );
#88 = FACE_OUTER_BOUND( '', #139, .T. );
#89 = CONICAL_SURFACE( '', #140, 2.50000000000000, 0.785398163397448 );
#90 = SURFACE_STYLE_USAGE( .BOTH., #141 );
#91 = FACE_OUTER_BOUND( '', #142, .T. );
#92 = CONICAL_SURFACE( '', #143, 2.50000000000000, 0.785398163397448 );
#93 = SURFACE_STYLE_USAGE( .BOTH., #144 );
#94 = FACE_OUTER_BOUND( '', #145, .T. );
#95 = PLANE( '', #146 );
#96 = SURFACE_STYLE_USAGE( .BOTH., #147 );
#97 = FACE_OUTER_BOUND( '', #148, .T. );
#98 = PLANE( '', #149 );
#99 = SURFACE_STYLE_USAGE( .BOTH., #150 );
#100 = FACE_OUTER_BOUND( '', #151, .T. );
#101 = SPHERICAL_SURFACE( '', #152, 1.35000000000000 );
#102 = SURFACE_STYLE_USAGE( .BOTH., #153 );
#103 = FACE_OUTER_BOUND( '', #154, .T. );
#104 = FACE_BOUND( '', #155, .T. );
#105 = PLANE( '', #156 );
#106 = SURFACE_STYLE_USAGE( .BOTH., #157 );
#107 = FACE_OUTER_BOUND( '', #158, .T. );
#108 = PLANE( '', #159 );
#109 = SURFACE_STYLE_USAGE( .BOTH., #160 );
#110 = FACE_OUTER_BOUND( '', #161, .T. );
#111 = PLANE( '', #162 );
#112 = SURFACE_STYLE_USAGE( .BOTH., #163 );
#113 = FACE_BOUND( '', #164, .T. );
#114 = FACE_OUTER_BOUND( '', #165, .T. );
#115 = CONICAL_SURFACE( '', #166, 3.00000000000000, 0.785398163397449 );
#116 = SURFACE_STYLE_USAGE( .BOTH., #167 );
#117 = FACE_OUTER_BOUND( '', #168, .T. );
#118 = FACE_OUTER_BOUND( '', #169, .T. );
#119 = CYLINDRICAL_SURFACE( '', #170, 2.00000000000000 );
#120 = SURFACE_STYLE_USAGE( .BOTH., #171 );
#121 = FACE_OUTER_BOUND( '', #172, .T. );
#122 = PLANE( '', #173 );
#123 = PRODUCT_CONTEXT( '', #23, 'mechanical' );
#124 = PRODUCT_DEFINITION_FORMATION_WITH_SPECIFIED_SOURCE( ' ', 'NONE', #62, .NOT_KNOWN. );
#125 = CLOSED_SHELL( '', ( #39, #43, #55, #53, #41, #57, #49, #37, #45, #51, #59, #61, #47 ) );
#126 = CARTESIAN_POINT( '', ( 0.000000000000000, 0.000000000000000, 0.000000000000000 ) );
#127 = DIRECTION( '', ( 0.000000000000000, 0.000000000000000, 1.00000000000000 ) );
#128 = DIRECTION( '', ( 1.00000000000000, 0.000000000000000, 0.000000000000000 ) );
#129 =  ( LENGTH_UNIT(  )NAMED_UNIT( #71 )SI_UNIT( .MILLI., .METRE. ) );
#130 = SURFACE_SIDE_STYLE( '', ( #175 ) );
#131 = EDGE_LOOP( '', ( #176 ) );
#132 = EDGE_LOOP( '', ( #177 ) );
#133 = AXIS2_PLACEMENT_3D( '', #178, #179, #180 );
#134 = SURFACE_SIDE_STYLE( '', ( #181 ) );
#135 = EDGE_LOOP( '', ( #182 ) );
#136 = EDGE_LOOP( '', ( #183, #184, #185, #186, #187, #188, #189, #190 ) );
#137 = AXIS2_PLACEMENT_3D( '', #191, #192, #193 );
#138 = SURFACE_SIDE_STYLE( '', ( #194 ) );
#139 = EDGE_LOOP( '', ( #195, #196, #197, #198 ) );
#140 = AXIS2_PLACEMENT_3D( '', #199, #200, #201 );
#141 = SURFACE_SIDE_STYLE( '', ( #202 ) );
#142 = EDGE_LOOP( '', ( #203, #204, #205, #206 ) );
#143 = AXIS2_PLACEMENT_3D( '', #207, #208, #209 );
#144 = SURFACE_SIDE_STYLE( '', ( #210 ) );
#145 = EDGE_LOOP( '', ( #211, #212 ) );
#146 = AXIS2_PLACEMENT_3D( '', #213, #214, #215 );
#147 = SURFACE_SIDE_STYLE( '', ( #216 ) );
#148 = EDGE_LOOP( '', ( #217, #218, #219, #220, #221, #222 ) );
#149 = AXIS2_PLACEMENT_3D( '', #223, #224, #225 );
#150 = SURFACE_SIDE_STYLE( '', ( #226 ) );
#151 = EDGE_LOOP( '', ( #227 ) );
#152 = AXIS2_PLACEMENT_3D( '', #228, #229, #230 );
#153 = SURFACE_SIDE_STYLE( '', ( #231 ) );
#154 = EDGE_LOOP( '', ( #232 ) );
#155 = EDGE_LOOP( '', ( #233 ) );
#156 = AXIS2_PLACEMENT_3D( '', #234, #235, #236 );
#157 = SURFACE_SIDE_STYLE( '', ( #237 ) );
#158 = EDGE_LOOP( '', ( #238, #239, #240, #241, #242, #243 ) );
#159 = AXIS2_PLACEMENT_3D( '', #244, #245, #246 );
#160 = SURFACE_SIDE_STYLE( '', ( #247 ) );
#161 = EDGE_LOOP( '', ( #248, #249, #250, #251 ) );
#162 = AXIS2_PLACEMENT_3D( '', #252, #253, #254 );
#163 = SURFACE_SIDE_STYLE( '', ( #255 ) );
#164 = EDGE_LOOP( '', ( #256 ) );
#165 = EDGE_LOOP( '', ( #257 ) );
#166 = AXIS2_PLACEMENT_3D( '', #258, #259, #260 );
#167 = SURFACE_SIDE_STYLE( '', ( #261 ) );
#168 = EDGE_LOOP( '', ( #262 ) );
#169 = EDGE_LOOP( '', ( #263 ) );
#170 = AXIS2_PLACEMENT_3D( '', #264, #265, #266 );
#171 = SURFACE_SIDE_STYLE( '', ( #267 ) );
#172 = EDGE_LOOP( '', ( #268, #269 ) );
#173 = AXIS2_PLACEMENT_3D( '', #270, #271, #272 );
#175 = SURFACE_STYLE_FILL_AREA( #273 );
#176 = ORIENTED_EDGE( '', *, *, #274, .F. );
#177 = ORIENTED_EDGE( '', *, *, #275, .T. );
#178 = CARTESIAN_POINT( '', ( 7.24113640316170E-017, 0.000000000000000, 10.5000000000000 ) );
#179 = DIRECTION( '', ( -1.37926407679271E-017, -0.000000000000000, -1.00000000000000 ) );
#180 = DIRECTION( '', ( 1.00000000000000, 0.000000000000000, -1.37926407679271E-017 ) );
#181 = SURFACE_STYLE_FILL_AREA( #276 );
#182 = ORIENTED_EDGE( '', *, *, #277, .T. );
#183 = ORIENTED_EDGE( '', *, *, #278, .F. );
#184 = ORIENTED_EDGE( '', *, *, #279, .T. );
#185 = ORIENTED_EDGE( '', *, *, #280, .F. );
#186 = ORIENTED_EDGE( '', *, *, #281, .F. );
#187 = ORIENTED_EDGE( '', *, *, #282, .F. );
#188 = ORIENTED_EDGE( '', *, *, #283, .T. );
#189 = ORIENTED_EDGE( '', *, *, #284, .F. );
#190 = ORIENTED_EDGE( '', *, *, #285, .F. );
#191 = CARTESIAN_POINT( '', ( 7.24113640316170E-017, 0.000000000000000, 10.5000000000000 ) );
#192 = DIRECTION( '', ( -1.37926407679271E-017, -0.000000000000000, -1.00000000000000 ) );
#193 = DIRECTION( '', ( 1.00000000000000, 0.000000000000000, -1.37926407679271E-017 ) );
#194 = SURFACE_STYLE_FILL_AREA( #286 );
#195 = ORIENTED_EDGE( '', *, *, #287, .F. );
#196 = ORIENTED_EDGE( '', *, *, #279, .F. );
#197 = ORIENTED_EDGE( '', *, *, #288, .F. );
#198 = ORIENTED_EDGE( '', *, *, #289, .F. );
#199 = CARTESIAN_POINT( '', ( 1.48270888255216E-016, 0.000000000000000, 16.0000000000000 ) );
#200 = DIRECTION( '', ( -1.37926407679270E-017, 0.000000000000000, -1.00000000000000 ) );
#201 = DIRECTION( '', ( -1.00000000000000, 0.000000000000000, 1.37926407679270E-017 ) );
#202 = SURFACE_STYLE_FILL_AREA( #290 );
#203 = ORIENTED_EDGE( '', *, *, #291, .F. );
#204 = ORIENTED_EDGE( '', *, *, #283, .F. );
#205 = ORIENTED_EDGE( '', *, *, #292, .F. );
#206 = ORIENTED_EDGE( '', *, *, #293, .F. );
#207 = CARTESIAN_POINT( '', ( 1.48270888255216E-016, 0.000000000000000, 16.0000000000000 ) );
#208 = DIRECTION( '', ( -1.37926407679270E-017, 0.000000000000000, -1.00000000000000 ) );
#209 = DIRECTION( '', ( -1.00000000000000, 0.000000000000000, 1.37926407679270E-017 ) );
#210 = SURFACE_STYLE_FILL_AREA( #294 );
#211 = ORIENTED_EDGE( '', *, *, #295, .F. );
#212 = ORIENTED_EDGE( '', *, *, #289, .T. );
#213 = CARTESIAN_POINT( '', ( 3.00000000000000, 0.000000000000000, 16.0000000000000 ) );
#214 = DIRECTION( '', ( -1.37926407679271E-017, 0.000000000000000, -1.00000000000000 ) );
#215 = DIRECTION( '', ( -1.00000000000000, 0.000000000000000, 1.37926407679271E-017 ) );
#216 = SURFACE_STYLE_FILL_AREA( #296 );
#217 = ORIENTED_EDGE( '', *, *, #297, .F. );
#218 = ORIENTED_EDGE( '', *, *, #292, .T. );
#219 = ORIENTED_EDGE( '', *, *, #282, .T. );
#220 = ORIENTED_EDGE( '', *, *, #298, .T. );
#221 = ORIENTED_EDGE( '', *, *, #284, .T. );
#222 = ORIENTED_EDGE( '', *, *, #291, .T. );
#223 = CARTESIAN_POINT( '', ( -0.500000000000000, -12.5000000000000, 16.0000000000000 ) );
#224 = DIRECTION( '', ( 1.00000000000000, 0.000000000000000, 1.08420217248550E-016 ) );
#225 = DIRECTION( '', ( 1.08420217248550E-016, 0.000000000000000, -1.00000000000000 ) );
#226 = SURFACE_STYLE_FILL_AREA( #299 );
#227 = ORIENTED_EDGE( '', *, *, #275, .F. );
#228 = CARTESIAN_POINT( '', ( 0.000000000000000, 0.000000000000000, 1.35000000000000 ) );
#229 = DIRECTION( '', ( 1.37926407679271E-017, 0.000000000000000, 1.00000000000000 ) );
#230 = DIRECTION( '', ( 1.00000000000000, 0.000000000000000, -1.37926407679271E-017 ) );
#231 = SURFACE_STYLE_FILL_AREA( #300 );
#232 = ORIENTED_EDGE( '', *, *, #301, .F. );
#233 = ORIENTED_EDGE( '', *, *, #274, .T. );
#234 = CARTESIAN_POINT( '', ( 1.35000000000000, 0.000000000000000, 2.00000000000000 ) );
#235 = DIRECTION( '', ( 1.37926407679271E-017, 0.000000000000000, 1.00000000000000 ) );
#236 = DIRECTION( '', ( 1.00000000000000, 0.000000000000000, -1.37926407679271E-017 ) );
#237 = SURFACE_STYLE_FILL_AREA( #302 );
#238 = ORIENTED_EDGE( '', *, *, #295, .T. );
#239 = ORIENTED_EDGE( '', *, *, #288, .T. );
#240 = ORIENTED_EDGE( '', *, *, #278, .T. );
#241 = ORIENTED_EDGE( '', *, *, #303, .F. );
#242 = ORIENTED_EDGE( '', *, *, #280, .T. );
#243 = ORIENTED_EDGE( '', *, *, #287, .T. );
#244 = CARTESIAN_POINT( '', ( 0.500000000000000, -12.5000000000000, 15.0000000000000 ) );
#245 = DIRECTION( '', ( -1.00000000000000, 0.000000000000000, 1.08420217248550E-016 ) );
#246 = DIRECTION( '', ( 1.08420217248550E-016, 0.000000000000000, 1.00000000000000 ) );
#247 = SURFACE_STYLE_FILL_AREA( #304 );
#248 = ORIENTED_EDGE( '', *, *, #285, .T. );
#249 = ORIENTED_EDGE( '', *, *, #298, .F. );
#250 = ORIENTED_EDGE( '', *, *, #281, .T. );
#251 = ORIENTED_EDGE( '', *, *, #303, .T. );
#252 = CARTESIAN_POINT( '', ( -0.500000000000000, -12.5000000000000, 15.0000000000000 ) );
#253 = DIRECTION( '', ( 0.000000000000000, 0.000000000000000, 1.00000000000000 ) );
#254 = DIRECTION( '', ( 1.00000000000000, 0.000000000000000, 0.000000000000000 ) );
#255 = SURFACE_STYLE_FILL_AREA( #305 );
#256 = ORIENTED_EDGE( '', *, *, #306, .T. );
#257 = ORIENTED_EDGE( '', *, *, #277, .F. );
#258 = CARTESIAN_POINT( '', ( -2.41371213438723E-017, 0.000000000000000, 3.50000000000000 ) );
#259 = DIRECTION( '', ( 1.37926407679270E-017, -0.000000000000000, 1.00000000000000 ) );
#260 = DIRECTION( '', ( 1.00000000000000, 0.000000000000000, -1.37926407679270E-017 ) );
#261 = SURFACE_STYLE_FILL_AREA( #307 );
#262 = ORIENTED_EDGE( '', *, *, #306, .F. );
#263 = ORIENTED_EDGE( '', *, *, #301, .T. );
#264 = CARTESIAN_POINT( '', ( 7.24113640316170E-017, 0.000000000000000, 10.5000000000000 ) );
#265 = DIRECTION( '', ( -1.37926407679271E-017, -0.000000000000000, -1.00000000000000 ) );
#266 = DIRECTION( '', ( 1.00000000000000, 0.000000000000000, -1.37926407679271E-017 ) );
#267 = SURFACE_STYLE_FILL_AREA( #308 );
#268 = ORIENTED_EDGE( '', *, *, #297, .T. );
#269 = ORIENTED_EDGE( '', *, *, #293, .T. );
#270 = CARTESIAN_POINT( '', ( 3.00000000000000, 0.000000000000000, 16.0000000000000 ) );
#271 = DIRECTION( '', ( -1.37926407679271E-017, 0.000000000000000, -1.00000000000000 ) );
#272 = DIRECTION( '', ( -1.00000000000000, 0.000000000000000, 1.37926407679271E-017 ) );
#273 = FILL_AREA_STYLE( '', ( #309 ) );
#274 = EDGE_CURVE( '', #310, #310, #311, .T. );
#275 = EDGE_CURVE( '', #312, #312, #313, .T. );
#276 = FILL_AREA_STYLE( '', ( #314 ) );
#277 = EDGE_CURVE( '', #315, #315, #316, .T. );
#278 = EDGE_CURVE( '', #317, #318, #319, .F. );
#279 = EDGE_CURVE( '', #317, #320, #321, .T. );
#280 = EDGE_CURVE( '', #322, #320, #323, .T. );
#281 = EDGE_CURVE( '', #324, #322, #325, .T. );
#282 = EDGE_CURVE( '', #326, #324, #327, .F. );
#283 = EDGE_CURVE( '', #326, #328, #329, .T. );
#284 = EDGE_CURVE( '', #330, #328, #331, .T. );
#285 = EDGE_CURVE( '', #318, #330, #332, .T. );
#286 = FILL_AREA_STYLE( '', ( #333 ) );
#287 = EDGE_CURVE( '', #320, #334, #335, .T. );
#288 = EDGE_CURVE( '', #336, #317, #337, .T. );
#289 = EDGE_CURVE( '', #334, #336, #338, .F. );
#290 = FILL_AREA_STYLE( '', ( #339 ) );
#291 = EDGE_CURVE( '', #328, #340, #341, .T. );
#292 = EDGE_CURVE( '', #342, #326, #343, .T. );
#293 = EDGE_CURVE( '', #340, #342, #344, .F. );
#294 = FILL_AREA_STYLE( '', ( #345 ) );
#295 = EDGE_CURVE( '', #334, #336, #346, .T. );
#296 = FILL_AREA_STYLE( '', ( #347 ) );
#297 = EDGE_CURVE( '', #342, #340, #348, .T. );
#298 = EDGE_CURVE( '', #324, #330, #349, .T. );
#299 = FILL_AREA_STYLE( '', ( #350 ) );
#300 = FILL_AREA_STYLE( '', ( #351 ) );
#301 = EDGE_CURVE( '', #352, #352, #353, .T. );
#302 = FILL_AREA_STYLE( '', ( #354 ) );
#303 = EDGE_CURVE( '', #322, #318, #355, .T. );
#304 = FILL_AREA_STYLE( '', ( #356 ) );
#305 = FILL_AREA_STYLE( '', ( #357 ) );
#306 = EDGE_CURVE( '', #358, #358, #359, .T. );
#307 = FILL_AREA_STYLE( '', ( #360 ) );
#308 = FILL_AREA_STYLE( '', ( #361 ) );
#309 = FILL_AREA_STYLE_COLOUR( '', #362 );
#310 = VERTEX_POINT( '', #363 );
#311 = CIRCLE( '', #364, 1.35000000000000 );
#312 = VERTEX_POINT( '', #365 );
#313 = CIRCLE( '', #366, 1.35000000000000 );
#314 = FILL_AREA_STYLE_COLOUR( '', #367 );
#315 = VERTEX_POINT( '', #368 );
#316 = CIRCLE( '', #369, 3.00000000000000 );
#317 = VERTEX_POINT( '', #370 );
#318 = VERTEX_POINT( '', #371 );
#319 = LINE( '', #372, #373 );
#320 = VERTEX_POINT( '', #374 );
#321 = CIRCLE( '', #375, 3.00000000000000 );
#322 = VERTEX_POINT( '', #376 );
#323 = LINE( '', #377, #378 );
#324 = VERTEX_POINT( '', #379 );
#325 = CIRCLE( '', #380, 3.00000000000000 );
#326 = VERTEX_POINT( '', #381 );
#327 = LINE( '', #382, #383 );
#328 = VERTEX_POINT( '', #384 );
#329 = CIRCLE( '', #385, 3.00000000000000 );
#330 = VERTEX_POINT( '', #386 );
#331 = LINE( '', #387, #388 );
#332 = CIRCLE( '', #389, 3.00000000000000 );
#333 = FILL_AREA_STYLE_COLOUR( '', #390 );
#334 = VERTEX_POINT( '', #391 );
#335 = B_SPLINE_CURVE_WITH_KNOTS( '', 3, ( #392, #393, #394, #395 ), .UNSPECIFIED., .F., .F., ( 4, 4 ), ( 0.000000000000000, 0.000713178276317053 ), .UNSPECIFIED. );
#336 = VERTEX_POINT( '', #396 );
#337 = B_SPLINE_CURVE_WITH_KNOTS( '', 3, ( #397, #398, #399, #400 ), .UNSPECIFIED., .F., .F., ( 4, 4 ), ( 0.000000000000000, 0.000713178276317053 ), .UNSPECIFIED. );
#338 = CIRCLE( '', #401, 2.50000000000000 );
#339 = FILL_AREA_STYLE_COLOUR( '', #402 );
#340 = VERTEX_POINT( '', #403 );
#341 = B_SPLINE_CURVE_WITH_KNOTS( '', 3, ( #404, #405, #406, #407 ), .UNSPECIFIED., .F., .F., ( 4, 4 ), ( 0.000000000000000, 0.000713178276317053 ), .UNSPECIFIED. );
#342 = VERTEX_POINT( '', #408 );
#343 = B_SPLINE_CURVE_WITH_KNOTS( '', 3, ( #409, #410, #411, #412 ), .UNSPECIFIED., .F., .F., ( 4, 4 ), ( 0.000000000000000, 0.000713178276317053 ), .UNSPECIFIED. );
#344 = CIRCLE( '', #413, 2.50000000000000 );
#345 = FILL_AREA_STYLE_COLOUR( '', #414 );
#346 = LINE( '', #415, #416 );
#347 = FILL_AREA_STYLE_COLOUR( '', #417 );
#348 = LINE( '', #418, #419 );
#349 = LINE( '', #420, #421 );
#350 = FILL_AREA_STYLE_COLOUR( '', #422 );
#351 = FILL_AREA_STYLE_COLOUR( '', #423 );
#352 = VERTEX_POINT( '', #424 );
#353 = CIRCLE( '', #425, 2.00000000000000 );
#354 = FILL_AREA_STYLE_COLOUR( '', #426 );
#355 = LINE( '', #427, #428 );
#356 = FILL_AREA_STYLE_COLOUR( '', #429 );
#357 = FILL_AREA_STYLE_COLOUR( '', #430 );
#358 = VERTEX_POINT( '', #431 );
#359 = CIRCLE( '', #432, 2.00000000000000 );
#360 = FILL_AREA_STYLE_COLOUR( '', #433 );
#361 = FILL_AREA_STYLE_COLOUR( '', #434 );
#362 = COLOUR_RGB( '', 0.200000002980232, 0.200000002980232, 0.200000002980232 );
#363 = CARTESIAN_POINT( '', ( 1.35000000000000, 0.000000000000000, 2.00000000000000 ) );
#364 = AXIS2_PLACEMENT_3D( '', #435, #436, #437 );
#365 = CARTESIAN_POINT( '', ( 1.35000000000000, 0.000000000000000, 1.35000000000000 ) );
#366 = AXIS2_PLACEMENT_3D( '', #438, #439, #440 );
#367 = COLOUR_RGB( '', 0.752941191196442, 0.752941191196442, 0.752941191196442 );
#368 = CARTESIAN_POINT( '', ( 3.00000000000000, 0.000000000000000, 3.50000000000000 ) );
#369 = AXIS2_PLACEMENT_3D( '', #441, #442, #443 );
#370 = CARTESIAN_POINT( '', ( 0.500000000000000, 2.95803989154981, 15.5000000000000 ) );
#371 = CARTESIAN_POINT( '', ( 0.500000000000000, 2.95803989154981, 15.0000000000000 ) );
#372 = CARTESIAN_POINT( '', ( 0.500000000000000, 2.95803989154981, 10.5000000000000 ) );
#373 = VECTOR( '', #444, 1000.00000000000 );
#374 = CARTESIAN_POINT( '', ( 0.500000000000000, -2.95803989154981, 15.5000000000000 ) );
#375 = AXIS2_PLACEMENT_3D( '', #445, #446, #447 );
#376 = CARTESIAN_POINT( '', ( 0.500000000000000, -2.95803989154981, 15.0000000000000 ) );
#377 = CARTESIAN_POINT( '', ( 0.500000000000000, -2.95803989154981, 10.5000000000000 ) );
#378 = VECTOR( '', #448, 1000.00000000000 );
#379 = CARTESIAN_POINT( '', ( -0.500000000000000, -2.95803989154981, 15.0000000000000 ) );
#380 = AXIS2_PLACEMENT_3D( '', #449, #450, #451 );
#381 = CARTESIAN_POINT( '', ( -0.500000000000000, -2.95803989154981, 15.5000000000000 ) );
#382 = CARTESIAN_POINT( '', ( -0.500000000000000, -2.95803989154981, 10.5000000000000 ) );
#383 = VECTOR( '', #452, 1000.00000000000 );
#384 = CARTESIAN_POINT( '', ( -0.500000000000000, 2.95803989154981, 15.5000000000000 ) );
#385 = AXIS2_PLACEMENT_3D( '', #453, #454, #455 );
#386 = CARTESIAN_POINT( '', ( -0.500000000000000, 2.95803989154981, 15.0000000000000 ) );
#387 = CARTESIAN_POINT( '', ( -0.500000000000000, 2.95803989154981, 10.5000000000000 ) );
#388 = VECTOR( '', #456, 1000.00000000000 );
#389 = AXIS2_PLACEMENT_3D( '', #457, #458, #459 );
#390 = COLOUR_RGB( '', 0.200000002980232, 0.200000002980232, 0.200000002980232 );
#391 = CARTESIAN_POINT( '', ( 0.500000000000000, -2.44948974278318, 16.0000000000000 ) );
#392 = CARTESIAN_POINT( '', ( 0.500000000000000, -2.95803989154981, 15.5000000000000 ) );
#393 = CARTESIAN_POINT( '', ( 0.500000000000000, -2.78876251207873, 15.6669097470708 ) );
#394 = CARTESIAN_POINT( '', ( 0.500000000000000, -2.61929409428724, 15.8336263930843 ) );
#395 = CARTESIAN_POINT( '', ( 0.500000000000000, -2.44948974278318, 16.0000000000000 ) );
#396 = CARTESIAN_POINT( '', ( 0.500000000000000, 2.44948974278318, 16.0000000000000 ) );
#397 = CARTESIAN_POINT( '', ( 0.500000000000000, 2.44948974278318, 16.0000000000000 ) );
#398 = CARTESIAN_POINT( '', ( 0.500000000000000, 2.61929409428724, 15.8336263930843 ) );
#399 = CARTESIAN_POINT( '', ( 0.500000000000000, 2.78876251207873, 15.6669097470708 ) );
#400 = CARTESIAN_POINT( '', ( 0.500000000000000, 2.95803989154981, 15.5000000000000 ) );
#401 = AXIS2_PLACEMENT_3D( '', #460, #461, #462 );
#402 = COLOUR_RGB( '', 0.200000002980232, 0.200000002980232, 0.200000002980232 );
#403 = CARTESIAN_POINT( '', ( -0.500000000000000, 2.44948974278318, 16.0000000000000 ) );
#404 = CARTESIAN_POINT( '', ( -0.500000000000000, 2.95803989154981, 15.5000000000000 ) );
#405 = CARTESIAN_POINT( '', ( -0.500000000000000, 2.78876251207873, 15.6669097470708 ) );
#406 = CARTESIAN_POINT( '', ( -0.500000000000000, 2.61929409428724, 15.8336263930843 ) );
#407 = CARTESIAN_POINT( '', ( -0.500000000000000, 2.44948974278318, 16.0000000000000 ) );
#408 = CARTESIAN_POINT( '', ( -0.500000000000000, -2.44948974278318, 16.0000000000000 ) );
#409 = CARTESIAN_POINT( '', ( -0.500000000000000, -2.44948974278318, 16.0000000000000 ) );
#410 = CARTESIAN_POINT( '', ( -0.500000000000000, -2.61929409428724, 15.8336263930843 ) );
#411 = CARTESIAN_POINT( '', ( -0.500000000000000, -2.78876251207873, 15.6669097470708 ) );
#412 = CARTESIAN_POINT( '', ( -0.500000000000000, -2.95803989154981, 15.5000000000000 ) );
#413 = AXIS2_PLACEMENT_3D( '', #463, #464, #465 );
#414 = COLOUR_RGB( '', 0.200000002980232, 0.200000002980232, 0.200000002980232 );
#415 = CARTESIAN_POINT( '', ( 0.500000000000000, -12.5000000000000, 16.0000000000000 ) );
#416 = VECTOR( '', #466, 1000.00000000000 );
#417 = COLOUR_RGB( '', 0.200000002980232, 0.200000002980232, 0.200000002980232 );
#418 = CARTESIAN_POINT( '', ( -0.500000000000000, -12.5000000000000, 16.0000000000000 ) );
#419 = VECTOR( '', #467, 1000.00000000000 );
#420 = CARTESIAN_POINT( '', ( -0.500000000000000, -12.5000000000000, 15.0000000000000 ) );
#421 = VECTOR( '', #468, 1000.00000000000 );
#422 = COLOUR_RGB( '', 0.200000002980232, 0.200000002980232, 0.200000002980232 );
#423 = COLOUR_RGB( '', 0.200000002980232, 0.200000002980232, 0.200000002980232 );
#424 = CARTESIAN_POINT( '', ( 2.00000000000000, 0.000000000000000, 2.00000000000000 ) );
#425 = AXIS2_PLACEMENT_3D( '', #469, #470, #471 );
#426 = COLOUR_RGB( '', 0.200000002980232, 0.200000002980232, 0.200000002980232 );
#427 = CARTESIAN_POINT( '', ( 0.500000000000000, -12.5000000000000, 15.0000000000000 ) );
#428 = VECTOR( '', #472, 1000.00000000000 );
#429 = COLOUR_RGB( '', 0.200000002980232, 0.200000002980232, 0.200000002980232 );
#430 = COLOUR_RGB( '', 0.200000002980232, 0.200000002980232, 0.200000002980232 );
#431 = CARTESIAN_POINT( '', ( 2.00000000000000, 0.000000000000000, 2.50000000000000 ) );
#432 = AXIS2_PLACEMENT_3D( '', #473, #474, #475 );
#433 = COLOUR_RGB( '', 0.200000002980232, 0.200000002980232, 0.200000002980232 );
#434 = COLOUR_RGB( '', 0.200000002980232, 0.200000002980232, 0.200000002980232 );
#435 = CARTESIAN_POINT( '', ( -4.48260824957630E-017, 0.000000000000000, 2.00000000000000 ) );
#436 = DIRECTION( '', ( 1.37926407679271E-017, 0.000000000000000, 1.00000000000000 ) );
#437 = DIRECTION( '', ( 1.00000000000000, 0.000000000000000, -1.37926407679271E-017 ) );
#438 = CARTESIAN_POINT( '', ( -5.37912989949155E-017, 0.000000000000000, 1.35000000000000 ) );
#439 = DIRECTION( '', ( 1.37926407679271E-017, 0.000000000000000, 1.00000000000000 ) );
#440 = DIRECTION( '', ( 1.00000000000000, 0.000000000000000, -1.37926407679271E-017 ) );
#441 = CARTESIAN_POINT( '', ( -2.41371213438723E-017, 0.000000000000000, 3.50000000000000 ) );
#442 = DIRECTION( '', ( 1.37926407679270E-017, 0.000000000000000, 1.00000000000000 ) );
#443 = DIRECTION( '', ( 1.00000000000000, 0.000000000000000, -1.37926407679270E-017 ) );
#444 = DIRECTION( '', ( 1.37926407679271E-017, 0.000000000000000, 1.00000000000000 ) );
#445 = CARTESIAN_POINT( '', ( 1.41374567871252E-016, 0.000000000000000, 15.5000000000000 ) );
#446 = DIRECTION( '', ( -1.37926407679270E-017, 0.000000000000000, -1.00000000000000 ) );
#447 = DIRECTION( '', ( -1.00000000000000, 0.000000000000000, 1.37926407679270E-017 ) );
#448 = DIRECTION( '', ( 1.37926407679271E-017, 0.000000000000000, 1.00000000000000 ) );
#449 = CARTESIAN_POINT( '', ( 1.34478247487289E-016, 0.000000000000000, 15.0000000000000 ) );
#450 = DIRECTION( '', ( 0.000000000000000, 0.000000000000000, 1.00000000000000 ) );
#451 = DIRECTION( '', ( 1.00000000000000, 0.000000000000000, 0.000000000000000 ) );
#452 = DIRECTION( '', ( 1.37926407679271E-017, 0.000000000000000, 1.00000000000000 ) );
#453 = CARTESIAN_POINT( '', ( 1.41374567871252E-016, 0.000000000000000, 15.5000000000000 ) );
#454 = DIRECTION( '', ( -1.37926407679270E-017, 0.000000000000000, -1.00000000000000 ) );
#455 = DIRECTION( '', ( -1.00000000000000, 0.000000000000000, 1.37926407679270E-017 ) );
#456 = DIRECTION( '', ( 1.37926407679271E-017, 0.000000000000000, 1.00000000000000 ) );
#457 = CARTESIAN_POINT( '', ( 1.34478247487289E-016, 0.000000000000000, 15.0000000000000 ) );
#458 = DIRECTION( '', ( 0.000000000000000, 0.000000000000000, 1.00000000000000 ) );
#459 = DIRECTION( '', ( 1.00000000000000, 0.000000000000000, 0.000000000000000 ) );
#460 = CARTESIAN_POINT( '', ( 1.48270888255216E-016, 0.000000000000000, 16.0000000000000 ) );
#461 = DIRECTION( '', ( -1.37926407679271E-017, 0.000000000000000, -1.00000000000000 ) );
#462 = DIRECTION( '', ( -1.00000000000000, 0.000000000000000, 1.37926407679271E-017 ) );
#463 = CARTESIAN_POINT( '', ( 1.48270888255216E-016, 0.000000000000000, 16.0000000000000 ) );
#464 = DIRECTION( '', ( -1.37926407679271E-017, 0.000000000000000, -1.00000000000000 ) );
#465 = DIRECTION( '', ( -1.00000000000000, 0.000000000000000, 1.37926407679271E-017 ) );
#466 = DIRECTION( '', ( 0.000000000000000, 1.00000000000000, 0.000000000000000 ) );
#467 = DIRECTION( '', ( 0.000000000000000, 1.00000000000000, 0.000000000000000 ) );
#468 = DIRECTION( '', ( 0.000000000000000, 1.00000000000000, 0.000000000000000 ) );
#469 = CARTESIAN_POINT( '', ( -4.48260824957630E-017, 0.000000000000000, 2.00000000000000 ) );
#470 = DIRECTION( '', ( 1.37926407679271E-017, 0.000000000000000, 1.00000000000000 ) );
#471 = DIRECTION( '', ( 1.00000000000000, 0.000000000000000, -1.37926407679271E-017 ) );
#472 = DIRECTION( '', ( 0.000000000000000, 1.00000000000000, 0.000000000000000 ) );
#473 = CARTESIAN_POINT( '', ( -3.79297621117994E-017, 0.000000000000000, 2.50000000000000 ) );
#474 = DIRECTION( '', ( 1.37926407679271E-017, 0.000000000000000, 1.00000000000000 ) );
#475 = DIRECTION( '', ( 1.00000000000000, 0.000000000000000, -1.37926407679271E-017 ) );
ENDSEC;
END-ISO-10303-21;
