ISO-10303-21;
HEADER;
FILE_DESCRIPTION( ( 'Unknown' ), '1' );
FILE_NAME( '//SBS2003/HD_Usb/Disegni/08_LIB/Users_3D/PROD_GAMM_3D/APP-A/7747320_APP_16_A.stp', 'Unknown', ( 'Unknown' ), ( 'Unknown' ), 'PSStep 14.0', 'Unknown', '  ' );
FILE_SCHEMA( ( 'AUTOMOTIVE_DESIGN { 1 0 10303 214 1 1 1 1 }' ) );
ENDSEC;
DATA;
#1 = MECHANICAL_DESIGN_GEOMETRIC_PRESENTATION_REPRESENTATION( ' ', ( #10, #11, #12, #13, #14, #15, #16, #17, #18, #19, #20, #21 ), #6 );
#2 = PRODUCT_DEFINITION_CONTEXT( '', #22, 'design' );
#3 = APPLICATION_PROTOCOL_DEFINITION( 'international standard', 'automotive_design', 2001, #22 );
#4 = PRODUCT_CATEGORY_RELATIONSHIP( 'NONE', 'NONE', #23, #24 );
#5 = SHAPE_DEFINITION_REPRESENTATION( #25, #26 );
#6 =  ( GEOMETRIC_REPRESENTATION_CONTEXT( 3 )GLOBAL_UNCERTAINTY_ASSIGNED_CONTEXT( ( #29 ) )GLOBAL_UNIT_ASSIGNED_CONTEXT( ( #31, #32, #33 ) )REPRESENTATION_CONTEXT( 'NONE', 'WORKSPACE' ) );
#10 = STYLED_ITEM( '', ( #35 ), #36 );
#11 = STYLED_ITEM( '', ( #37 ), #38 );
#12 = STYLED_ITEM( '', ( #39 ), #40 );
#13 = STYLED_ITEM( '', ( #41 ), #42 );
#14 = STYLED_ITEM( '', ( #43 ), #44 );
#15 = STYLED_ITEM( '', ( #45 ), #46 );
#16 = STYLED_ITEM( '', ( #47 ), #48 );
#17 = STYLED_ITEM( '', ( #49 ), #50 );
#18 = STYLED_ITEM( '', ( #51 ), #52 );
#19 = STYLED_ITEM( '', ( #53 ), #54 );
#20 = STYLED_ITEM( '', ( #55 ), #56 );
#21 = STYLED_ITEM( '', ( #57 ), #58 );
#22 = APPLICATION_CONTEXT( 'core data for automotive mechanical design processes' );
#23 = PRODUCT_CATEGORY( 'part', 'NONE' );
#24 = PRODUCT_RELATED_PRODUCT_CATEGORY( 'detail', ' ', ( #59 ) );
#25 = PRODUCT_DEFINITION_SHAPE( 'NONE', 'NONE', #60 );
#26 = ADVANCED_BREP_SHAPE_REPRESENTATION( '1', ( #61, #62 ), #6 );
#29 = UNCERTAINTY_MEASURE_WITH_UNIT( LENGTH_MEASURE( 0.00100000000000000 ), #31, '', '' );
#31 =  ( CONVERSION_BASED_UNIT( 'MILLIMETRE', #65 )LENGTH_UNIT(  )NAMED_UNIT( #68 ) );
#32 =  ( NAMED_UNIT( #70 )PLANE_ANGLE_UNIT(  )SI_UNIT( $, .RADIAN. ) );
#33 =  ( NAMED_UNIT( #70 )SI_UNIT( $, .STERADIAN. )SOLID_ANGLE_UNIT(  ) );
#35 = PRESENTATION_STYLE_ASSIGNMENT( ( #76 ) );
#36 = ADVANCED_FACE( '', ( #77 ), #78, .T. );
#37 = PRESENTATION_STYLE_ASSIGNMENT( ( #79 ) );
#38 = ADVANCED_FACE( '', ( #80 ), #81, .T. );
#39 = PRESENTATION_STYLE_ASSIGNMENT( ( #82 ) );
#40 = ADVANCED_FACE( '', ( #83, #84 ), #85, .F. );
#41 = PRESENTATION_STYLE_ASSIGNMENT( ( #86 ) );
#42 = ADVANCED_FACE( '', ( #87 ), #88, .F. );
#43 = PRESENTATION_STYLE_ASSIGNMENT( ( #89 ) );
#44 = ADVANCED_FACE( '', ( #90 ), #91, .T. );
#45 = PRESENTATION_STYLE_ASSIGNMENT( ( #92 ) );
#46 = ADVANCED_FACE( '', ( #93 ), #94, .F. );
#47 = PRESENTATION_STYLE_ASSIGNMENT( ( #95 ) );
#48 = ADVANCED_FACE( '', ( #96 ), #97, .T. );
#49 = PRESENTATION_STYLE_ASSIGNMENT( ( #98 ) );
#50 = ADVANCED_FACE( '', ( #99 ), #100, .T. );
#51 = PRESENTATION_STYLE_ASSIGNMENT( ( #101 ) );
#52 = ADVANCED_FACE( '', ( #102, #103 ), #104, .T. );
#53 = PRESENTATION_STYLE_ASSIGNMENT( ( #105 ) );
#54 = ADVANCED_FACE( '', ( #106 ), #107, .T. );
#55 = PRESENTATION_STYLE_ASSIGNMENT( ( #108 ) );
#56 = ADVANCED_FACE( '', ( #109, #110 ), #111, .T. );
#57 = PRESENTATION_STYLE_ASSIGNMENT( ( #112 ) );
#58 = ADVANCED_FACE( '', ( #113, #114 ), #115, .T. );
#59 = PRODUCT( '1', '1', 'PART-1-DESC', ( #116 ) );
#60 = PRODUCT_DEFINITION( 'NONE', 'NONE', #117, #2 );
#61 = MANIFOLD_SOLID_BREP( '1', #118 );
#62 = AXIS2_PLACEMENT_3D( '', #119, #120, #121 );
#65 = LENGTH_MEASURE_WITH_UNIT( LENGTH_MEASURE( 1.00000000000000 ), #122 );
#68 = DIMENSIONAL_EXPONENTS( 1.00000000000000, 0.000000000000000, 0.000000000000000, 0.000000000000000, 0.000000000000000, 0.000000000000000, 0.000000000000000 );
#70 = DIMENSIONAL_EXPONENTS( 0.000000000000000, 0.000000000000000, 0.000000000000000, 0.000000000000000, 0.000000000000000, 0.000000000000000, 0.000000000000000 );
#76 = SURFACE_STYLE_USAGE( .BOTH., #123 );
#77 = FACE_OUTER_BOUND( '', #124, .T. );
#78 = PLANE( '', #125 );
#79 = SURFACE_STYLE_USAGE( .BOTH., #126 );
#80 = FACE_OUTER_BOUND( '', #127, .T. );
#81 = PLANE( '', #128 );
#82 = SURFACE_STYLE_USAGE( .BOTH., #129 );
#83 = FACE_OUTER_BOUND( '', #130, .T. );
#84 = FACE_BOUND( '', #131, .T. );
#85 = PLANE( '', #132 );
#86 = SURFACE_STYLE_USAGE( .BOTH., #133 );
#87 = FACE_OUTER_BOUND( '', #134, .T. );
#88 = PLANE( '', #135 );
#89 = SURFACE_STYLE_USAGE( .BOTH., #136 );
#90 = FACE_OUTER_BOUND( '', #137, .T. );
#91 = SPHERICAL_SURFACE( '', #138, 2.00000000000000 );
#92 = SURFACE_STYLE_USAGE( .BOTH., #139 );
#93 = FACE_OUTER_BOUND( '', #140, .T. );
#94 = PLANE( '', #141 );
#95 = SURFACE_STYLE_USAGE( .BOTH., #142 );
#96 = FACE_OUTER_BOUND( '', #143, .T. );
#97 = PLANE( '', #144 );
#98 = SURFACE_STYLE_USAGE( .BOTH., #145 );
#99 = FACE_OUTER_BOUND( '', #146, .T. );
#100 = CONICAL_SURFACE( '', #147, 3.50000000000000, 0.785398163397448 );
#101 = SURFACE_STYLE_USAGE( .BOTH., #148 );
#102 = FACE_OUTER_BOUND( '', #149, .T. );
#103 = FACE_OUTER_BOUND( '', #150, .T. );
#104 = CYLINDRICAL_SURFACE( '', #151, 3.50000000000000 );
#105 = SURFACE_STYLE_USAGE( .BOTH., #152 );
#106 = FACE_OUTER_BOUND( '', #153, .T. );
#107 = CONICAL_SURFACE( '', #154, 3.50000000000000, 0.785398163397448 );
#108 = SURFACE_STYLE_USAGE( .BOTH., #155 );
#109 = FACE_BOUND( '', #156, .T. );
#110 = FACE_OUTER_BOUND( '', #157, .T. );
#111 = CONICAL_SURFACE( '', #158, 4.00000000000000, 0.785398163397448 );
#112 = SURFACE_STYLE_USAGE( .BOTH., #159 );
#113 = FACE_OUTER_BOUND( '', #160, .T. );
#114 = FACE_OUTER_BOUND( '', #161, .T. );
#115 = CYLINDRICAL_SURFACE( '', #162, 4.00000000000000 );
#116 = PRODUCT_CONTEXT( '', #22, 'mechanical' );
#117 = PRODUCT_DEFINITION_FORMATION_WITH_SPECIFIED_SOURCE( ' ', 'NONE', #59, .NOT_KNOWN. );
#118 = CLOSED_SHELL( '', ( #58, #54, #36, #48, #50, #56, #44, #40, #42, #52, #46, #38 ) );
#119 = CARTESIAN_POINT( '', ( 0.000000000000000, 0.000000000000000, 0.000000000000000 ) );
#120 = DIRECTION( '', ( 0.000000000000000, 0.000000000000000, 1.00000000000000 ) );
#121 = DIRECTION( '', ( 1.00000000000000, 0.000000000000000, 0.000000000000000 ) );
#122 =  ( LENGTH_UNIT(  )NAMED_UNIT( #68 )SI_UNIT( .MILLI., .METRE. ) );
#123 = SURFACE_SIDE_STYLE( '', ( #164 ) );
#124 = EDGE_LOOP( '', ( #165, #166, #167, #168 ) );
#125 = AXIS2_PLACEMENT_3D( '', #169, #170, #171 );
#126 = SURFACE_SIDE_STYLE( '', ( #172 ) );
#127 = EDGE_LOOP( '', ( #173, #174, #175, #176, #177, #178 ) );
#128 = AXIS2_PLACEMENT_3D( '', #179, #180, #181 );
#129 = SURFACE_SIDE_STYLE( '', ( #182 ) );
#130 = EDGE_LOOP( '', ( #183 ) );
#131 = EDGE_LOOP( '', ( #184 ) );
#132 = AXIS2_PLACEMENT_3D( '', #185, #186, #187 );
#133 = SURFACE_SIDE_STYLE( '', ( #188 ) );
#134 = EDGE_LOOP( '', ( #189, #190 ) );
#135 = AXIS2_PLACEMENT_3D( '', #191, #192, #193 );
#136 = SURFACE_SIDE_STYLE( '', ( #194 ) );
#137 = EDGE_LOOP( '', ( #195 ) );
#138 = AXIS2_PLACEMENT_3D( '', #196, #197, #198 );
#139 = SURFACE_SIDE_STYLE( '', ( #199 ) );
#140 = EDGE_LOOP( '', ( #200, #201 ) );
#141 = AXIS2_PLACEMENT_3D( '', #202, #203, #204 );
#142 = SURFACE_SIDE_STYLE( '', ( #205 ) );
#143 = EDGE_LOOP( '', ( #206, #207, #208, #209, #210, #211 ) );
#144 = AXIS2_PLACEMENT_3D( '', #212, #213, #214 );
#145 = SURFACE_SIDE_STYLE( '', ( #215 ) );
#146 = EDGE_LOOP( '', ( #216, #217, #218, #219 ) );
#147 = AXIS2_PLACEMENT_3D( '', #220, #221, #222 );
#148 = SURFACE_SIDE_STYLE( '', ( #223 ) );
#149 = EDGE_LOOP( '', ( #224 ) );
#150 = EDGE_LOOP( '', ( #225 ) );
#151 = AXIS2_PLACEMENT_3D( '', #226, #227, #228 );
#152 = SURFACE_SIDE_STYLE( '', ( #229 ) );
#153 = EDGE_LOOP( '', ( #230, #231, #232, #233 ) );
#154 = AXIS2_PLACEMENT_3D( '', #234, #235, #236 );
#155 = SURFACE_SIDE_STYLE( '', ( #237 ) );
#156 = EDGE_LOOP( '', ( #238 ) );
#157 = EDGE_LOOP( '', ( #239 ) );
#158 = AXIS2_PLACEMENT_3D( '', #240, #241, #242 );
#159 = SURFACE_SIDE_STYLE( '', ( #243 ) );
#160 = EDGE_LOOP( '', ( #244 ) );
#161 = EDGE_LOOP( '', ( #245, #246, #247, #248, #249, #250, #251, #252 ) );
#162 = AXIS2_PLACEMENT_3D( '', #253, #254, #255 );
#164 = SURFACE_STYLE_FILL_AREA( #256 );
#165 = ORIENTED_EDGE( '', *, *, #257, .T. );
#166 = ORIENTED_EDGE( '', *, *, #258, .F. );
#167 = ORIENTED_EDGE( '', *, *, #259, .T. );
#168 = ORIENTED_EDGE( '', *, *, #260, .T. );
#169 = CARTESIAN_POINT( '', ( -0.500000000000000, -12.5000000000000, 17.0000000000000 ) );
#170 = DIRECTION( '', ( 0.000000000000000, 0.000000000000000, 1.00000000000000 ) );
#171 = DIRECTION( '', ( 1.00000000000000, 0.000000000000000, 0.000000000000000 ) );
#172 = SURFACE_STYLE_FILL_AREA( #261 );
#173 = ORIENTED_EDGE( '', *, *, #262, .F. );
#174 = ORIENTED_EDGE( '', *, *, #263, .T. );
#175 = ORIENTED_EDGE( '', *, *, #264, .T. );
#176 = ORIENTED_EDGE( '', *, *, #258, .T. );
#177 = ORIENTED_EDGE( '', *, *, #265, .T. );
#178 = ORIENTED_EDGE( '', *, *, #266, .T. );
#179 = CARTESIAN_POINT( '', ( -0.500000000000000, -12.5000000000000, 18.0000000000000 ) );
#180 = DIRECTION( '', ( 1.00000000000000, 0.000000000000000, 1.08420217248550E-016 ) );
#181 = DIRECTION( '', ( 1.08420217248550E-016, 0.000000000000000, -1.00000000000000 ) );
#182 = SURFACE_STYLE_FILL_AREA( #267 );
#183 = ORIENTED_EDGE( '', *, *, #268, .F. );
#184 = ORIENTED_EDGE( '', *, *, #269, .T. );
#185 = CARTESIAN_POINT( '', ( 2.00000000000000, 0.000000000000000, 2.00000000000000 ) );
#186 = DIRECTION( '', ( -3.27498903271780E-017, 0.000000000000000, 1.00000000000000 ) );
#187 = DIRECTION( '', ( 1.00000000000000, 0.000000000000000, 3.27498903271780E-017 ) );
#188 = SURFACE_STYLE_FILL_AREA( #270 );
#189 = ORIENTED_EDGE( '', *, *, #271, .F. );
#190 = ORIENTED_EDGE( '', *, *, #272, .T. );
#191 = CARTESIAN_POINT( '', ( 4.00000000000000, 0.000000000000000, 18.0000000000000 ) );
#192 = DIRECTION( '', ( 3.27498903271780E-017, 0.000000000000000, -1.00000000000000 ) );
#193 = DIRECTION( '', ( -1.00000000000000, 0.000000000000000, -3.27498903271780E-017 ) );
#194 = SURFACE_STYLE_FILL_AREA( #273 );
#195 = ORIENTED_EDGE( '', *, *, #269, .F. );
#196 = CARTESIAN_POINT( '', ( 0.000000000000000, 0.000000000000000, 2.00000000000000 ) );
#197 = DIRECTION( '', ( -3.27498903271780E-017, 0.000000000000000, 1.00000000000000 ) );
#198 = DIRECTION( '', ( 1.00000000000000, 0.000000000000000, 3.27498903271780E-017 ) );
#199 = SURFACE_STYLE_FILL_AREA( #274 );
#200 = ORIENTED_EDGE( '', *, *, #262, .T. );
#201 = ORIENTED_EDGE( '', *, *, #275, .T. );
#202 = CARTESIAN_POINT( '', ( 4.00000000000000, 0.000000000000000, 18.0000000000000 ) );
#203 = DIRECTION( '', ( 3.27498903271780E-017, 0.000000000000000, -1.00000000000000 ) );
#204 = DIRECTION( '', ( -1.00000000000000, 0.000000000000000, -3.27498903271780E-017 ) );
#205 = SURFACE_STYLE_FILL_AREA( #276 );
#206 = ORIENTED_EDGE( '', *, *, #271, .T. );
#207 = ORIENTED_EDGE( '', *, *, #277, .T. );
#208 = ORIENTED_EDGE( '', *, *, #278, .T. );
#209 = ORIENTED_EDGE( '', *, *, #260, .F. );
#210 = ORIENTED_EDGE( '', *, *, #279, .T. );
#211 = ORIENTED_EDGE( '', *, *, #280, .T. );
#212 = CARTESIAN_POINT( '', ( 0.500000000000000, -12.5000000000000, 17.0000000000000 ) );
#213 = DIRECTION( '', ( -1.00000000000000, 0.000000000000000, 1.08420217248550E-016 ) );
#214 = DIRECTION( '', ( 1.08420217248550E-016, 0.000000000000000, 1.00000000000000 ) );
#215 = SURFACE_STYLE_FILL_AREA( #281 );
#216 = ORIENTED_EDGE( '', *, *, #280, .F. );
#217 = ORIENTED_EDGE( '', *, *, #282, .F. );
#218 = ORIENTED_EDGE( '', *, *, #277, .F. );
#219 = ORIENTED_EDGE( '', *, *, #272, .F. );
#220 = CARTESIAN_POINT( '', ( -3.27498903271780E-016, 0.000000000000000, 18.0000000000000 ) );
#221 = DIRECTION( '', ( 3.27498903271781E-017, -0.000000000000000, -1.00000000000000 ) );
#222 = DIRECTION( '', ( -1.00000000000000, 0.000000000000000, -3.27498903271781E-017 ) );
#223 = SURFACE_STYLE_FILL_AREA( #283 );
#224 = ORIENTED_EDGE( '', *, *, #284, .T. );
#225 = ORIENTED_EDGE( '', *, *, #268, .T. );
#226 = CARTESIAN_POINT( '', ( -2.61999122617424E-016, 0.000000000000000, 16.0000000000000 ) );
#227 = DIRECTION( '', ( 3.27498903271780E-017, -0.000000000000000, -1.00000000000000 ) );
#228 = DIRECTION( '', ( 1.00000000000000, 0.000000000000000, 3.27498903271780E-017 ) );
#229 = SURFACE_STYLE_FILL_AREA( #285 );
#230 = ORIENTED_EDGE( '', *, *, #266, .F. );
#231 = ORIENTED_EDGE( '', *, *, #286, .F. );
#232 = ORIENTED_EDGE( '', *, *, #263, .F. );
#233 = ORIENTED_EDGE( '', *, *, #275, .F. );
#234 = CARTESIAN_POINT( '', ( -3.27498903271780E-016, 0.000000000000000, 18.0000000000000 ) );
#235 = DIRECTION( '', ( 3.27498903271781E-017, -0.000000000000000, -1.00000000000000 ) );
#236 = DIRECTION( '', ( -1.00000000000000, 0.000000000000000, -3.27498903271781E-017 ) );
#237 = SURFACE_STYLE_FILL_AREA( #287 );
#238 = ORIENTED_EDGE( '', *, *, #284, .F. );
#239 = ORIENTED_EDGE( '', *, *, #288, .F. );
#240 = CARTESIAN_POINT( '', ( 1.47374506472301E-016, 0.000000000000000, 3.50000000000000 ) );
#241 = DIRECTION( '', ( -3.27498903271780E-017, 0.000000000000000, 1.00000000000000 ) );
#242 = DIRECTION( '', ( 1.00000000000000, 0.000000000000000, 3.27498903271780E-017 ) );
#243 = SURFACE_STYLE_FILL_AREA( #289 );
#244 = ORIENTED_EDGE( '', *, *, #288, .T. );
#245 = ORIENTED_EDGE( '', *, *, #278, .F. );
#246 = ORIENTED_EDGE( '', *, *, #282, .T. );
#247 = ORIENTED_EDGE( '', *, *, #279, .F. );
#248 = ORIENTED_EDGE( '', *, *, #259, .F. );
#249 = ORIENTED_EDGE( '', *, *, #264, .F. );
#250 = ORIENTED_EDGE( '', *, *, #286, .T. );
#251 = ORIENTED_EDGE( '', *, *, #265, .F. );
#252 = ORIENTED_EDGE( '', *, *, #257, .F. );
#253 = CARTESIAN_POINT( '', ( -2.61999122617424E-016, 0.000000000000000, 16.0000000000000 ) );
#254 = DIRECTION( '', ( 3.27498903271780E-017, -0.000000000000000, -1.00000000000000 ) );
#255 = DIRECTION( '', ( 1.00000000000000, 0.000000000000000, 3.27498903271780E-017 ) );
#256 = FILL_AREA_STYLE( '', ( #290 ) );
#257 = EDGE_CURVE( '', #291, #292, #293, .T. );
#258 = EDGE_CURVE( '', #294, #292, #295, .T. );
#259 = EDGE_CURVE( '', #294, #296, #297, .T. );
#260 = EDGE_CURVE( '', #296, #291, #298, .T. );
#261 = FILL_AREA_STYLE( '', ( #299 ) );
#262 = EDGE_CURVE( '', #300, #301, #302, .T. );
#263 = EDGE_CURVE( '', #300, #303, #304, .T. );
#264 = EDGE_CURVE( '', #303, #294, #305, .F. );
#265 = EDGE_CURVE( '', #292, #306, #307, .T. );
#266 = EDGE_CURVE( '', #306, #301, #308, .T. );
#267 = FILL_AREA_STYLE( '', ( #309 ) );
#268 = EDGE_CURVE( '', #310, #310, #311, .T. );
#269 = EDGE_CURVE( '', #312, #312, #313, .T. );
#270 = FILL_AREA_STYLE( '', ( #314 ) );
#271 = EDGE_CURVE( '', #315, #316, #317, .T. );
#272 = EDGE_CURVE( '', #315, #316, #318, .F. );
#273 = FILL_AREA_STYLE( '', ( #319 ) );
#274 = FILL_AREA_STYLE( '', ( #320 ) );
#275 = EDGE_CURVE( '', #301, #300, #321, .F. );
#276 = FILL_AREA_STYLE( '', ( #322 ) );
#277 = EDGE_CURVE( '', #316, #323, #324, .T. );
#278 = EDGE_CURVE( '', #323, #291, #325, .F. );
#279 = EDGE_CURVE( '', #296, #326, #327, .T. );
#280 = EDGE_CURVE( '', #326, #315, #328, .T. );
#281 = FILL_AREA_STYLE( '', ( #329 ) );
#282 = EDGE_CURVE( '', #323, #326, #330, .T. );
#283 = FILL_AREA_STYLE( '', ( #331 ) );
#284 = EDGE_CURVE( '', #332, #332, #333, .F. );
#285 = FILL_AREA_STYLE( '', ( #334 ) );
#286 = EDGE_CURVE( '', #303, #306, #335, .T. );
#287 = FILL_AREA_STYLE( '', ( #336 ) );
#288 = EDGE_CURVE( '', #337, #337, #338, .T. );
#289 = FILL_AREA_STYLE( '', ( #339 ) );
#290 = FILL_AREA_STYLE_COLOUR( '', #340 );
#291 = VERTEX_POINT( '', #341 );
#292 = VERTEX_POINT( '', #342 );
#293 = CIRCLE( '', #343, 4.00000000000000 );
#294 = VERTEX_POINT( '', #344 );
#295 = LINE( '', #345, #346 );
#296 = VERTEX_POINT( '', #347 );
#297 = CIRCLE( '', #348, 4.00000000000000 );
#298 = LINE( '', #349, #350 );
#299 = FILL_AREA_STYLE_COLOUR( '', #351 );
#300 = VERTEX_POINT( '', #352 );
#301 = VERTEX_POINT( '', #353 );
#302 = LINE( '', #354, #355 );
#303 = VERTEX_POINT( '', #356 );
#304 = B_SPLINE_CURVE_WITH_KNOTS( '', 3, ( #357, #358, #359, #360 ), .UNSPECIFIED., .F., .F., ( 4, 4 ), ( 0.000000000000000, 0.000710313895587687 ), .UNSPECIFIED. );
#305 = LINE( '', #361, #362 );
#306 = VERTEX_POINT( '', #363 );
#307 = LINE( '', #364, #365 );
#308 = B_SPLINE_CURVE_WITH_KNOTS( '', 3, ( #366, #367, #368, #369 ), .UNSPECIFIED., .F., .F., ( 4, 4 ), ( 0.000000000000000, 0.000710313895587687 ), .UNSPECIFIED. );
#309 = FILL_AREA_STYLE_COLOUR( '', #370 );
#310 = VERTEX_POINT( '', #371 );
#311 = CIRCLE( '', #372, 3.50000000000000 );
#312 = VERTEX_POINT( '', #373 );
#313 = CIRCLE( '', #374, 2.00000000000000 );
#314 = FILL_AREA_STYLE_COLOUR( '', #375 );
#315 = VERTEX_POINT( '', #376 );
#316 = VERTEX_POINT( '', #377 );
#317 = LINE( '', #378, #379 );
#318 = CIRCLE( '', #380, 3.50000000000000 );
#319 = FILL_AREA_STYLE_COLOUR( '', #381 );
#320 = FILL_AREA_STYLE_COLOUR( '', #382 );
#321 = CIRCLE( '', #383, 3.50000000000000 );
#322 = FILL_AREA_STYLE_COLOUR( '', #384 );
#323 = VERTEX_POINT( '', #385 );
#324 = B_SPLINE_CURVE_WITH_KNOTS( '', 3, ( #386, #387, #388, #389 ), .UNSPECIFIED., .F., .F., ( 4, 4 ), ( 0.000000000000000, 0.000710313895587687 ), .UNSPECIFIED. );
#325 = LINE( '', #390, #391 );
#326 = VERTEX_POINT( '', #392 );
#327 = LINE( '', #393, #394 );
#328 = B_SPLINE_CURVE_WITH_KNOTS( '', 3, ( #395, #396, #397, #398 ), .UNSPECIFIED., .F., .F., ( 4, 4 ), ( 0.000000000000000, 0.000710313895587687 ), .UNSPECIFIED. );
#329 = FILL_AREA_STYLE_COLOUR( '', #399 );
#330 = CIRCLE( '', #400, 4.00000000000000 );
#331 = FILL_AREA_STYLE_COLOUR( '', #401 );
#332 = VERTEX_POINT( '', #402 );
#333 = CIRCLE( '', #403, 3.50000000000000 );
#334 = FILL_AREA_STYLE_COLOUR( '', #404 );
#335 = CIRCLE( '', #405, 4.00000000000000 );
#336 = FILL_AREA_STYLE_COLOUR( '', #406 );
#337 = VERTEX_POINT( '', #407 );
#338 = CIRCLE( '', #408, 4.00000000000000 );
#339 = FILL_AREA_STYLE_COLOUR( '', #409 );
#340 = COLOUR_RGB( '', 0.200000002980232, 0.200000002980232, 0.200000002980232 );
#341 = CARTESIAN_POINT( '', ( 0.500000000000000, 3.96862696659689, 17.0000000000000 ) );
#342 = CARTESIAN_POINT( '', ( -0.500000000000000, 3.96862696659689, 17.0000000000000 ) );
#343 = AXIS2_PLACEMENT_3D( '', #410, #411, #412 );
#344 = CARTESIAN_POINT( '', ( -0.500000000000000, -3.96862696659689, 17.0000000000000 ) );
#345 = CARTESIAN_POINT( '', ( -0.500000000000000, -12.5000000000000, 17.0000000000000 ) );
#346 = VECTOR( '', #413, 1000.00000000000 );
#347 = CARTESIAN_POINT( '', ( 0.500000000000000, -3.96862696659689, 17.0000000000000 ) );
#348 = AXIS2_PLACEMENT_3D( '', #414, #415, #416 );
#349 = CARTESIAN_POINT( '', ( 0.500000000000000, -12.5000000000000, 17.0000000000000 ) );
#350 = VECTOR( '', #417, 1000.00000000000 );
#351 = COLOUR_RGB( '', 0.200000002980232, 0.200000002980232, 0.200000002980232 );
#352 = CARTESIAN_POINT( '', ( -0.500000000000000, -3.46410161513775, 18.0000000000000 ) );
#353 = CARTESIAN_POINT( '', ( -0.500000000000000, 3.46410161513775, 18.0000000000000 ) );
#354 = CARTESIAN_POINT( '', ( -0.500000000000000, -12.5000000000000, 18.0000000000000 ) );
#355 = VECTOR( '', #418, 1000.00000000000 );
#356 = CARTESIAN_POINT( '', ( -0.500000000000000, -3.96862696659689, 17.5000000000000 ) );
#357 = CARTESIAN_POINT( '', ( -0.500000000000000, -3.46410161513775, 18.0000000000000 ) );
#358 = CARTESIAN_POINT( '', ( -0.500000000000000, -3.63238499612051, 17.8334426480391 ) );
#359 = CARTESIAN_POINT( '', ( -0.500000000000000, -3.80054652420263, 17.6667621440608 ) );
#360 = CARTESIAN_POINT( '', ( -0.500000000000000, -3.96862696659689, 17.5000000000000 ) );
#361 = CARTESIAN_POINT( '', ( -0.500000000000000, -3.96862696659689, 16.0000000000000 ) );
#362 = VECTOR( '', #419, 1000.00000000000 );
#363 = CARTESIAN_POINT( '', ( -0.500000000000000, 3.96862696659689, 17.5000000000000 ) );
#364 = CARTESIAN_POINT( '', ( -0.500000000000000, 3.96862696659689, 16.0000000000000 ) );
#365 = VECTOR( '', #420, 1000.00000000000 );
#366 = CARTESIAN_POINT( '', ( -0.500000000000000, 3.96862696659689, 17.5000000000000 ) );
#367 = CARTESIAN_POINT( '', ( -0.500000000000000, 3.80054652420263, 17.6667621440608 ) );
#368 = CARTESIAN_POINT( '', ( -0.500000000000000, 3.63238499612051, 17.8334426480391 ) );
#369 = CARTESIAN_POINT( '', ( -0.500000000000000, 3.46410161513775, 18.0000000000000 ) );
#370 = COLOUR_RGB( '', 0.200000002980232, 0.200000002980232, 0.200000002980232 );
#371 = CARTESIAN_POINT( '', ( 3.50000000000000, 0.000000000000000, 2.00000000000000 ) );
#372 = AXIS2_PLACEMENT_3D( '', #421, #422, #423 );
#373 = CARTESIAN_POINT( '', ( 2.00000000000000, 0.000000000000000, 2.00000000000000 ) );
#374 = AXIS2_PLACEMENT_3D( '', #424, #425, #426 );
#375 = COLOUR_RGB( '', 0.200000002980232, 0.200000002980232, 0.200000002980232 );
#376 = CARTESIAN_POINT( '', ( 0.500000000000000, -3.46410161513775, 18.0000000000000 ) );
#377 = CARTESIAN_POINT( '', ( 0.500000000000000, 3.46410161513775, 18.0000000000000 ) );
#378 = CARTESIAN_POINT( '', ( 0.500000000000000, -12.5000000000000, 18.0000000000000 ) );
#379 = VECTOR( '', #427, 1000.00000000000 );
#380 = AXIS2_PLACEMENT_3D( '', #428, #429, #430 );
#381 = COLOUR_RGB( '', 0.200000002980232, 0.200000002980232, 0.200000002980232 );
#382 = COLOUR_RGB( '', 0.200000002980232, 0.200000002980232, 0.200000002980232 );
#383 = AXIS2_PLACEMENT_3D( '', #431, #432, #433 );
#384 = COLOUR_RGB( '', 0.200000002980232, 0.200000002980232, 0.200000002980232 );
#385 = CARTESIAN_POINT( '', ( 0.500000000000000, 3.96862696659689, 17.5000000000000 ) );
#386 = CARTESIAN_POINT( '', ( 0.500000000000000, 3.46410161513775, 18.0000000000000 ) );
#387 = CARTESIAN_POINT( '', ( 0.500000000000000, 3.63238499612051, 17.8334426480391 ) );
#388 = CARTESIAN_POINT( '', ( 0.500000000000000, 3.80054652420263, 17.6667621440608 ) );
#389 = CARTESIAN_POINT( '', ( 0.500000000000000, 3.96862696659689, 17.5000000000000 ) );
#390 = CARTESIAN_POINT( '', ( 0.500000000000000, 3.96862696659689, 16.0000000000000 ) );
#391 = VECTOR( '', #434, 1000.00000000000 );
#392 = CARTESIAN_POINT( '', ( 0.500000000000000, -3.96862696659689, 17.5000000000000 ) );
#393 = CARTESIAN_POINT( '', ( 0.500000000000000, -3.96862696659689, 16.0000000000000 ) );
#394 = VECTOR( '', #435, 1000.00000000000 );
#395 = CARTESIAN_POINT( '', ( 0.500000000000000, -3.96862696659689, 17.5000000000000 ) );
#396 = CARTESIAN_POINT( '', ( 0.500000000000000, -3.80054652420263, 17.6667621440608 ) );
#397 = CARTESIAN_POINT( '', ( 0.500000000000000, -3.63238499612051, 17.8334426480391 ) );
#398 = CARTESIAN_POINT( '', ( 0.500000000000000, -3.46410161513775, 18.0000000000000 ) );
#399 = COLOUR_RGB( '', 0.200000002980232, 0.200000002980232, 0.200000002980232 );
#400 = AXIS2_PLACEMENT_3D( '', #436, #437, #438 );
#401 = COLOUR_RGB( '', 0.200000002980232, 0.200000002980232, 0.200000002980232 );
#402 = CARTESIAN_POINT( '', ( 3.50000000000000, 0.000000000000000, 3.00000000000000 ) );
#403 = AXIS2_PLACEMENT_3D( '', #439, #440, #441 );
#404 = COLOUR_RGB( '', 0.200000002980232, 0.200000002980232, 0.200000002980232 );
#405 = AXIS2_PLACEMENT_3D( '', #442, #443, #444 );
#406 = COLOUR_RGB( '', 0.200000002980232, 0.200000002980232, 0.200000002980232 );
#407 = CARTESIAN_POINT( '', ( 4.00000000000000, 0.000000000000000, 3.50000000000000 ) );
#408 = AXIS2_PLACEMENT_3D( '', #445, #446, #447 );
#409 = COLOUR_RGB( '', 0.752941191196442, 0.752941191196442, 0.752941191196442 );
#410 = CARTESIAN_POINT( '', ( -2.94749012944602E-016, 0.000000000000000, 17.0000000000000 ) );
#411 = DIRECTION( '', ( 0.000000000000000, 0.000000000000000, 1.00000000000000 ) );
#412 = DIRECTION( '', ( 1.00000000000000, 0.000000000000000, 0.000000000000000 ) );
#413 = DIRECTION( '', ( 0.000000000000000, 1.00000000000000, 0.000000000000000 ) );
#414 = CARTESIAN_POINT( '', ( -2.94749012944602E-016, 0.000000000000000, 17.0000000000000 ) );
#415 = DIRECTION( '', ( 0.000000000000000, 0.000000000000000, 1.00000000000000 ) );
#416 = DIRECTION( '', ( 1.00000000000000, 0.000000000000000, 0.000000000000000 ) );
#417 = DIRECTION( '', ( 0.000000000000000, 1.00000000000000, 0.000000000000000 ) );
#418 = DIRECTION( '', ( 0.000000000000000, 1.00000000000000, 0.000000000000000 ) );
#419 = DIRECTION( '', ( -3.27498903271780E-017, 0.000000000000000, 1.00000000000000 ) );
#420 = DIRECTION( '', ( -3.27498903271780E-017, 0.000000000000000, 1.00000000000000 ) );
#421 = CARTESIAN_POINT( '', ( 1.96499341963068E-016, 0.000000000000000, 2.00000000000000 ) );
#422 = DIRECTION( '', ( -3.27498903271780E-017, 0.000000000000000, 1.00000000000000 ) );
#423 = DIRECTION( '', ( 1.00000000000000, 0.000000000000000, 3.27498903271780E-017 ) );
#424 = CARTESIAN_POINT( '', ( 1.96499341963068E-016, 0.000000000000000, 2.00000000000000 ) );
#425 = DIRECTION( '', ( -3.27498903271780E-017, 0.000000000000000, 1.00000000000000 ) );
#426 = DIRECTION( '', ( 1.00000000000000, 0.000000000000000, 3.27498903271780E-017 ) );
#427 = DIRECTION( '', ( 0.000000000000000, 1.00000000000000, 0.000000000000000 ) );
#428 = CARTESIAN_POINT( '', ( -3.27498903271780E-016, 0.000000000000000, 18.0000000000000 ) );
#429 = DIRECTION( '', ( 3.27498903271780E-017, 0.000000000000000, -1.00000000000000 ) );
#430 = DIRECTION( '', ( -1.00000000000000, 0.000000000000000, -3.27498903271780E-017 ) );
#431 = CARTESIAN_POINT( '', ( -3.27498903271780E-016, 0.000000000000000, 18.0000000000000 ) );
#432 = DIRECTION( '', ( 3.27498903271780E-017, 0.000000000000000, -1.00000000000000 ) );
#433 = DIRECTION( '', ( -1.00000000000000, 0.000000000000000, -3.27498903271780E-017 ) );
#434 = DIRECTION( '', ( -3.27498903271780E-017, 0.000000000000000, 1.00000000000000 ) );
#435 = DIRECTION( '', ( -3.27498903271780E-017, 0.000000000000000, 1.00000000000000 ) );
#436 = CARTESIAN_POINT( '', ( -3.11123958108191E-016, 0.000000000000000, 17.5000000000000 ) );
#437 = DIRECTION( '', ( 3.27498903271781E-017, 0.000000000000000, -1.00000000000000 ) );
#438 = DIRECTION( '', ( -1.00000000000000, 0.000000000000000, -3.27498903271781E-017 ) );
#439 = CARTESIAN_POINT( '', ( 1.63749451635890E-016, 0.000000000000000, 3.00000000000000 ) );
#440 = DIRECTION( '', ( -3.27498903271780E-017, 0.000000000000000, 1.00000000000000 ) );
#441 = DIRECTION( '', ( 1.00000000000000, 0.000000000000000, 3.27498903271780E-017 ) );
#442 = CARTESIAN_POINT( '', ( -3.11123958108191E-016, 0.000000000000000, 17.5000000000000 ) );
#443 = DIRECTION( '', ( 3.27498903271781E-017, 0.000000000000000, -1.00000000000000 ) );
#444 = DIRECTION( '', ( -1.00000000000000, 0.000000000000000, -3.27498903271781E-017 ) );
#445 = CARTESIAN_POINT( '', ( 1.47374506472301E-016, 0.000000000000000, 3.50000000000000 ) );
#446 = DIRECTION( '', ( -3.27498903271780E-017, 0.000000000000000, 1.00000000000000 ) );
#447 = DIRECTION( '', ( 1.00000000000000, 0.000000000000000, 3.27498903271780E-017 ) );
ENDSEC;
END-ISO-10303-21;
