ISO-10303-21;
HEADER;
FILE_DESCRIPTION( ( 'Unknown' ), '1' );
FILE_NAME( '//SBS2003/HD_Usb/Disegni/08_LIB/Users_3D/PROD_GAMM_3D/APP-A/7747321_APP_16_AR.stp', 'Unknown', ( 'Unknown' ), ( 'Unknown' ), 'PSStep 14.0', 'Unknown', '  ' );
FILE_SCHEMA( ( 'AUTOMOTIVE_DESIGN { 1 0 10303 214 1 1 1 1 }' ) );
ENDSEC;
DATA;
#1 = MECHANICAL_DESIGN_GEOMETRIC_PRESENTATION_REPRESENTATION( ' ', ( #10, #11, #12, #13, #14, #15, #16, #17, #18, #19, #20, #21 ), #6 );
#2 = PRODUCT_DEFINITION_CONTEXT( '', #22, 'design' );
#3 = APPLICATION_PROTOCOL_DEFINITION( 'international standard', 'automotive_design', 2001, #22 );
#4 = PRODUCT_CATEGORY_RELATIONSHIP( 'NONE', 'NONE', #23, #24 );
#5 = SHAPE_DEFINITION_REPRESENTATION( #25, #26 );
#6 =  ( GEOMETRIC_REPRESENTATION_CONTEXT( 3 )GLOBAL_UNCERTAINTY_ASSIGNED_CONTEXT( ( #29 ) )GLOBAL_UNIT_ASSIGNED_CONTEXT( ( #31, #32, #33 ) )REPRESENTATION_CONTEXT( 'NONE', 'WORKSPACE' ) );
#10 = STYLED_ITEM( '', ( #35 ), #36 );
#11 = STYLED_ITEM( '', ( #37 ), #38 );
#12 = STYLED_ITEM( '', ( #39 ), #40 );
#13 = STYLED_ITEM( '', ( #41 ), #42 );
#14 = STYLED_ITEM( '', ( #43 ), #44 );
#15 = STYLED_ITEM( '', ( #45 ), #46 );
#16 = STYLED_ITEM( '', ( #47 ), #48 );
#17 = STYLED_ITEM( '', ( #49 ), #50 );
#18 = STYLED_ITEM( '', ( #51 ), #52 );
#19 = STYLED_ITEM( '', ( #53 ), #54 );
#20 = STYLED_ITEM( '', ( #55 ), #56 );
#21 = STYLED_ITEM( '', ( #57 ), #58 );
#22 = APPLICATION_CONTEXT( 'core data for automotive mechanical design processes' );
#23 = PRODUCT_CATEGORY( 'part', 'NONE' );
#24 = PRODUCT_RELATED_PRODUCT_CATEGORY( 'detail', ' ', ( #59 ) );
#25 = PRODUCT_DEFINITION_SHAPE( 'NONE', 'NONE', #60 );
#26 = ADVANCED_BREP_SHAPE_REPRESENTATION( '1', ( #61, #62 ), #6 );
#29 = UNCERTAINTY_MEASURE_WITH_UNIT( LENGTH_MEASURE( 0.00100000000000000 ), #31, '', '' );
#31 =  ( CONVERSION_BASED_UNIT( 'MILLIMETRE', #65 )LENGTH_UNIT(  )NAMED_UNIT( #68 ) );
#32 =  ( NAMED_UNIT( #70 )PLANE_ANGLE_UNIT(  )SI_UNIT( $, .RADIAN. ) );
#33 =  ( NAMED_UNIT( #70 )SI_UNIT( $, .STERADIAN. )SOLID_ANGLE_UNIT(  ) );
#35 = PRESENTATION_STYLE_ASSIGNMENT( ( #76 ) );
#36 = ADVANCED_FACE( '', ( #77 ), #78, .T. );
#37 = PRESENTATION_STYLE_ASSIGNMENT( ( #79 ) );
#38 = ADVANCED_FACE( '', ( #80 ), #81, .T. );
#39 = PRESENTATION_STYLE_ASSIGNMENT( ( #82 ) );
#40 = ADVANCED_FACE( '', ( #83 ), #84, .T. );
#41 = PRESENTATION_STYLE_ASSIGNMENT( ( #85 ) );
#42 = ADVANCED_FACE( '', ( #86, #87 ), #88, .T. );
#43 = PRESENTATION_STYLE_ASSIGNMENT( ( #89 ) );
#44 = ADVANCED_FACE( '', ( #90, #91 ), #92, .T. );
#45 = PRESENTATION_STYLE_ASSIGNMENT( ( #93 ) );
#46 = ADVANCED_FACE( '', ( #94 ), #95, .T. );
#47 = PRESENTATION_STYLE_ASSIGNMENT( ( #96 ) );
#48 = ADVANCED_FACE( '', ( #97, #98 ), #99, .F. );
#49 = PRESENTATION_STYLE_ASSIGNMENT( ( #100 ) );
#50 = ADVANCED_FACE( '', ( #101, #102 ), #103, .T. );
#51 = PRESENTATION_STYLE_ASSIGNMENT( ( #104 ) );
#52 = ADVANCED_FACE( '', ( #105 ), #106, .T. );
#53 = PRESENTATION_STYLE_ASSIGNMENT( ( #107 ) );
#54 = ADVANCED_FACE( '', ( #108 ), #109, .F. );
#55 = PRESENTATION_STYLE_ASSIGNMENT( ( #110 ) );
#56 = ADVANCED_FACE( '', ( #111 ), #112, .T. );
#57 = PRESENTATION_STYLE_ASSIGNMENT( ( #113 ) );
#58 = ADVANCED_FACE( '', ( #114 ), #115, .F. );
#59 = PRODUCT( '1', '1', 'PART-1-DESC', ( #116 ) );
#60 = PRODUCT_DEFINITION( 'NONE', 'NONE', #117, #2 );
#61 = MANIFOLD_SOLID_BREP( '1', #118 );
#62 = AXIS2_PLACEMENT_3D( '', #119, #120, #121 );
#65 = LENGTH_MEASURE_WITH_UNIT( LENGTH_MEASURE( 1.00000000000000 ), #122 );
#68 = DIMENSIONAL_EXPONENTS( 1.00000000000000, 0.000000000000000, 0.000000000000000, 0.000000000000000, 0.000000000000000, 0.000000000000000, 0.000000000000000 );
#70 = DIMENSIONAL_EXPONENTS( 0.000000000000000, 0.000000000000000, 0.000000000000000, 0.000000000000000, 0.000000000000000, 0.000000000000000, 0.000000000000000 );
#76 = SURFACE_STYLE_USAGE( .BOTH., #123 );
#77 = FACE_OUTER_BOUND( '', #124, .T. );
#78 = PLANE( '', #125 );
#79 = SURFACE_STYLE_USAGE( .BOTH., #126 );
#80 = FACE_OUTER_BOUND( '', #127, .T. );
#81 = PLANE( '', #128 );
#82 = SURFACE_STYLE_USAGE( .BOTH., #129 );
#83 = FACE_OUTER_BOUND( '', #130, .T. );
#84 = CONICAL_SURFACE( '', #131, 3.50000000000000, 0.785398163397448 );
#85 = SURFACE_STYLE_USAGE( .BOTH., #132 );
#86 = FACE_OUTER_BOUND( '', #133, .T. );
#87 = FACE_OUTER_BOUND( '', #134, .T. );
#88 = CYLINDRICAL_SURFACE( '', #135, 4.00000000000000 );
#89 = SURFACE_STYLE_USAGE( .BOTH., #136 );
#90 = FACE_BOUND( '', #137, .T. );
#91 = FACE_OUTER_BOUND( '', #138, .T. );
#92 = CONICAL_SURFACE( '', #139, 4.00000000000000, 0.785398163397448 );
#93 = SURFACE_STYLE_USAGE( .BOTH., #140 );
#94 = FACE_OUTER_BOUND( '', #141, .T. );
#95 = SPHERICAL_SURFACE( '', #142, 2.00000000000000 );
#96 = SURFACE_STYLE_USAGE( .BOTH., #143 );
#97 = FACE_OUTER_BOUND( '', #144, .T. );
#98 = FACE_BOUND( '', #145, .T. );
#99 = PLANE( '', #146 );
#100 = SURFACE_STYLE_USAGE( .BOTH., #147 );
#101 = FACE_OUTER_BOUND( '', #148, .T. );
#102 = FACE_OUTER_BOUND( '', #149, .T. );
#103 = CYLINDRICAL_SURFACE( '', #150, 3.50000000000000 );
#104 = SURFACE_STYLE_USAGE( .BOTH., #151 );
#105 = FACE_OUTER_BOUND( '', #152, .T. );
#106 = PLANE( '', #153 );
#107 = SURFACE_STYLE_USAGE( .BOTH., #154 );
#108 = FACE_OUTER_BOUND( '', #155, .T. );
#109 = PLANE( '', #156 );
#110 = SURFACE_STYLE_USAGE( .BOTH., #157 );
#111 = FACE_OUTER_BOUND( '', #158, .T. );
#112 = CONICAL_SURFACE( '', #159, 3.50000000000000, 0.785398163397448 );
#113 = SURFACE_STYLE_USAGE( .BOTH., #160 );
#114 = FACE_OUTER_BOUND( '', #161, .T. );
#115 = PLANE( '', #162 );
#116 = PRODUCT_CONTEXT( '', #22, 'mechanical' );
#117 = PRODUCT_DEFINITION_FORMATION_WITH_SPECIFIED_SOURCE( ' ', 'NONE', #59, .NOT_KNOWN. );
#118 = CLOSED_SHELL( '', ( #42, #40, #38, #36, #56, #44, #46, #48, #58, #50, #54, #52 ) );
#119 = CARTESIAN_POINT( '', ( 0.000000000000000, 0.000000000000000, 0.000000000000000 ) );
#120 = DIRECTION( '', ( 0.000000000000000, 0.000000000000000, 1.00000000000000 ) );
#121 = DIRECTION( '', ( 1.00000000000000, 0.000000000000000, 0.000000000000000 ) );
#122 =  ( LENGTH_UNIT(  )NAMED_UNIT( #68 )SI_UNIT( .MILLI., .METRE. ) );
#123 = SURFACE_SIDE_STYLE( '', ( #164 ) );
#124 = EDGE_LOOP( '', ( #165, #166, #167, #168, #169, #170 ) );
#125 = AXIS2_PLACEMENT_3D( '', #171, #172, #173 );
#126 = SURFACE_SIDE_STYLE( '', ( #174 ) );
#127 = EDGE_LOOP( '', ( #175, #176, #177, #178 ) );
#128 = AXIS2_PLACEMENT_3D( '', #179, #180, #181 );
#129 = SURFACE_SIDE_STYLE( '', ( #182 ) );
#130 = EDGE_LOOP( '', ( #183, #184, #185, #186 ) );
#131 = AXIS2_PLACEMENT_3D( '', #187, #188, #189 );
#132 = SURFACE_SIDE_STYLE( '', ( #190 ) );
#133 = EDGE_LOOP( '', ( #191 ) );
#134 = EDGE_LOOP( '', ( #192, #193, #194, #195, #196, #197, #198, #199 ) );
#135 = AXIS2_PLACEMENT_3D( '', #200, #201, #202 );
#136 = SURFACE_SIDE_STYLE( '', ( #203 ) );
#137 = EDGE_LOOP( '', ( #204 ) );
#138 = EDGE_LOOP( '', ( #205 ) );
#139 = AXIS2_PLACEMENT_3D( '', #206, #207, #208 );
#140 = SURFACE_SIDE_STYLE( '', ( #209 ) );
#141 = EDGE_LOOP( '', ( #210 ) );
#142 = AXIS2_PLACEMENT_3D( '', #211, #212, #213 );
#143 = SURFACE_SIDE_STYLE( '', ( #214 ) );
#144 = EDGE_LOOP( '', ( #215 ) );
#145 = EDGE_LOOP( '', ( #216 ) );
#146 = AXIS2_PLACEMENT_3D( '', #217, #218, #219 );
#147 = SURFACE_SIDE_STYLE( '', ( #220 ) );
#148 = EDGE_LOOP( '', ( #221 ) );
#149 = EDGE_LOOP( '', ( #222 ) );
#150 = AXIS2_PLACEMENT_3D( '', #223, #224, #225 );
#151 = SURFACE_SIDE_STYLE( '', ( #226 ) );
#152 = EDGE_LOOP( '', ( #227, #228, #229, #230, #231, #232 ) );
#153 = AXIS2_PLACEMENT_3D( '', #233, #234, #235 );
#154 = SURFACE_SIDE_STYLE( '', ( #236 ) );
#155 = EDGE_LOOP( '', ( #237, #238 ) );
#156 = AXIS2_PLACEMENT_3D( '', #239, #240, #241 );
#157 = SURFACE_SIDE_STYLE( '', ( #242 ) );
#158 = EDGE_LOOP( '', ( #243, #244, #245, #246 ) );
#159 = AXIS2_PLACEMENT_3D( '', #247, #248, #249 );
#160 = SURFACE_SIDE_STYLE( '', ( #250 ) );
#161 = EDGE_LOOP( '', ( #251, #252 ) );
#162 = AXIS2_PLACEMENT_3D( '', #253, #254, #255 );
#164 = SURFACE_STYLE_FILL_AREA( #256 );
#165 = ORIENTED_EDGE( '', *, *, #257, .T. );
#166 = ORIENTED_EDGE( '', *, *, #258, .T. );
#167 = ORIENTED_EDGE( '', *, *, #259, .T. );
#168 = ORIENTED_EDGE( '', *, *, #260, .F. );
#169 = ORIENTED_EDGE( '', *, *, #261, .T. );
#170 = ORIENTED_EDGE( '', *, *, #262, .T. );
#171 = CARTESIAN_POINT( '', ( 0.500000000000000, -12.5000000000000, 17.0000000000000 ) );
#172 = DIRECTION( '', ( -1.00000000000000, 0.000000000000000, 1.08420217248550E-016 ) );
#173 = DIRECTION( '', ( 1.08420217248550E-016, 0.000000000000000, 1.00000000000000 ) );
#174 = SURFACE_STYLE_FILL_AREA( #263 );
#175 = ORIENTED_EDGE( '', *, *, #264, .T. );
#176 = ORIENTED_EDGE( '', *, *, #265, .F. );
#177 = ORIENTED_EDGE( '', *, *, #266, .T. );
#178 = ORIENTED_EDGE( '', *, *, #260, .T. );
#179 = CARTESIAN_POINT( '', ( -0.500000000000000, -12.5000000000000, 17.0000000000000 ) );
#180 = DIRECTION( '', ( 0.000000000000000, 0.000000000000000, 1.00000000000000 ) );
#181 = DIRECTION( '', ( 1.00000000000000, 0.000000000000000, 0.000000000000000 ) );
#182 = SURFACE_STYLE_FILL_AREA( #267 );
#183 = ORIENTED_EDGE( '', *, *, #268, .F. );
#184 = ORIENTED_EDGE( '', *, *, #269, .F. );
#185 = ORIENTED_EDGE( '', *, *, #270, .F. );
#186 = ORIENTED_EDGE( '', *, *, #271, .F. );
#187 = CARTESIAN_POINT( '', ( -3.27498903271780E-016, 0.000000000000000, 18.0000000000000 ) );
#188 = DIRECTION( '', ( 3.27498903271781E-017, -0.000000000000000, -1.00000000000000 ) );
#189 = DIRECTION( '', ( -1.00000000000000, 0.000000000000000, -3.27498903271781E-017 ) );
#190 = SURFACE_STYLE_FILL_AREA( #272 );
#191 = ORIENTED_EDGE( '', *, *, #273, .T. );
#192 = ORIENTED_EDGE( '', *, *, #259, .F. );
#193 = ORIENTED_EDGE( '', *, *, #274, .T. );
#194 = ORIENTED_EDGE( '', *, *, #261, .F. );
#195 = ORIENTED_EDGE( '', *, *, #266, .F. );
#196 = ORIENTED_EDGE( '', *, *, #275, .F. );
#197 = ORIENTED_EDGE( '', *, *, #269, .T. );
#198 = ORIENTED_EDGE( '', *, *, #276, .F. );
#199 = ORIENTED_EDGE( '', *, *, #264, .F. );
#200 = CARTESIAN_POINT( '', ( -2.61999122617424E-016, 0.000000000000000, 16.0000000000000 ) );
#201 = DIRECTION( '', ( 3.27498903271780E-017, -0.000000000000000, -1.00000000000000 ) );
#202 = DIRECTION( '', ( 1.00000000000000, 0.000000000000000, 3.27498903271780E-017 ) );
#203 = SURFACE_STYLE_FILL_AREA( #277 );
#204 = ORIENTED_EDGE( '', *, *, #278, .F. );
#205 = ORIENTED_EDGE( '', *, *, #273, .F. );
#206 = CARTESIAN_POINT( '', ( 1.47374506472301E-016, 0.000000000000000, 3.50000000000000 ) );
#207 = DIRECTION( '', ( -3.27498903271780E-017, 0.000000000000000, 1.00000000000000 ) );
#208 = DIRECTION( '', ( 1.00000000000000, 0.000000000000000, 3.27498903271780E-017 ) );
#209 = SURFACE_STYLE_FILL_AREA( #279 );
#210 = ORIENTED_EDGE( '', *, *, #280, .F. );
#211 = CARTESIAN_POINT( '', ( 0.000000000000000, 0.000000000000000, 2.00000000000000 ) );
#212 = DIRECTION( '', ( -3.27498903271780E-017, 0.000000000000000, 1.00000000000000 ) );
#213 = DIRECTION( '', ( 1.00000000000000, 0.000000000000000, 3.27498903271780E-017 ) );
#214 = SURFACE_STYLE_FILL_AREA( #281 );
#215 = ORIENTED_EDGE( '', *, *, #282, .F. );
#216 = ORIENTED_EDGE( '', *, *, #280, .T. );
#217 = CARTESIAN_POINT( '', ( 2.00000000000000, 0.000000000000000, 2.00000000000000 ) );
#218 = DIRECTION( '', ( -3.27498903271780E-017, 0.000000000000000, 1.00000000000000 ) );
#219 = DIRECTION( '', ( 1.00000000000000, 0.000000000000000, 3.27498903271780E-017 ) );
#220 = SURFACE_STYLE_FILL_AREA( #283 );
#221 = ORIENTED_EDGE( '', *, *, #278, .T. );
#222 = ORIENTED_EDGE( '', *, *, #282, .T. );
#223 = CARTESIAN_POINT( '', ( -2.61999122617424E-016, 0.000000000000000, 16.0000000000000 ) );
#224 = DIRECTION( '', ( 3.27498903271780E-017, -0.000000000000000, -1.00000000000000 ) );
#225 = DIRECTION( '', ( 1.00000000000000, 0.000000000000000, 3.27498903271780E-017 ) );
#226 = SURFACE_STYLE_FILL_AREA( #284 );
#227 = ORIENTED_EDGE( '', *, *, #285, .F. );
#228 = ORIENTED_EDGE( '', *, *, #270, .T. );
#229 = ORIENTED_EDGE( '', *, *, #275, .T. );
#230 = ORIENTED_EDGE( '', *, *, #265, .T. );
#231 = ORIENTED_EDGE( '', *, *, #276, .T. );
#232 = ORIENTED_EDGE( '', *, *, #268, .T. );
#233 = CARTESIAN_POINT( '', ( -0.500000000000000, -12.5000000000000, 18.0000000000000 ) );
#234 = DIRECTION( '', ( 1.00000000000000, 0.000000000000000, 1.08420217248550E-016 ) );
#235 = DIRECTION( '', ( 1.08420217248550E-016, 0.000000000000000, -1.00000000000000 ) );
#236 = SURFACE_STYLE_FILL_AREA( #286 );
#237 = ORIENTED_EDGE( '', *, *, #285, .T. );
#238 = ORIENTED_EDGE( '', *, *, #271, .T. );
#239 = CARTESIAN_POINT( '', ( 4.00000000000000, 0.000000000000000, 18.0000000000000 ) );
#240 = DIRECTION( '', ( 3.27498903271780E-017, 0.000000000000000, -1.00000000000000 ) );
#241 = DIRECTION( '', ( -1.00000000000000, 0.000000000000000, -3.27498903271780E-017 ) );
#242 = SURFACE_STYLE_FILL_AREA( #287 );
#243 = ORIENTED_EDGE( '', *, *, #262, .F. );
#244 = ORIENTED_EDGE( '', *, *, #274, .F. );
#245 = ORIENTED_EDGE( '', *, *, #258, .F. );
#246 = ORIENTED_EDGE( '', *, *, #288, .F. );
#247 = CARTESIAN_POINT( '', ( -3.27498903271780E-016, 0.000000000000000, 18.0000000000000 ) );
#248 = DIRECTION( '', ( 3.27498903271781E-017, -0.000000000000000, -1.00000000000000 ) );
#249 = DIRECTION( '', ( -1.00000000000000, 0.000000000000000, -3.27498903271781E-017 ) );
#250 = SURFACE_STYLE_FILL_AREA( #289 );
#251 = ORIENTED_EDGE( '', *, *, #257, .F. );
#252 = ORIENTED_EDGE( '', *, *, #288, .T. );
#253 = CARTESIAN_POINT( '', ( 4.00000000000000, 0.000000000000000, 18.0000000000000 ) );
#254 = DIRECTION( '', ( 3.27498903271780E-017, 0.000000000000000, -1.00000000000000 ) );
#255 = DIRECTION( '', ( -1.00000000000000, 0.000000000000000, -3.27498903271780E-017 ) );
#256 = FILL_AREA_STYLE( '', ( #290 ) );
#257 = EDGE_CURVE( '', #291, #292, #293, .T. );
#258 = EDGE_CURVE( '', #292, #294, #295, .T. );
#259 = EDGE_CURVE( '', #294, #296, #297, .F. );
#260 = EDGE_CURVE( '', #298, #296, #299, .T. );
#261 = EDGE_CURVE( '', #298, #300, #301, .T. );
#262 = EDGE_CURVE( '', #300, #291, #302, .T. );
#263 = FILL_AREA_STYLE( '', ( #303 ) );
#264 = EDGE_CURVE( '', #296, #304, #305, .T. );
#265 = EDGE_CURVE( '', #306, #304, #307, .T. );
#266 = EDGE_CURVE( '', #306, #298, #308, .T. );
#267 = FILL_AREA_STYLE( '', ( #309 ) );
#268 = EDGE_CURVE( '', #310, #311, #312, .T. );
#269 = EDGE_CURVE( '', #313, #310, #314, .T. );
#270 = EDGE_CURVE( '', #315, #313, #316, .T. );
#271 = EDGE_CURVE( '', #311, #315, #317, .F. );
#272 = FILL_AREA_STYLE( '', ( #318 ) );
#273 = EDGE_CURVE( '', #319, #319, #320, .T. );
#274 = EDGE_CURVE( '', #294, #300, #321, .T. );
#275 = EDGE_CURVE( '', #313, #306, #322, .F. );
#276 = EDGE_CURVE( '', #304, #310, #323, .T. );
#277 = FILL_AREA_STYLE( '', ( #324 ) );
#278 = EDGE_CURVE( '', #325, #325, #326, .F. );
#279 = FILL_AREA_STYLE( '', ( #327 ) );
#280 = EDGE_CURVE( '', #328, #328, #329, .T. );
#281 = FILL_AREA_STYLE( '', ( #330 ) );
#282 = EDGE_CURVE( '', #331, #331, #332, .T. );
#283 = FILL_AREA_STYLE( '', ( #333 ) );
#284 = FILL_AREA_STYLE( '', ( #334 ) );
#285 = EDGE_CURVE( '', #315, #311, #335, .T. );
#286 = FILL_AREA_STYLE( '', ( #336 ) );
#287 = FILL_AREA_STYLE( '', ( #337 ) );
#288 = EDGE_CURVE( '', #291, #292, #338, .F. );
#289 = FILL_AREA_STYLE( '', ( #339 ) );
#290 = FILL_AREA_STYLE_COLOUR( '', #340 );
#291 = VERTEX_POINT( '', #341 );
#292 = VERTEX_POINT( '', #342 );
#293 = LINE( '', #343, #344 );
#294 = VERTEX_POINT( '', #345 );
#295 = B_SPLINE_CURVE_WITH_KNOTS( '', 3, ( #346, #347, #348, #349 ), .UNSPECIFIED., .F., .F., ( 4, 4 ), ( 0.000000000000000, 0.000710313895587687 ), .UNSPECIFIED. );
#296 = VERTEX_POINT( '', #350 );
#297 = LINE( '', #351, #352 );
#298 = VERTEX_POINT( '', #353 );
#299 = LINE( '', #354, #355 );
#300 = VERTEX_POINT( '', #356 );
#301 = LINE( '', #357, #358 );
#302 = B_SPLINE_CURVE_WITH_KNOTS( '', 3, ( #359, #360, #361, #362 ), .UNSPECIFIED., .F., .F., ( 4, 4 ), ( 0.000000000000000, 0.000710313895587687 ), .UNSPECIFIED. );
#303 = FILL_AREA_STYLE_COLOUR( '', #363 );
#304 = VERTEX_POINT( '', #364 );
#305 = CIRCLE( '', #365, 4.00000000000000 );
#306 = VERTEX_POINT( '', #366 );
#307 = LINE( '', #367, #368 );
#308 = CIRCLE( '', #369, 4.00000000000000 );
#309 = FILL_AREA_STYLE_COLOUR( '', #370 );
#310 = VERTEX_POINT( '', #371 );
#311 = VERTEX_POINT( '', #372 );
#312 = B_SPLINE_CURVE_WITH_KNOTS( '', 3, ( #373, #374, #375, #376 ), .UNSPECIFIED., .F., .F., ( 4, 4 ), ( 0.000000000000000, 0.000710313895587687 ), .UNSPECIFIED. );
#313 = VERTEX_POINT( '', #377 );
#314 = CIRCLE( '', #378, 4.00000000000000 );
#315 = VERTEX_POINT( '', #379 );
#316 = B_SPLINE_CURVE_WITH_KNOTS( '', 3, ( #380, #381, #382, #383 ), .UNSPECIFIED., .F., .F., ( 4, 4 ), ( 0.000000000000000, 0.000710313895587687 ), .UNSPECIFIED. );
#317 = CIRCLE( '', #384, 3.50000000000000 );
#318 = FILL_AREA_STYLE_COLOUR( '', #385 );
#319 = VERTEX_POINT( '', #386 );
#320 = CIRCLE( '', #387, 4.00000000000000 );
#321 = CIRCLE( '', #388, 4.00000000000000 );
#322 = LINE( '', #389, #390 );
#323 = LINE( '', #391, #392 );
#324 = FILL_AREA_STYLE_COLOUR( '', #393 );
#325 = VERTEX_POINT( '', #394 );
#326 = CIRCLE( '', #395, 3.50000000000000 );
#327 = FILL_AREA_STYLE_COLOUR( '', #396 );
#328 = VERTEX_POINT( '', #397 );
#329 = CIRCLE( '', #398, 2.00000000000000 );
#330 = FILL_AREA_STYLE_COLOUR( '', #399 );
#331 = VERTEX_POINT( '', #400 );
#332 = CIRCLE( '', #401, 3.50000000000000 );
#333 = FILL_AREA_STYLE_COLOUR( '', #402 );
#334 = FILL_AREA_STYLE_COLOUR( '', #403 );
#335 = LINE( '', #404, #405 );
#336 = FILL_AREA_STYLE_COLOUR( '', #406 );
#337 = FILL_AREA_STYLE_COLOUR( '', #407 );
#338 = CIRCLE( '', #408, 3.50000000000000 );
#339 = FILL_AREA_STYLE_COLOUR( '', #409 );
#340 = COLOUR_RGB( '', 0.200000002980232, 0.200000002980232, 0.200000002980232 );
#341 = CARTESIAN_POINT( '', ( 0.500000000000000, -3.46410161513775, 18.0000000000000 ) );
#342 = CARTESIAN_POINT( '', ( 0.500000000000000, 3.46410161513775, 18.0000000000000 ) );
#343 = CARTESIAN_POINT( '', ( 0.500000000000000, -12.5000000000000, 18.0000000000000 ) );
#344 = VECTOR( '', #410, 1000.00000000000 );
#345 = CARTESIAN_POINT( '', ( 0.500000000000000, 3.96862696659689, 17.5000000000000 ) );
#346 = CARTESIAN_POINT( '', ( 0.500000000000000, 3.46410161513775, 18.0000000000000 ) );
#347 = CARTESIAN_POINT( '', ( 0.500000000000000, 3.63238499612051, 17.8334426480391 ) );
#348 = CARTESIAN_POINT( '', ( 0.500000000000000, 3.80054652420263, 17.6667621440608 ) );
#349 = CARTESIAN_POINT( '', ( 0.500000000000000, 3.96862696659689, 17.5000000000000 ) );
#350 = CARTESIAN_POINT( '', ( 0.500000000000000, 3.96862696659689, 17.0000000000000 ) );
#351 = CARTESIAN_POINT( '', ( 0.500000000000000, 3.96862696659689, 16.0000000000000 ) );
#352 = VECTOR( '', #411, 1000.00000000000 );
#353 = CARTESIAN_POINT( '', ( 0.500000000000000, -3.96862696659689, 17.0000000000000 ) );
#354 = CARTESIAN_POINT( '', ( 0.500000000000000, -12.5000000000000, 17.0000000000000 ) );
#355 = VECTOR( '', #412, 1000.00000000000 );
#356 = CARTESIAN_POINT( '', ( 0.500000000000000, -3.96862696659689, 17.5000000000000 ) );
#357 = CARTESIAN_POINT( '', ( 0.500000000000000, -3.96862696659689, 16.0000000000000 ) );
#358 = VECTOR( '', #413, 1000.00000000000 );
#359 = CARTESIAN_POINT( '', ( 0.500000000000000, -3.96862696659689, 17.5000000000000 ) );
#360 = CARTESIAN_POINT( '', ( 0.500000000000000, -3.80054652420263, 17.6667621440608 ) );
#361 = CARTESIAN_POINT( '', ( 0.500000000000000, -3.63238499612051, 17.8334426480391 ) );
#362 = CARTESIAN_POINT( '', ( 0.500000000000000, -3.46410161513775, 18.0000000000000 ) );
#363 = COLOUR_RGB( '', 0.200000002980232, 0.200000002980232, 0.200000002980232 );
#364 = CARTESIAN_POINT( '', ( -0.500000000000000, 3.96862696659689, 17.0000000000000 ) );
#365 = AXIS2_PLACEMENT_3D( '', #414, #415, #416 );
#366 = CARTESIAN_POINT( '', ( -0.500000000000000, -3.96862696659689, 17.0000000000000 ) );
#367 = CARTESIAN_POINT( '', ( -0.500000000000000, -12.5000000000000, 17.0000000000000 ) );
#368 = VECTOR( '', #417, 1000.00000000000 );
#369 = AXIS2_PLACEMENT_3D( '', #418, #419, #420 );
#370 = COLOUR_RGB( '', 0.200000002980232, 0.200000002980232, 0.200000002980232 );
#371 = CARTESIAN_POINT( '', ( -0.500000000000000, 3.96862696659689, 17.5000000000000 ) );
#372 = CARTESIAN_POINT( '', ( -0.500000000000000, 3.46410161513775, 18.0000000000000 ) );
#373 = CARTESIAN_POINT( '', ( -0.500000000000000, 3.96862696659689, 17.5000000000000 ) );
#374 = CARTESIAN_POINT( '', ( -0.500000000000000, 3.80054652420263, 17.6667621440608 ) );
#375 = CARTESIAN_POINT( '', ( -0.500000000000000, 3.63238499612051, 17.8334426480391 ) );
#376 = CARTESIAN_POINT( '', ( -0.500000000000000, 3.46410161513775, 18.0000000000000 ) );
#377 = CARTESIAN_POINT( '', ( -0.500000000000000, -3.96862696659689, 17.5000000000000 ) );
#378 = AXIS2_PLACEMENT_3D( '', #421, #422, #423 );
#379 = CARTESIAN_POINT( '', ( -0.500000000000000, -3.46410161513775, 18.0000000000000 ) );
#380 = CARTESIAN_POINT( '', ( -0.500000000000000, -3.46410161513775, 18.0000000000000 ) );
#381 = CARTESIAN_POINT( '', ( -0.500000000000000, -3.63238499612051, 17.8334426480391 ) );
#382 = CARTESIAN_POINT( '', ( -0.500000000000000, -3.80054652420263, 17.6667621440608 ) );
#383 = CARTESIAN_POINT( '', ( -0.500000000000000, -3.96862696659689, 17.5000000000000 ) );
#384 = AXIS2_PLACEMENT_3D( '', #424, #425, #426 );
#385 = COLOUR_RGB( '', 0.752941191196442, 0.752941191196442, 0.752941191196442 );
#386 = CARTESIAN_POINT( '', ( 4.00000000000000, 0.000000000000000, 3.50000000000000 ) );
#387 = AXIS2_PLACEMENT_3D( '', #427, #428, #429 );
#388 = AXIS2_PLACEMENT_3D( '', #430, #431, #432 );
#389 = CARTESIAN_POINT( '', ( -0.500000000000000, -3.96862696659689, 16.0000000000000 ) );
#390 = VECTOR( '', #433, 1000.00000000000 );
#391 = CARTESIAN_POINT( '', ( -0.500000000000000, 3.96862696659689, 16.0000000000000 ) );
#392 = VECTOR( '', #434, 1000.00000000000 );
#393 = COLOUR_RGB( '', 0.200000002980232, 0.200000002980232, 0.200000002980232 );
#394 = CARTESIAN_POINT( '', ( 3.50000000000000, 0.000000000000000, 3.00000000000000 ) );
#395 = AXIS2_PLACEMENT_3D( '', #435, #436, #437 );
#396 = COLOUR_RGB( '', 0.200000002980232, 0.200000002980232, 0.200000002980232 );
#397 = CARTESIAN_POINT( '', ( 2.00000000000000, 0.000000000000000, 2.00000000000000 ) );
#398 = AXIS2_PLACEMENT_3D( '', #438, #439, #440 );
#399 = COLOUR_RGB( '', 0.200000002980232, 0.200000002980232, 0.200000002980232 );
#400 = CARTESIAN_POINT( '', ( 3.50000000000000, 0.000000000000000, 2.00000000000000 ) );
#401 = AXIS2_PLACEMENT_3D( '', #441, #442, #443 );
#402 = COLOUR_RGB( '', 0.200000002980232, 0.200000002980232, 0.200000002980232 );
#403 = COLOUR_RGB( '', 0.200000002980232, 0.200000002980232, 0.200000002980232 );
#404 = CARTESIAN_POINT( '', ( -0.500000000000000, -12.5000000000000, 18.0000000000000 ) );
#405 = VECTOR( '', #444, 1000.00000000000 );
#406 = COLOUR_RGB( '', 0.200000002980232, 0.200000002980232, 0.200000002980232 );
#407 = COLOUR_RGB( '', 0.200000002980232, 0.200000002980232, 0.200000002980232 );
#408 = AXIS2_PLACEMENT_3D( '', #445, #446, #447 );
#409 = COLOUR_RGB( '', 0.200000002980232, 0.200000002980232, 0.200000002980232 );
#410 = DIRECTION( '', ( 0.000000000000000, 1.00000000000000, 0.000000000000000 ) );
#411 = DIRECTION( '', ( -3.27498903271780E-017, 0.000000000000000, 1.00000000000000 ) );
#412 = DIRECTION( '', ( 0.000000000000000, 1.00000000000000, 0.000000000000000 ) );
#413 = DIRECTION( '', ( -3.27498903271780E-017, 0.000000000000000, 1.00000000000000 ) );
#414 = CARTESIAN_POINT( '', ( -2.94749012944602E-016, 0.000000000000000, 17.0000000000000 ) );
#415 = DIRECTION( '', ( 0.000000000000000, 0.000000000000000, 1.00000000000000 ) );
#416 = DIRECTION( '', ( 1.00000000000000, 0.000000000000000, 0.000000000000000 ) );
#417 = DIRECTION( '', ( 0.000000000000000, 1.00000000000000, 0.000000000000000 ) );
#418 = CARTESIAN_POINT( '', ( -2.94749012944602E-016, 0.000000000000000, 17.0000000000000 ) );
#419 = DIRECTION( '', ( 0.000000000000000, 0.000000000000000, 1.00000000000000 ) );
#420 = DIRECTION( '', ( 1.00000000000000, 0.000000000000000, 0.000000000000000 ) );
#421 = CARTESIAN_POINT( '', ( -3.11123958108191E-016, 0.000000000000000, 17.5000000000000 ) );
#422 = DIRECTION( '', ( 3.27498903271781E-017, 0.000000000000000, -1.00000000000000 ) );
#423 = DIRECTION( '', ( -1.00000000000000, 0.000000000000000, -3.27498903271781E-017 ) );
#424 = CARTESIAN_POINT( '', ( -3.27498903271780E-016, 0.000000000000000, 18.0000000000000 ) );
#425 = DIRECTION( '', ( 3.27498903271780E-017, 0.000000000000000, -1.00000000000000 ) );
#426 = DIRECTION( '', ( -1.00000000000000, 0.000000000000000, -3.27498903271780E-017 ) );
#427 = CARTESIAN_POINT( '', ( 1.47374506472301E-016, 0.000000000000000, 3.50000000000000 ) );
#428 = DIRECTION( '', ( -3.27498903271780E-017, 0.000000000000000, 1.00000000000000 ) );
#429 = DIRECTION( '', ( 1.00000000000000, 0.000000000000000, 3.27498903271780E-017 ) );
#430 = CARTESIAN_POINT( '', ( -3.11123958108191E-016, 0.000000000000000, 17.5000000000000 ) );
#431 = DIRECTION( '', ( 3.27498903271781E-017, 0.000000000000000, -1.00000000000000 ) );
#432 = DIRECTION( '', ( -1.00000000000000, 0.000000000000000, -3.27498903271781E-017 ) );
#433 = DIRECTION( '', ( -3.27498903271780E-017, 0.000000000000000, 1.00000000000000 ) );
#434 = DIRECTION( '', ( -3.27498903271780E-017, 0.000000000000000, 1.00000000000000 ) );
#435 = CARTESIAN_POINT( '', ( 1.63749451635890E-016, 0.000000000000000, 3.00000000000000 ) );
#436 = DIRECTION( '', ( -3.27498903271780E-017, 0.000000000000000, 1.00000000000000 ) );
#437 = DIRECTION( '', ( 1.00000000000000, 0.000000000000000, 3.27498903271780E-017 ) );
#438 = CARTESIAN_POINT( '', ( 1.96499341963068E-016, 0.000000000000000, 2.00000000000000 ) );
#439 = DIRECTION( '', ( -3.27498903271780E-017, 0.000000000000000, 1.00000000000000 ) );
#440 = DIRECTION( '', ( 1.00000000000000, 0.000000000000000, 3.27498903271780E-017 ) );
#441 = CARTESIAN_POINT( '', ( 1.96499341963068E-016, 0.000000000000000, 2.00000000000000 ) );
#442 = DIRECTION( '', ( -3.27498903271780E-017, 0.000000000000000, 1.00000000000000 ) );
#443 = DIRECTION( '', ( 1.00000000000000, 0.000000000000000, 3.27498903271780E-017 ) );
#444 = DIRECTION( '', ( 0.000000000000000, 1.00000000000000, 0.000000000000000 ) );
#445 = CARTESIAN_POINT( '', ( -3.27498903271780E-016, 0.000000000000000, 18.0000000000000 ) );
#446 = DIRECTION( '', ( 3.27498903271780E-017, 0.000000000000000, -1.00000000000000 ) );
#447 = DIRECTION( '', ( -1.00000000000000, 0.000000000000000, -3.27498903271780E-017 ) );
ENDSEC;
END-ISO-10303-21;
