ISO-10303-21;
HEADER;
FILE_DESCRIPTION( ( 'Unknown' ), '1' );
FILE_NAME( '//SBS2003/HD_Usb/Disegni/08_LIB/Users_3D/PROD_GAMM_3D/APP-A/7747325_APP_19_A.stp', 'Unknown', ( 'Unknown' ), ( 'Unknown' ), 'PSStep 14.0', 'Unknown', '  ' );
FILE_SCHEMA( ( 'AUTOMOTIVE_DESIGN { 1 0 10303 214 1 1 1 1 }' ) );
ENDSEC;
DATA;
#1 = MECHANICAL_DESIGN_GEOMETRIC_PRESENTATION_REPRESENTATION( ' ', ( #10, #11, #12, #13, #14, #15, #16, #17, #18, #19, #20, #21, #22 ), #6 );
#2 = PRODUCT_DEFINITION_CONTEXT( '', #23, 'design' );
#3 = APPLICATION_PROTOCOL_DEFINITION( 'international standard', 'automotive_design', 2001, #23 );
#4 = PRODUCT_CATEGORY_RELATIONSHIP( 'NONE', 'NONE', #24, #25 );
#5 = SHAPE_DEFINITION_REPRESENTATION( #26, #27 );
#6 =  ( GEOMETRIC_REPRESENTATION_CONTEXT( 3 )GLOBAL_UNCERTAINTY_ASSIGNED_CONTEXT( ( #30 ) )GLOBAL_UNIT_ASSIGNED_CONTEXT( ( #32, #33, #34 ) )REPRESENTATION_CONTEXT( 'NONE', 'WORKSPACE' ) );
#10 = STYLED_ITEM( '', ( #36 ), #37 );
#11 = STYLED_ITEM( '', ( #38 ), #39 );
#12 = STYLED_ITEM( '', ( #40 ), #41 );
#13 = STYLED_ITEM( '', ( #42 ), #43 );
#14 = STYLED_ITEM( '', ( #44 ), #45 );
#15 = STYLED_ITEM( '', ( #46 ), #47 );
#16 = STYLED_ITEM( '', ( #48 ), #49 );
#17 = STYLED_ITEM( '', ( #50 ), #51 );
#18 = STYLED_ITEM( '', ( #52 ), #53 );
#19 = STYLED_ITEM( '', ( #54 ), #55 );
#20 = STYLED_ITEM( '', ( #56 ), #57 );
#21 = STYLED_ITEM( '', ( #58 ), #59 );
#22 = STYLED_ITEM( '', ( #60 ), #61 );
#23 = APPLICATION_CONTEXT( 'core data for automotive mechanical design processes' );
#24 = PRODUCT_CATEGORY( 'part', 'NONE' );
#25 = PRODUCT_RELATED_PRODUCT_CATEGORY( 'detail', ' ', ( #62 ) );
#26 = PRODUCT_DEFINITION_SHAPE( 'NONE', 'NONE', #63 );
#27 = ADVANCED_BREP_SHAPE_REPRESENTATION( '1', ( #64, #65 ), #6 );
#30 = UNCERTAINTY_MEASURE_WITH_UNIT( LENGTH_MEASURE( 0.00100000000000000 ), #32, '', '' );
#32 =  ( CONVERSION_BASED_UNIT( 'MILLIMETRE', #68 )LENGTH_UNIT(  )NAMED_UNIT( #71 ) );
#33 =  ( NAMED_UNIT( #73 )PLANE_ANGLE_UNIT(  )SI_UNIT( $, .RADIAN. ) );
#34 =  ( NAMED_UNIT( #73 )SI_UNIT( $, .STERADIAN. )SOLID_ANGLE_UNIT(  ) );
#36 = PRESENTATION_STYLE_ASSIGNMENT( ( #79 ) );
#37 = ADVANCED_FACE( '', ( #80, #81 ), #82, .T. );
#38 = PRESENTATION_STYLE_ASSIGNMENT( ( #83 ) );
#39 = ADVANCED_FACE( '', ( #84 ), #85, .T. );
#40 = PRESENTATION_STYLE_ASSIGNMENT( ( #86 ) );
#41 = ADVANCED_FACE( '', ( #87 ), #88, .F. );
#42 = PRESENTATION_STYLE_ASSIGNMENT( ( #89 ) );
#43 = ADVANCED_FACE( '', ( #90, #91 ), #92, .F. );
#44 = PRESENTATION_STYLE_ASSIGNMENT( ( #93 ) );
#45 = ADVANCED_FACE( '', ( #94, #95 ), #96, .T. );
#46 = PRESENTATION_STYLE_ASSIGNMENT( ( #97 ) );
#47 = ADVANCED_FACE( '', ( #98 ), #99, .F. );
#48 = PRESENTATION_STYLE_ASSIGNMENT( ( #100 ) );
#49 = ADVANCED_FACE( '', ( #101, #102 ), #103, .T. );
#50 = PRESENTATION_STYLE_ASSIGNMENT( ( #104 ) );
#51 = ADVANCED_FACE( '', ( #105 ), #106, .T. );
#52 = PRESENTATION_STYLE_ASSIGNMENT( ( #107 ) );
#53 = ADVANCED_FACE( '', ( #108, #109 ), #110, .T. );
#54 = PRESENTATION_STYLE_ASSIGNMENT( ( #111 ) );
#55 = ADVANCED_FACE( '', ( #112 ), #113, .T. );
#56 = PRESENTATION_STYLE_ASSIGNMENT( ( #114 ) );
#57 = ADVANCED_FACE( '', ( #115 ), #116, .T. );
#58 = PRESENTATION_STYLE_ASSIGNMENT( ( #117 ) );
#59 = ADVANCED_FACE( '', ( #118 ), #119, .T. );
#60 = PRESENTATION_STYLE_ASSIGNMENT( ( #120 ) );
#61 = ADVANCED_FACE( '', ( #121 ), #122, .T. );
#62 = PRODUCT( '1', '1', 'PART-1-DESC', ( #123 ) );
#63 = PRODUCT_DEFINITION( 'NONE', 'NONE', #124, #2 );
#64 = MANIFOLD_SOLID_BREP( '1', #125 );
#65 = AXIS2_PLACEMENT_3D( '', #126, #127, #128 );
#68 = LENGTH_MEASURE_WITH_UNIT( LENGTH_MEASURE( 1.00000000000000 ), #129 );
#71 = DIMENSIONAL_EXPONENTS( 1.00000000000000, 0.000000000000000, 0.000000000000000, 0.000000000000000, 0.000000000000000, 0.000000000000000, 0.000000000000000 );
#73 = DIMENSIONAL_EXPONENTS( 0.000000000000000, 0.000000000000000, 0.000000000000000, 0.000000000000000, 0.000000000000000, 0.000000000000000, 0.000000000000000 );
#79 = SURFACE_STYLE_USAGE( .BOTH., #130 );
#80 = FACE_OUTER_BOUND( '', #131, .T. );
#81 = FACE_OUTER_BOUND( '', #132, .T. );
#82 = CYLINDRICAL_SURFACE( '', #133, 5.00000000000000 );
#83 = SURFACE_STYLE_USAGE( .BOTH., #134 );
#84 = FACE_OUTER_BOUND( '', #135, .T. );
#85 = SPHERICAL_SURFACE( '', #136, 2.25000000000000 );
#86 = SURFACE_STYLE_USAGE( .BOTH., #137 );
#87 = FACE_OUTER_BOUND( '', #138, .T. );
#88 = PLANE( '', #139 );
#89 = SURFACE_STYLE_USAGE( .BOTH., #140 );
#90 = FACE_OUTER_BOUND( '', #141, .T. );
#91 = FACE_BOUND( '', #142, .T. );
#92 = PLANE( '', #143 );
#93 = SURFACE_STYLE_USAGE( .BOTH., #144 );
#94 = FACE_OUTER_BOUND( '', #145, .T. );
#95 = FACE_OUTER_BOUND( '', #146, .T. );
#96 = CYLINDRICAL_SURFACE( '', #147, 2.25000000000000 );
#97 = SURFACE_STYLE_USAGE( .BOTH., #148 );
#98 = FACE_OUTER_BOUND( '', #149, .T. );
#99 = PLANE( '', #150 );
#100 = SURFACE_STYLE_USAGE( .BOTH., #151 );
#101 = FACE_BOUND( '', #152, .T. );
#102 = FACE_OUTER_BOUND( '', #153, .T. );
#103 = CONICAL_SURFACE( '', #154, 5.00000000000000, 0.785398163397448 );
#104 = SURFACE_STYLE_USAGE( .BOTH., #155 );
#105 = FACE_OUTER_BOUND( '', #156, .T. );
#106 = CONICAL_SURFACE( '', #157, 4.00000000000000, 0.785398163397448 );
#107 = SURFACE_STYLE_USAGE( .BOTH., #158 );
#108 = FACE_OUTER_BOUND( '', #159, .T. );
#109 = FACE_OUTER_BOUND( '', #160, .T. );
#110 = CYLINDRICAL_SURFACE( '', #161, 3.25000000000000 );
#111 = SURFACE_STYLE_USAGE( .BOTH., #162 );
#112 = FACE_OUTER_BOUND( '', #163, .T. );
#113 = PLANE( '', #164 );
#114 = SURFACE_STYLE_USAGE( .BOTH., #165 );
#115 = FACE_OUTER_BOUND( '', #166, .T. );
#116 = PLANE( '', #167 );
#117 = SURFACE_STYLE_USAGE( .BOTH., #168 );
#118 = FACE_OUTER_BOUND( '', #169, .T. );
#119 = PLANE( '', #170 );
#120 = SURFACE_STYLE_USAGE( .BOTH., #171 );
#121 = FACE_OUTER_BOUND( '', #172, .T. );
#122 = CONICAL_SURFACE( '', #173, 4.00000000000000, 0.785398163397448 );
#123 = PRODUCT_CONTEXT( '', #23, 'mechanical' );
#124 = PRODUCT_DEFINITION_FORMATION_WITH_SPECIFIED_SOURCE( ' ', 'NONE', #62, .NOT_KNOWN. );
#125 = CLOSED_SHELL( '', ( #37, #51, #57, #55, #61, #49, #45, #43, #47, #53, #39, #41, #59 ) );
#126 = CARTESIAN_POINT( '', ( 0.000000000000000, 0.000000000000000, 0.000000000000000 ) );
#127 = DIRECTION( '', ( 0.000000000000000, 0.000000000000000, 1.00000000000000 ) );
#128 = DIRECTION( '', ( 1.00000000000000, 0.000000000000000, 0.000000000000000 ) );
#129 =  ( LENGTH_UNIT(  )NAMED_UNIT( #71 )SI_UNIT( .MILLI., .METRE. ) );
#130 = SURFACE_SIDE_STYLE( '', ( #175 ) );
#131 = EDGE_LOOP( '', ( #176 ) );
#132 = EDGE_LOOP( '', ( #177, #178, #179, #180, #181, #182, #183, #184 ) );
#133 = AXIS2_PLACEMENT_3D( '', #185, #186, #187 );
#134 = SURFACE_SIDE_STYLE( '', ( #188 ) );
#135 = EDGE_LOOP( '', ( #189 ) );
#136 = AXIS2_PLACEMENT_3D( '', #190, #191, #192 );
#137 = SURFACE_SIDE_STYLE( '', ( #193 ) );
#138 = EDGE_LOOP( '', ( #194, #195 ) );
#139 = AXIS2_PLACEMENT_3D( '', #196, #197, #198 );
#140 = SURFACE_SIDE_STYLE( '', ( #199 ) );
#141 = EDGE_LOOP( '', ( #200 ) );
#142 = EDGE_LOOP( '', ( #201 ) );
#143 = AXIS2_PLACEMENT_3D( '', #202, #203, #204 );
#144 = SURFACE_SIDE_STYLE( '', ( #205 ) );
#145 = EDGE_LOOP( '', ( #206 ) );
#146 = EDGE_LOOP( '', ( #207 ) );
#147 = AXIS2_PLACEMENT_3D( '', #208, #209, #210 );
#148 = SURFACE_SIDE_STYLE( '', ( #211 ) );
#149 = EDGE_LOOP( '', ( #212, #213 ) );
#150 = AXIS2_PLACEMENT_3D( '', #214, #215, #216 );
#151 = SURFACE_SIDE_STYLE( '', ( #217 ) );
#152 = EDGE_LOOP( '', ( #218 ) );
#153 = EDGE_LOOP( '', ( #219 ) );
#154 = AXIS2_PLACEMENT_3D( '', #220, #221, #222 );
#155 = SURFACE_SIDE_STYLE( '', ( #223 ) );
#156 = EDGE_LOOP( '', ( #224, #225, #226, #227 ) );
#157 = AXIS2_PLACEMENT_3D( '', #228, #229, #230 );
#158 = SURFACE_SIDE_STYLE( '', ( #231 ) );
#159 = EDGE_LOOP( '', ( #232 ) );
#160 = EDGE_LOOP( '', ( #233 ) );
#161 = AXIS2_PLACEMENT_3D( '', #234, #235, #236 );
#162 = SURFACE_SIDE_STYLE( '', ( #237 ) );
#163 = EDGE_LOOP( '', ( #238, #239, #240, #241, #242, #243 ) );
#164 = AXIS2_PLACEMENT_3D( '', #244, #245, #246 );
#165 = SURFACE_SIDE_STYLE( '', ( #247 ) );
#166 = EDGE_LOOP( '', ( #248, #249, #250, #251 ) );
#167 = AXIS2_PLACEMENT_3D( '', #252, #253, #254 );
#168 = SURFACE_SIDE_STYLE( '', ( #255 ) );
#169 = EDGE_LOOP( '', ( #256, #257, #258, #259, #260, #261 ) );
#170 = AXIS2_PLACEMENT_3D( '', #262, #263, #264 );
#171 = SURFACE_SIDE_STYLE( '', ( #265 ) );
#172 = EDGE_LOOP( '', ( #266, #267, #268, #269 ) );
#173 = AXIS2_PLACEMENT_3D( '', #270, #271, #272 );
#175 = SURFACE_STYLE_FILL_AREA( #273 );
#176 = ORIENTED_EDGE( '', *, *, #274, .T. );
#177 = ORIENTED_EDGE( '', *, *, #275, .F. );
#178 = ORIENTED_EDGE( '', *, *, #276, .T. );
#179 = ORIENTED_EDGE( '', *, *, #277, .F. );
#180 = ORIENTED_EDGE( '', *, *, #278, .F. );
#181 = ORIENTED_EDGE( '', *, *, #279, .F. );
#182 = ORIENTED_EDGE( '', *, *, #280, .T. );
#183 = ORIENTED_EDGE( '', *, *, #281, .F. );
#184 = ORIENTED_EDGE( '', *, *, #282, .F. );
#185 = CARTESIAN_POINT( '', ( -2.61999122617424E-016, 0.000000000000000, 16.0000000000000 ) );
#186 = DIRECTION( '', ( 3.27498903271780E-017, -0.000000000000000, -1.00000000000000 ) );
#187 = DIRECTION( '', ( 1.00000000000000, 0.000000000000000, 3.27498903271780E-017 ) );
#188 = SURFACE_STYLE_FILL_AREA( #283 );
#189 = ORIENTED_EDGE( '', *, *, #284, .F. );
#190 = CARTESIAN_POINT( '', ( 2.35744508835865E-015, 0.000000000000000, 2.25000000000000 ) );
#191 = DIRECTION( '', ( -3.27498903271780E-017, 0.000000000000000, 1.00000000000000 ) );
#192 = DIRECTION( '', ( -1.00000000000000, 0.000000000000000, -3.27498903271780E-017 ) );
#193 = SURFACE_STYLE_FILL_AREA( #285 );
#194 = ORIENTED_EDGE( '', *, *, #286, .T. );
#195 = ORIENTED_EDGE( '', *, *, #287, .T. );
#196 = CARTESIAN_POINT( '', ( 5.00000000000000, 0.000000000000000, 21.5000000000000 ) );
#197 = DIRECTION( '', ( 3.27498903271780E-017, 0.000000000000000, -1.00000000000000 ) );
#198 = DIRECTION( '', ( -1.00000000000000, 0.000000000000000, -3.27498903271780E-017 ) );
#199 = SURFACE_STYLE_FILL_AREA( #288 );
#200 = ORIENTED_EDGE( '', *, *, #289, .F. );
#201 = ORIENTED_EDGE( '', *, *, #290, .T. );
#202 = CARTESIAN_POINT( '', ( 2.25000000000000, 0.000000000000000, 2.50000000000000 ) );
#203 = DIRECTION( '', ( -3.27498903271780E-017, 0.000000000000000, 1.00000000000000 ) );
#204 = DIRECTION( '', ( 1.00000000000000, 0.000000000000000, 3.27498903271780E-017 ) );
#205 = SURFACE_STYLE_FILL_AREA( #291 );
#206 = ORIENTED_EDGE( '', *, *, #290, .F. );
#207 = ORIENTED_EDGE( '', *, *, #284, .T. );
#208 = CARTESIAN_POINT( '', ( -2.61999122617424E-016, 0.000000000000000, 16.0000000000000 ) );
#209 = DIRECTION( '', ( 3.27498903271780E-017, -0.000000000000000, -1.00000000000000 ) );
#210 = DIRECTION( '', ( 1.00000000000000, 0.000000000000000, 3.27498903271780E-017 ) );
#211 = SURFACE_STYLE_FILL_AREA( #292 );
#212 = ORIENTED_EDGE( '', *, *, #293, .F. );
#213 = ORIENTED_EDGE( '', *, *, #294, .T. );
#214 = CARTESIAN_POINT( '', ( 5.00000000000000, 0.000000000000000, 21.5000000000000 ) );
#215 = DIRECTION( '', ( 3.27498903271780E-017, 0.000000000000000, -1.00000000000000 ) );
#216 = DIRECTION( '', ( -1.00000000000000, 0.000000000000000, -3.27498903271780E-017 ) );
#217 = SURFACE_STYLE_FILL_AREA( #295 );
#218 = ORIENTED_EDGE( '', *, *, #296, .F. );
#219 = ORIENTED_EDGE( '', *, *, #274, .F. );
#220 = CARTESIAN_POINT( '', ( 9.82496709815340E-017, 0.000000000000000, 5.00000000000000 ) );
#221 = DIRECTION( '', ( -3.27498903271780E-017, 0.000000000000000, 1.00000000000000 ) );
#222 = DIRECTION( '', ( 1.00000000000000, 0.000000000000000, 3.27498903271780E-017 ) );
#223 = SURFACE_STYLE_FILL_AREA( #297 );
#224 = ORIENTED_EDGE( '', *, *, #298, .F. );
#225 = ORIENTED_EDGE( '', *, *, #280, .F. );
#226 = ORIENTED_EDGE( '', *, *, #299, .F. );
#227 = ORIENTED_EDGE( '', *, *, #287, .F. );
#228 = CARTESIAN_POINT( '', ( -4.42123519416903E-016, 0.000000000000000, 21.5000000000000 ) );
#229 = DIRECTION( '', ( 3.27498903271780E-017, -0.000000000000000, -1.00000000000000 ) );
#230 = DIRECTION( '', ( -1.00000000000000, 0.000000000000000, -3.27498903271780E-017 ) );
#231 = SURFACE_STYLE_FILL_AREA( #300 );
#232 = ORIENTED_EDGE( '', *, *, #296, .T. );
#233 = ORIENTED_EDGE( '', *, *, #289, .T. );
#234 = CARTESIAN_POINT( '', ( -2.61999122617424E-016, 0.000000000000000, 16.0000000000000 ) );
#235 = DIRECTION( '', ( 3.27498903271780E-017, -0.000000000000000, -1.00000000000000 ) );
#236 = DIRECTION( '', ( 1.00000000000000, 0.000000000000000, 3.27498903271780E-017 ) );
#237 = SURFACE_STYLE_FILL_AREA( #301 );
#238 = ORIENTED_EDGE( '', *, *, #293, .T. );
#239 = ORIENTED_EDGE( '', *, *, #302, .T. );
#240 = ORIENTED_EDGE( '', *, *, #275, .T. );
#241 = ORIENTED_EDGE( '', *, *, #303, .F. );
#242 = ORIENTED_EDGE( '', *, *, #277, .T. );
#243 = ORIENTED_EDGE( '', *, *, #304, .T. );
#244 = CARTESIAN_POINT( '', ( 0.750000000000000, -12.5000000000000, 20.2000000000000 ) );
#245 = DIRECTION( '', ( -1.00000000000000, 0.000000000000000, 8.34001671142696E-017 ) );
#246 = DIRECTION( '', ( 8.34001671142696E-017, 0.000000000000000, 1.00000000000000 ) );
#247 = SURFACE_STYLE_FILL_AREA( #305 );
#248 = ORIENTED_EDGE( '', *, *, #282, .T. );
#249 = ORIENTED_EDGE( '', *, *, #306, .F. );
#250 = ORIENTED_EDGE( '', *, *, #278, .T. );
#251 = ORIENTED_EDGE( '', *, *, #303, .T. );
#252 = CARTESIAN_POINT( '', ( -0.750000000000000, -12.5000000000000, 20.2000000000000 ) );
#253 = DIRECTION( '', ( 0.000000000000000, 0.000000000000000, 1.00000000000000 ) );
#254 = DIRECTION( '', ( 1.00000000000000, 0.000000000000000, 0.000000000000000 ) );
#255 = SURFACE_STYLE_FILL_AREA( #307 );
#256 = ORIENTED_EDGE( '', *, *, #286, .F. );
#257 = ORIENTED_EDGE( '', *, *, #299, .T. );
#258 = ORIENTED_EDGE( '', *, *, #279, .T. );
#259 = ORIENTED_EDGE( '', *, *, #306, .T. );
#260 = ORIENTED_EDGE( '', *, *, #281, .T. );
#261 = ORIENTED_EDGE( '', *, *, #298, .T. );
#262 = CARTESIAN_POINT( '', ( -0.750000000000000, -12.5000000000000, 21.5000000000000 ) );
#263 = DIRECTION( '', ( 1.00000000000000, 0.000000000000000, 8.34001671142696E-017 ) );
#264 = DIRECTION( '', ( 8.34001671142696E-017, 0.000000000000000, -1.00000000000000 ) );
#265 = SURFACE_STYLE_FILL_AREA( #308 );
#266 = ORIENTED_EDGE( '', *, *, #304, .F. );
#267 = ORIENTED_EDGE( '', *, *, #276, .F. );
#268 = ORIENTED_EDGE( '', *, *, #302, .F. );
#269 = ORIENTED_EDGE( '', *, *, #294, .F. );
#270 = CARTESIAN_POINT( '', ( -4.42123519416903E-016, 0.000000000000000, 21.5000000000000 ) );
#271 = DIRECTION( '', ( 3.27498903271780E-017, -0.000000000000000, -1.00000000000000 ) );
#272 = DIRECTION( '', ( -1.00000000000000, 0.000000000000000, -3.27498903271780E-017 ) );
#273 = FILL_AREA_STYLE( '', ( #309 ) );
#274 = EDGE_CURVE( '', #310, #310, #311, .T. );
#275 = EDGE_CURVE( '', #312, #313, #314, .F. );
#276 = EDGE_CURVE( '', #312, #315, #316, .T. );
#277 = EDGE_CURVE( '', #317, #315, #318, .T. );
#278 = EDGE_CURVE( '', #319, #317, #320, .T. );
#279 = EDGE_CURVE( '', #321, #319, #322, .F. );
#280 = EDGE_CURVE( '', #321, #323, #324, .T. );
#281 = EDGE_CURVE( '', #325, #323, #326, .T. );
#282 = EDGE_CURVE( '', #313, #325, #327, .T. );
#283 = FILL_AREA_STYLE( '', ( #328 ) );
#284 = EDGE_CURVE( '', #329, #329, #330, .T. );
#285 = FILL_AREA_STYLE( '', ( #331 ) );
#286 = EDGE_CURVE( '', #332, #333, #334, .T. );
#287 = EDGE_CURVE( '', #333, #332, #335, .F. );
#288 = FILL_AREA_STYLE( '', ( #336 ) );
#289 = EDGE_CURVE( '', #337, #337, #338, .T. );
#290 = EDGE_CURVE( '', #339, #339, #340, .T. );
#291 = FILL_AREA_STYLE( '', ( #341 ) );
#292 = FILL_AREA_STYLE( '', ( #342 ) );
#293 = EDGE_CURVE( '', #343, #344, #345, .T. );
#294 = EDGE_CURVE( '', #343, #344, #346, .F. );
#295 = FILL_AREA_STYLE( '', ( #347 ) );
#296 = EDGE_CURVE( '', #348, #348, #349, .F. );
#297 = FILL_AREA_STYLE( '', ( #350 ) );
#298 = EDGE_CURVE( '', #323, #333, #351, .T. );
#299 = EDGE_CURVE( '', #332, #321, #352, .T. );
#300 = FILL_AREA_STYLE( '', ( #353 ) );
#301 = FILL_AREA_STYLE( '', ( #354 ) );
#302 = EDGE_CURVE( '', #344, #312, #355, .T. );
#303 = EDGE_CURVE( '', #317, #313, #356, .T. );
#304 = EDGE_CURVE( '', #315, #343, #357, .T. );
#305 = FILL_AREA_STYLE( '', ( #358 ) );
#306 = EDGE_CURVE( '', #319, #325, #359, .T. );
#307 = FILL_AREA_STYLE( '', ( #360 ) );
#308 = FILL_AREA_STYLE( '', ( #361 ) );
#309 = FILL_AREA_STYLE_COLOUR( '', #362 );
#310 = VERTEX_POINT( '', #363 );
#311 = CIRCLE( '', #364, 5.00000000000000 );
#312 = VERTEX_POINT( '', #365 );
#313 = VERTEX_POINT( '', #366 );
#314 = LINE( '', #367, #368 );
#315 = VERTEX_POINT( '', #369 );
#316 = CIRCLE( '', #370, 5.00000000000000 );
#317 = VERTEX_POINT( '', #371 );
#318 = LINE( '', #372, #373 );
#319 = VERTEX_POINT( '', #374 );
#320 = CIRCLE( '', #375, 5.00000000000000 );
#321 = VERTEX_POINT( '', #376 );
#322 = LINE( '', #377, #378 );
#323 = VERTEX_POINT( '', #379 );
#324 = CIRCLE( '', #380, 5.00000000000000 );
#325 = VERTEX_POINT( '', #381 );
#326 = LINE( '', #382, #383 );
#327 = CIRCLE( '', #384, 5.00000000000000 );
#328 = FILL_AREA_STYLE_COLOUR( '', #385 );
#329 = VERTEX_POINT( '', #386 );
#330 = CIRCLE( '', #387, 2.25000000000000 );
#331 = FILL_AREA_STYLE_COLOUR( '', #388 );
#332 = VERTEX_POINT( '', #389 );
#333 = VERTEX_POINT( '', #390 );
#334 = LINE( '', #391, #392 );
#335 = CIRCLE( '', #393, 4.00000000000000 );
#336 = FILL_AREA_STYLE_COLOUR( '', #394 );
#337 = VERTEX_POINT( '', #395 );
#338 = CIRCLE( '', #396, 3.25000000000000 );
#339 = VERTEX_POINT( '', #397 );
#340 = CIRCLE( '', #398, 2.25000000000000 );
#341 = FILL_AREA_STYLE_COLOUR( '', #399 );
#342 = FILL_AREA_STYLE_COLOUR( '', #400 );
#343 = VERTEX_POINT( '', #401 );
#344 = VERTEX_POINT( '', #402 );
#345 = LINE( '', #403, #404 );
#346 = CIRCLE( '', #405, 4.00000000000000 );
#347 = FILL_AREA_STYLE_COLOUR( '', #406 );
#348 = VERTEX_POINT( '', #407 );
#349 = CIRCLE( '', #408, 3.25000000000000 );
#350 = FILL_AREA_STYLE_COLOUR( '', #409 );
#351 = B_SPLINE_CURVE_WITH_KNOTS( '', 3, ( #410, #411, #412, #413 ), .UNSPECIFIED., .F., .F., ( 4, 4 ), ( 0.000000000000000, 0.00142441204922309 ), .UNSPECIFIED. );
#352 = B_SPLINE_CURVE_WITH_KNOTS( '', 3, ( #414, #415, #416, #417 ), .UNSPECIFIED., .F., .F., ( 4, 4 ), ( 0.000000000000000, 0.00142441204922309 ), .UNSPECIFIED. );
#353 = FILL_AREA_STYLE_COLOUR( '', #418 );
#354 = FILL_AREA_STYLE_COLOUR( '', #419 );
#355 = B_SPLINE_CURVE_WITH_KNOTS( '', 3, ( #420, #421, #422, #423 ), .UNSPECIFIED., .F., .F., ( 4, 4 ), ( 0.000000000000000, 0.00142441204922309 ), .UNSPECIFIED. );
#356 = LINE( '', #424, #425 );
#357 = B_SPLINE_CURVE_WITH_KNOTS( '', 3, ( #426, #427, #428, #429 ), .UNSPECIFIED., .F., .F., ( 4, 4 ), ( 0.000000000000000, 0.00142441204922309 ), .UNSPECIFIED. );
#358 = FILL_AREA_STYLE_COLOUR( '', #430 );
#359 = LINE( '', #431, #432 );
#360 = FILL_AREA_STYLE_COLOUR( '', #433 );
#361 = FILL_AREA_STYLE_COLOUR( '', #434 );
#362 = COLOUR_RGB( '', 0.752941191196442, 0.752941191196442, 0.752941191196442 );
#363 = CARTESIAN_POINT( '', ( 5.00000000000000, 0.000000000000000, 5.00000000000000 ) );
#364 = AXIS2_PLACEMENT_3D( '', #435, #436, #437 );
#365 = CARTESIAN_POINT( '', ( 0.750000000000000, 4.94342998332130, 20.5000000000000 ) );
#366 = CARTESIAN_POINT( '', ( 0.750000000000000, 4.94342998332130, 20.2000000000000 ) );
#367 = CARTESIAN_POINT( '', ( 0.750000000000000, 4.94342998332130, 16.0000000000000 ) );
#368 = VECTOR( '', #438, 1000.00000000000 );
#369 = CARTESIAN_POINT( '', ( 0.750000000000000, -4.94342998332130, 20.5000000000000 ) );
#370 = AXIS2_PLACEMENT_3D( '', #439, #440, #441 );
#371 = CARTESIAN_POINT( '', ( 0.750000000000000, -4.94342998332130, 20.2000000000000 ) );
#372 = CARTESIAN_POINT( '', ( 0.750000000000000, -4.94342998332130, 16.0000000000000 ) );
#373 = VECTOR( '', #442, 1000.00000000000 );
#374 = CARTESIAN_POINT( '', ( -0.750000000000000, -4.94342998332130, 20.2000000000000 ) );
#375 = AXIS2_PLACEMENT_3D( '', #443, #444, #445 );
#376 = CARTESIAN_POINT( '', ( -0.750000000000000, -4.94342998332130, 20.5000000000000 ) );
#377 = CARTESIAN_POINT( '', ( -0.750000000000000, -4.94342998332130, 16.0000000000000 ) );
#378 = VECTOR( '', #446, 1000.00000000000 );
#379 = CARTESIAN_POINT( '', ( -0.750000000000000, 4.94342998332130, 20.5000000000000 ) );
#380 = AXIS2_PLACEMENT_3D( '', #447, #448, #449 );
#381 = CARTESIAN_POINT( '', ( -0.750000000000000, 4.94342998332130, 20.2000000000000 ) );
#382 = CARTESIAN_POINT( '', ( -0.750000000000000, 4.94342998332130, 16.0000000000000 ) );
#383 = VECTOR( '', #450, 1000.00000000000 );
#384 = AXIS2_PLACEMENT_3D( '', #451, #452, #453 );
#385 = COLOUR_RGB( '', 0.200000002980232, 0.200000002980232, 0.200000002980232 );
#386 = CARTESIAN_POINT( '', ( 2.25000000000000, 0.000000000000000, 2.25000000000000 ) );
#387 = AXIS2_PLACEMENT_3D( '', #454, #455, #456 );
#388 = COLOUR_RGB( '', 0.200000002980232, 0.200000002980232, 0.200000002980232 );
#389 = CARTESIAN_POINT( '', ( -0.750000000000000, -3.92905841137543, 21.5000000000000 ) );
#390 = CARTESIAN_POINT( '', ( -0.750000000000000, 3.92905841137543, 21.5000000000000 ) );
#391 = CARTESIAN_POINT( '', ( -0.750000000000000, -12.5000000000000, 21.5000000000000 ) );
#392 = VECTOR( '', #457, 1000.00000000000 );
#393 = AXIS2_PLACEMENT_3D( '', #458, #459, #460 );
#394 = COLOUR_RGB( '', 0.200000002980232, 0.200000002980232, 0.200000002980232 );
#395 = CARTESIAN_POINT( '', ( 3.25000000000000, 0.000000000000000, 2.50000000000000 ) );
#396 = AXIS2_PLACEMENT_3D( '', #461, #462, #463 );
#397 = CARTESIAN_POINT( '', ( 2.25000000000000, 0.000000000000000, 2.50000000000000 ) );
#398 = AXIS2_PLACEMENT_3D( '', #464, #465, #466 );
#399 = COLOUR_RGB( '', 0.200000002980232, 0.200000002980232, 0.200000002980232 );
#400 = COLOUR_RGB( '', 0.200000002980232, 0.200000002980232, 0.200000002980232 );
#401 = CARTESIAN_POINT( '', ( 0.750000000000000, -3.92905841137543, 21.5000000000000 ) );
#402 = CARTESIAN_POINT( '', ( 0.750000000000000, 3.92905841137543, 21.5000000000000 ) );
#403 = CARTESIAN_POINT( '', ( 0.750000000000000, -12.5000000000000, 21.5000000000000 ) );
#404 = VECTOR( '', #467, 1000.00000000000 );
#405 = AXIS2_PLACEMENT_3D( '', #468, #469, #470 );
#406 = COLOUR_RGB( '', 0.200000002980232, 0.200000002980232, 0.200000002980232 );
#407 = CARTESIAN_POINT( '', ( 3.25000000000000, 0.000000000000000, 3.25000000000000 ) );
#408 = AXIS2_PLACEMENT_3D( '', #471, #472, #473 );
#409 = COLOUR_RGB( '', 0.200000002980232, 0.200000002980232, 0.200000002980232 );
#410 = CARTESIAN_POINT( '', ( -0.750000000000000, 4.94342998332130, 20.5000000000000 ) );
#411 = CARTESIAN_POINT( '', ( -0.750000000000000, 4.60578823690384, 20.8338216665722 ) );
#412 = CARTESIAN_POINT( '', ( -0.750000000000000, 4.26778584692331, 21.1672800300492 ) );
#413 = CARTESIAN_POINT( '', ( -0.750000000000000, 3.92905841137543, 21.5000000000000 ) );
#414 = CARTESIAN_POINT( '', ( -0.750000000000000, -3.92905841137543, 21.5000000000000 ) );
#415 = CARTESIAN_POINT( '', ( -0.750000000000000, -4.26778584692331, 21.1672800300492 ) );
#416 = CARTESIAN_POINT( '', ( -0.750000000000000, -4.60578823690384, 20.8338216665722 ) );
#417 = CARTESIAN_POINT( '', ( -0.750000000000000, -4.94342998332130, 20.5000000000000 ) );
#418 = COLOUR_RGB( '', 0.200000002980232, 0.200000002980232, 0.200000002980232 );
#419 = COLOUR_RGB( '', 0.200000002980232, 0.200000002980232, 0.200000002980232 );
#420 = CARTESIAN_POINT( '', ( 0.750000000000000, 3.92905841137543, 21.5000000000000 ) );
#421 = CARTESIAN_POINT( '', ( 0.750000000000000, 4.26778584692331, 21.1672800300492 ) );
#422 = CARTESIAN_POINT( '', ( 0.750000000000000, 4.60578823690384, 20.8338216665722 ) );
#423 = CARTESIAN_POINT( '', ( 0.750000000000000, 4.94342998332130, 20.5000000000000 ) );
#424 = CARTESIAN_POINT( '', ( 0.750000000000000, -12.5000000000000, 20.2000000000000 ) );
#425 = VECTOR( '', #474, 1000.00000000000 );
#426 = CARTESIAN_POINT( '', ( 0.750000000000000, -4.94342998332130, 20.5000000000000 ) );
#427 = CARTESIAN_POINT( '', ( 0.750000000000000, -4.60578823690384, 20.8338216665722 ) );
#428 = CARTESIAN_POINT( '', ( 0.750000000000000, -4.26778584692331, 21.1672800300492 ) );
#429 = CARTESIAN_POINT( '', ( 0.750000000000000, -3.92905841137543, 21.5000000000000 ) );
#430 = COLOUR_RGB( '', 0.200000002980232, 0.200000002980232, 0.200000002980232 );
#431 = CARTESIAN_POINT( '', ( -0.750000000000000, -12.5000000000000, 20.2000000000000 ) );
#432 = VECTOR( '', #475, 1000.00000000000 );
#433 = COLOUR_RGB( '', 0.200000002980232, 0.200000002980232, 0.200000002980232 );
#434 = COLOUR_RGB( '', 0.200000002980232, 0.200000002980232, 0.200000002980232 );
#435 = CARTESIAN_POINT( '', ( 9.82496709815340E-017, 0.000000000000000, 5.00000000000000 ) );
#436 = DIRECTION( '', ( -3.27498903271780E-017, 0.000000000000000, 1.00000000000000 ) );
#437 = DIRECTION( '', ( 1.00000000000000, 0.000000000000000, 3.27498903271780E-017 ) );
#438 = DIRECTION( '', ( -3.27498903271780E-017, 0.000000000000000, 1.00000000000000 ) );
#439 = CARTESIAN_POINT( '', ( -4.09373629089725E-016, 0.000000000000000, 20.5000000000000 ) );
#440 = DIRECTION( '', ( 3.27498903271780E-017, 0.000000000000000, -1.00000000000000 ) );
#441 = DIRECTION( '', ( -1.00000000000000, 0.000000000000000, -3.27498903271780E-017 ) );
#442 = DIRECTION( '', ( -3.27498903271780E-017, 0.000000000000000, 1.00000000000000 ) );
#443 = CARTESIAN_POINT( '', ( -3.99548661991571E-016, 0.000000000000000, 20.2000000000000 ) );
#444 = DIRECTION( '', ( 0.000000000000000, 0.000000000000000, 1.00000000000000 ) );
#445 = DIRECTION( '', ( 1.00000000000000, 0.000000000000000, 0.000000000000000 ) );
#446 = DIRECTION( '', ( -3.27498903271780E-017, 0.000000000000000, 1.00000000000000 ) );
#447 = CARTESIAN_POINT( '', ( -4.09373629089725E-016, 0.000000000000000, 20.5000000000000 ) );
#448 = DIRECTION( '', ( 3.27498903271780E-017, 0.000000000000000, -1.00000000000000 ) );
#449 = DIRECTION( '', ( -1.00000000000000, 0.000000000000000, -3.27498903271780E-017 ) );
#450 = DIRECTION( '', ( -3.27498903271780E-017, 0.000000000000000, 1.00000000000000 ) );
#451 = CARTESIAN_POINT( '', ( -3.99548661991571E-016, 0.000000000000000, 20.2000000000000 ) );
#452 = DIRECTION( '', ( 0.000000000000000, 0.000000000000000, 1.00000000000000 ) );
#453 = DIRECTION( '', ( 1.00000000000000, 0.000000000000000, 0.000000000000000 ) );
#454 = CARTESIAN_POINT( '', ( 1.88311869381274E-016, 0.000000000000000, 2.25000000000000 ) );
#455 = DIRECTION( '', ( -3.27498903271780E-017, 0.000000000000000, 1.00000000000000 ) );
#456 = DIRECTION( '', ( 1.00000000000000, 0.000000000000000, 3.27498903271780E-017 ) );
#457 = DIRECTION( '', ( 0.000000000000000, 1.00000000000000, 0.000000000000000 ) );
#458 = CARTESIAN_POINT( '', ( -4.42123519416903E-016, 0.000000000000000, 21.5000000000000 ) );
#459 = DIRECTION( '', ( 3.27498903271780E-017, 0.000000000000000, -1.00000000000000 ) );
#460 = DIRECTION( '', ( -1.00000000000000, 0.000000000000000, -3.27498903271780E-017 ) );
#461 = CARTESIAN_POINT( '', ( 1.80124396799479E-016, 0.000000000000000, 2.50000000000000 ) );
#462 = DIRECTION( '', ( -3.27498903271780E-017, 0.000000000000000, 1.00000000000000 ) );
#463 = DIRECTION( '', ( 1.00000000000000, 0.000000000000000, 3.27498903271780E-017 ) );
#464 = CARTESIAN_POINT( '', ( 1.80124396799479E-016, 0.000000000000000, 2.50000000000000 ) );
#465 = DIRECTION( '', ( -3.27498903271780E-017, 0.000000000000000, 1.00000000000000 ) );
#466 = DIRECTION( '', ( 1.00000000000000, 0.000000000000000, 3.27498903271780E-017 ) );
#467 = DIRECTION( '', ( 0.000000000000000, 1.00000000000000, 0.000000000000000 ) );
#468 = CARTESIAN_POINT( '', ( -4.42123519416903E-016, 0.000000000000000, 21.5000000000000 ) );
#469 = DIRECTION( '', ( 3.27498903271780E-017, 0.000000000000000, -1.00000000000000 ) );
#470 = DIRECTION( '', ( -1.00000000000000, 0.000000000000000, -3.27498903271780E-017 ) );
#471 = CARTESIAN_POINT( '', ( 1.55561979054096E-016, 0.000000000000000, 3.25000000000000 ) );
#472 = DIRECTION( '', ( -3.27498903271780E-017, 0.000000000000000, 1.00000000000000 ) );
#473 = DIRECTION( '', ( 1.00000000000000, 0.000000000000000, 3.27498903271780E-017 ) );
#474 = DIRECTION( '', ( 0.000000000000000, 1.00000000000000, 0.000000000000000 ) );
#475 = DIRECTION( '', ( 0.000000000000000, 1.00000000000000, 0.000000000000000 ) );
ENDSEC;
END-ISO-10303-21;
