ISO-10303-21;
HEADER;
FILE_DESCRIPTION( ( 'Unknown' ), '1' );
FILE_NAME( '//SBS2003/HD_Usb/Disegni/08_LIB/Users_3D/PROD_GAMM_3D/APP-A/7747326_APP_19_AR.stp', 'Unknown', ( 'Unknown' ), ( 'Unknown' ), 'PSStep 14.0', 'Unknown', '  ' );
FILE_SCHEMA( ( 'AUTOMOTIVE_DESIGN { 1 0 10303 214 1 1 1 1 }' ) );
ENDSEC;
DATA;
#1 = MECHANICAL_DESIGN_GEOMETRIC_PRESENTATION_REPRESENTATION( ' ', ( #10, #11, #12, #13, #14, #15, #16, #17, #18, #19, #20, #21, #22 ), #6 );
#2 = PRODUCT_DEFINITION_CONTEXT( '', #23, 'design' );
#3 = APPLICATION_PROTOCOL_DEFINITION( 'international standard', 'automotive_design', 2001, #23 );
#4 = PRODUCT_CATEGORY_RELATIONSHIP( 'NONE', 'NONE', #24, #25 );
#5 = SHAPE_DEFINITION_REPRESENTATION( #26, #27 );
#6 =  ( GEOMETRIC_REPRESENTATION_CONTEXT( 3 )GLOBAL_UNCERTAINTY_ASSIGNED_CONTEXT( ( #30 ) )GLOBAL_UNIT_ASSIGNED_CONTEXT( ( #32, #33, #34 ) )REPRESENTATION_CONTEXT( 'NONE', 'WORKSPACE' ) );
#10 = STYLED_ITEM( '', ( #36 ), #37 );
#11 = STYLED_ITEM( '', ( #38 ), #39 );
#12 = STYLED_ITEM( '', ( #40 ), #41 );
#13 = STYLED_ITEM( '', ( #42 ), #43 );
#14 = STYLED_ITEM( '', ( #44 ), #45 );
#15 = STYLED_ITEM( '', ( #46 ), #47 );
#16 = STYLED_ITEM( '', ( #48 ), #49 );
#17 = STYLED_ITEM( '', ( #50 ), #51 );
#18 = STYLED_ITEM( '', ( #52 ), #53 );
#19 = STYLED_ITEM( '', ( #54 ), #55 );
#20 = STYLED_ITEM( '', ( #56 ), #57 );
#21 = STYLED_ITEM( '', ( #58 ), #59 );
#22 = STYLED_ITEM( '', ( #60 ), #61 );
#23 = APPLICATION_CONTEXT( 'core data for automotive mechanical design processes' );
#24 = PRODUCT_CATEGORY( 'part', 'NONE' );
#25 = PRODUCT_RELATED_PRODUCT_CATEGORY( 'detail', ' ', ( #62 ) );
#26 = PRODUCT_DEFINITION_SHAPE( 'NONE', 'NONE', #63 );
#27 = ADVANCED_BREP_SHAPE_REPRESENTATION( '1', ( #64, #65 ), #6 );
#30 = UNCERTAINTY_MEASURE_WITH_UNIT( LENGTH_MEASURE( 0.00100000000000000 ), #32, '', '' );
#32 =  ( CONVERSION_BASED_UNIT( 'MILLIMETRE', #68 )LENGTH_UNIT(  )NAMED_UNIT( #71 ) );
#33 =  ( NAMED_UNIT( #73 )PLANE_ANGLE_UNIT(  )SI_UNIT( $, .RADIAN. ) );
#34 =  ( NAMED_UNIT( #73 )SI_UNIT( $, .STERADIAN. )SOLID_ANGLE_UNIT(  ) );
#36 = PRESENTATION_STYLE_ASSIGNMENT( ( #79 ) );
#37 = ADVANCED_FACE( '', ( #80 ), #81, .T. );
#38 = PRESENTATION_STYLE_ASSIGNMENT( ( #82 ) );
#39 = ADVANCED_FACE( '', ( #83 ), #84, .T. );
#40 = PRESENTATION_STYLE_ASSIGNMENT( ( #85 ) );
#41 = ADVANCED_FACE( '', ( #86 ), #87, .T. );
#42 = PRESENTATION_STYLE_ASSIGNMENT( ( #88 ) );
#43 = ADVANCED_FACE( '', ( #89, #90 ), #91, .T. );
#44 = PRESENTATION_STYLE_ASSIGNMENT( ( #92 ) );
#45 = ADVANCED_FACE( '', ( #93, #94 ), #95, .T. );
#46 = PRESENTATION_STYLE_ASSIGNMENT( ( #96 ) );
#47 = ADVANCED_FACE( '', ( #97, #98 ), #99, .T. );
#48 = PRESENTATION_STYLE_ASSIGNMENT( ( #100 ) );
#49 = ADVANCED_FACE( '', ( #101, #102 ), #103, .F. );
#50 = PRESENTATION_STYLE_ASSIGNMENT( ( #104 ) );
#51 = ADVANCED_FACE( '', ( #105 ), #106, .F. );
#52 = PRESENTATION_STYLE_ASSIGNMENT( ( #107 ) );
#53 = ADVANCED_FACE( '', ( #108 ), #109, .T. );
#54 = PRESENTATION_STYLE_ASSIGNMENT( ( #110 ) );
#55 = ADVANCED_FACE( '', ( #111 ), #112, .F. );
#56 = PRESENTATION_STYLE_ASSIGNMENT( ( #113 ) );
#57 = ADVANCED_FACE( '', ( #114 ), #115, .T. );
#58 = PRESENTATION_STYLE_ASSIGNMENT( ( #116 ) );
#59 = ADVANCED_FACE( '', ( #117, #118 ), #119, .T. );
#60 = PRESENTATION_STYLE_ASSIGNMENT( ( #120 ) );
#61 = ADVANCED_FACE( '', ( #121 ), #122, .T. );
#62 = PRODUCT( '1', '1', 'PART-1-DESC', ( #123 ) );
#63 = PRODUCT_DEFINITION( 'NONE', 'NONE', #124, #2 );
#64 = MANIFOLD_SOLID_BREP( '1', #125 );
#65 = AXIS2_PLACEMENT_3D( '', #126, #127, #128 );
#68 = LENGTH_MEASURE_WITH_UNIT( LENGTH_MEASURE( 1.00000000000000 ), #129 );
#71 = DIMENSIONAL_EXPONENTS( 1.00000000000000, 0.000000000000000, 0.000000000000000, 0.000000000000000, 0.000000000000000, 0.000000000000000, 0.000000000000000 );
#73 = DIMENSIONAL_EXPONENTS( 0.000000000000000, 0.000000000000000, 0.000000000000000, 0.000000000000000, 0.000000000000000, 0.000000000000000, 0.000000000000000 );
#79 = SURFACE_STYLE_USAGE( .BOTH., #130 );
#80 = FACE_OUTER_BOUND( '', #131, .T. );
#81 = PLANE( '', #132 );
#82 = SURFACE_STYLE_USAGE( .BOTH., #133 );
#83 = FACE_OUTER_BOUND( '', #134, .T. );
#84 = PLANE( '', #135 );
#85 = SURFACE_STYLE_USAGE( .BOTH., #136 );
#86 = FACE_OUTER_BOUND( '', #137, .T. );
#87 = CONICAL_SURFACE( '', #138, 4.00000000000000, 0.785398163397448 );
#88 = SURFACE_STYLE_USAGE( .BOTH., #139 );
#89 = FACE_OUTER_BOUND( '', #140, .T. );
#90 = FACE_OUTER_BOUND( '', #141, .T. );
#91 = CYLINDRICAL_SURFACE( '', #142, 3.25000000000000 );
#92 = SURFACE_STYLE_USAGE( .BOTH., #143 );
#93 = FACE_BOUND( '', #144, .T. );
#94 = FACE_OUTER_BOUND( '', #145, .T. );
#95 = CONICAL_SURFACE( '', #146, 5.00000000000000, 0.785398163397448 );
#96 = SURFACE_STYLE_USAGE( .BOTH., #147 );
#97 = FACE_OUTER_BOUND( '', #148, .T. );
#98 = FACE_OUTER_BOUND( '', #149, .T. );
#99 = CYLINDRICAL_SURFACE( '', #150, 5.00000000000000 );
#100 = SURFACE_STYLE_USAGE( .BOTH., #151 );
#101 = FACE_OUTER_BOUND( '', #152, .T. );
#102 = FACE_BOUND( '', #153, .T. );
#103 = PLANE( '', #154 );
#104 = SURFACE_STYLE_USAGE( .BOTH., #155 );
#105 = FACE_OUTER_BOUND( '', #156, .T. );
#106 = PLANE( '', #157 );
#107 = SURFACE_STYLE_USAGE( .BOTH., #158 );
#108 = FACE_OUTER_BOUND( '', #159, .T. );
#109 = PLANE( '', #160 );
#110 = SURFACE_STYLE_USAGE( .BOTH., #161 );
#111 = FACE_OUTER_BOUND( '', #162, .T. );
#112 = PLANE( '', #163 );
#113 = SURFACE_STYLE_USAGE( .BOTH., #164 );
#114 = FACE_OUTER_BOUND( '', #165, .T. );
#115 = SPHERICAL_SURFACE( '', #166, 2.25000000000000 );
#116 = SURFACE_STYLE_USAGE( .BOTH., #167 );
#117 = FACE_OUTER_BOUND( '', #168, .T. );
#118 = FACE_OUTER_BOUND( '', #169, .T. );
#119 = CYLINDRICAL_SURFACE( '', #170, 2.25000000000000 );
#120 = SURFACE_STYLE_USAGE( .BOTH., #171 );
#121 = FACE_OUTER_BOUND( '', #172, .T. );
#122 = CONICAL_SURFACE( '', #173, 4.00000000000000, 0.785398163397448 );
#123 = PRODUCT_CONTEXT( '', #23, 'mechanical' );
#124 = PRODUCT_DEFINITION_FORMATION_WITH_SPECIFIED_SOURCE( ' ', 'NONE', #62, .NOT_KNOWN. );
#125 = CLOSED_SHELL( '', ( #47, #41, #39, #37, #61, #45, #59, #49, #55, #43, #57, #51, #53 ) );
#126 = CARTESIAN_POINT( '', ( 0.000000000000000, 0.000000000000000, 0.000000000000000 ) );
#127 = DIRECTION( '', ( 0.000000000000000, 0.000000000000000, 1.00000000000000 ) );
#128 = DIRECTION( '', ( 1.00000000000000, 0.000000000000000, 0.000000000000000 ) );
#129 =  ( LENGTH_UNIT(  )NAMED_UNIT( #71 )SI_UNIT( .MILLI., .METRE. ) );
#130 = SURFACE_SIDE_STYLE( '', ( #175 ) );
#131 = EDGE_LOOP( '', ( #176, #177, #178, #179, #180, #181 ) );
#132 = AXIS2_PLACEMENT_3D( '', #182, #183, #184 );
#133 = SURFACE_SIDE_STYLE( '', ( #185 ) );
#134 = EDGE_LOOP( '', ( #186, #187, #188, #189 ) );
#135 = AXIS2_PLACEMENT_3D( '', #190, #191, #192 );
#136 = SURFACE_SIDE_STYLE( '', ( #193 ) );
#137 = EDGE_LOOP( '', ( #194, #195, #196, #197 ) );
#138 = AXIS2_PLACEMENT_3D( '', #198, #199, #200 );
#139 = SURFACE_SIDE_STYLE( '', ( #201 ) );
#140 = EDGE_LOOP( '', ( #202 ) );
#141 = EDGE_LOOP( '', ( #203 ) );
#142 = AXIS2_PLACEMENT_3D( '', #204, #205, #206 );
#143 = SURFACE_SIDE_STYLE( '', ( #207 ) );
#144 = EDGE_LOOP( '', ( #208 ) );
#145 = EDGE_LOOP( '', ( #209 ) );
#146 = AXIS2_PLACEMENT_3D( '', #210, #211, #212 );
#147 = SURFACE_SIDE_STYLE( '', ( #213 ) );
#148 = EDGE_LOOP( '', ( #214 ) );
#149 = EDGE_LOOP( '', ( #215, #216, #217, #218, #219, #220, #221, #222 ) );
#150 = AXIS2_PLACEMENT_3D( '', #223, #224, #225 );
#151 = SURFACE_SIDE_STYLE( '', ( #226 ) );
#152 = EDGE_LOOP( '', ( #227 ) );
#153 = EDGE_LOOP( '', ( #228 ) );
#154 = AXIS2_PLACEMENT_3D( '', #229, #230, #231 );
#155 = SURFACE_SIDE_STYLE( '', ( #232 ) );
#156 = EDGE_LOOP( '', ( #233, #234 ) );
#157 = AXIS2_PLACEMENT_3D( '', #235, #236, #237 );
#158 = SURFACE_SIDE_STYLE( '', ( #238 ) );
#159 = EDGE_LOOP( '', ( #239, #240, #241, #242, #243, #244 ) );
#160 = AXIS2_PLACEMENT_3D( '', #245, #246, #247 );
#161 = SURFACE_SIDE_STYLE( '', ( #248 ) );
#162 = EDGE_LOOP( '', ( #249, #250 ) );
#163 = AXIS2_PLACEMENT_3D( '', #251, #252, #253 );
#164 = SURFACE_SIDE_STYLE( '', ( #254 ) );
#165 = EDGE_LOOP( '', ( #255 ) );
#166 = AXIS2_PLACEMENT_3D( '', #256, #257, #258 );
#167 = SURFACE_SIDE_STYLE( '', ( #259 ) );
#168 = EDGE_LOOP( '', ( #260 ) );
#169 = EDGE_LOOP( '', ( #261 ) );
#170 = AXIS2_PLACEMENT_3D( '', #262, #263, #264 );
#171 = SURFACE_SIDE_STYLE( '', ( #265 ) );
#172 = EDGE_LOOP( '', ( #266, #267, #268, #269 ) );
#173 = AXIS2_PLACEMENT_3D( '', #270, #271, #272 );
#175 = SURFACE_STYLE_FILL_AREA( #273 );
#176 = ORIENTED_EDGE( '', *, *, #274, .T. );
#177 = ORIENTED_EDGE( '', *, *, #275, .T. );
#178 = ORIENTED_EDGE( '', *, *, #276, .T. );
#179 = ORIENTED_EDGE( '', *, *, #277, .F. );
#180 = ORIENTED_EDGE( '', *, *, #278, .T. );
#181 = ORIENTED_EDGE( '', *, *, #279, .T. );
#182 = CARTESIAN_POINT( '', ( 0.750000000000000, -12.5000000000000, 20.2000000000000 ) );
#183 = DIRECTION( '', ( -1.00000000000000, 0.000000000000000, 8.34001671142696E-017 ) );
#184 = DIRECTION( '', ( 8.34001671142696E-017, 0.000000000000000, 1.00000000000000 ) );
#185 = SURFACE_STYLE_FILL_AREA( #280 );
#186 = ORIENTED_EDGE( '', *, *, #281, .T. );
#187 = ORIENTED_EDGE( '', *, *, #282, .F. );
#188 = ORIENTED_EDGE( '', *, *, #283, .T. );
#189 = ORIENTED_EDGE( '', *, *, #277, .T. );
#190 = CARTESIAN_POINT( '', ( -0.750000000000000, -12.5000000000000, 20.2000000000000 ) );
#191 = DIRECTION( '', ( 0.000000000000000, 0.000000000000000, 1.00000000000000 ) );
#192 = DIRECTION( '', ( 1.00000000000000, 0.000000000000000, 0.000000000000000 ) );
#193 = SURFACE_STYLE_FILL_AREA( #284 );
#194 = ORIENTED_EDGE( '', *, *, #285, .F. );
#195 = ORIENTED_EDGE( '', *, *, #286, .F. );
#196 = ORIENTED_EDGE( '', *, *, #287, .F. );
#197 = ORIENTED_EDGE( '', *, *, #288, .F. );
#198 = CARTESIAN_POINT( '', ( -4.42123519416903E-016, 0.000000000000000, 21.5000000000000 ) );
#199 = DIRECTION( '', ( 3.27498903271780E-017, -0.000000000000000, -1.00000000000000 ) );
#200 = DIRECTION( '', ( -1.00000000000000, 0.000000000000000, -3.27498903271780E-017 ) );
#201 = SURFACE_STYLE_FILL_AREA( #289 );
#202 = ORIENTED_EDGE( '', *, *, #290, .T. );
#203 = ORIENTED_EDGE( '', *, *, #291, .T. );
#204 = CARTESIAN_POINT( '', ( -2.61999122617424E-016, 0.000000000000000, 16.0000000000000 ) );
#205 = DIRECTION( '', ( 3.27498903271780E-017, -0.000000000000000, -1.00000000000000 ) );
#206 = DIRECTION( '', ( 1.00000000000000, 0.000000000000000, 3.27498903271780E-017 ) );
#207 = SURFACE_STYLE_FILL_AREA( #292 );
#208 = ORIENTED_EDGE( '', *, *, #290, .F. );
#209 = ORIENTED_EDGE( '', *, *, #293, .F. );
#210 = CARTESIAN_POINT( '', ( 9.82496709815340E-017, 0.000000000000000, 5.00000000000000 ) );
#211 = DIRECTION( '', ( -3.27498903271780E-017, 0.000000000000000, 1.00000000000000 ) );
#212 = DIRECTION( '', ( 1.00000000000000, 0.000000000000000, 3.27498903271780E-017 ) );
#213 = SURFACE_STYLE_FILL_AREA( #294 );
#214 = ORIENTED_EDGE( '', *, *, #293, .T. );
#215 = ORIENTED_EDGE( '', *, *, #276, .F. );
#216 = ORIENTED_EDGE( '', *, *, #295, .T. );
#217 = ORIENTED_EDGE( '', *, *, #278, .F. );
#218 = ORIENTED_EDGE( '', *, *, #283, .F. );
#219 = ORIENTED_EDGE( '', *, *, #296, .F. );
#220 = ORIENTED_EDGE( '', *, *, #286, .T. );
#221 = ORIENTED_EDGE( '', *, *, #297, .F. );
#222 = ORIENTED_EDGE( '', *, *, #281, .F. );
#223 = CARTESIAN_POINT( '', ( -2.61999122617424E-016, 0.000000000000000, 16.0000000000000 ) );
#224 = DIRECTION( '', ( 3.27498903271780E-017, -0.000000000000000, -1.00000000000000 ) );
#225 = DIRECTION( '', ( 1.00000000000000, 0.000000000000000, 3.27498903271780E-017 ) );
#226 = SURFACE_STYLE_FILL_AREA( #298 );
#227 = ORIENTED_EDGE( '', *, *, #291, .F. );
#228 = ORIENTED_EDGE( '', *, *, #299, .T. );
#229 = CARTESIAN_POINT( '', ( 2.25000000000000, 0.000000000000000, 2.50000000000000 ) );
#230 = DIRECTION( '', ( -3.27498903271780E-017, 0.000000000000000, 1.00000000000000 ) );
#231 = DIRECTION( '', ( 1.00000000000000, 0.000000000000000, 3.27498903271780E-017 ) );
#232 = SURFACE_STYLE_FILL_AREA( #300 );
#233 = ORIENTED_EDGE( '', *, *, #301, .T. );
#234 = ORIENTED_EDGE( '', *, *, #288, .T. );
#235 = CARTESIAN_POINT( '', ( 5.00000000000000, 0.000000000000000, 21.5000000000000 ) );
#236 = DIRECTION( '', ( 3.27498903271780E-017, 0.000000000000000, -1.00000000000000 ) );
#237 = DIRECTION( '', ( -1.00000000000000, 0.000000000000000, -3.27498903271780E-017 ) );
#238 = SURFACE_STYLE_FILL_AREA( #302 );
#239 = ORIENTED_EDGE( '', *, *, #301, .F. );
#240 = ORIENTED_EDGE( '', *, *, #287, .T. );
#241 = ORIENTED_EDGE( '', *, *, #296, .T. );
#242 = ORIENTED_EDGE( '', *, *, #282, .T. );
#243 = ORIENTED_EDGE( '', *, *, #297, .T. );
#244 = ORIENTED_EDGE( '', *, *, #285, .T. );
#245 = CARTESIAN_POINT( '', ( -0.750000000000000, -12.5000000000000, 21.5000000000000 ) );
#246 = DIRECTION( '', ( 1.00000000000000, 0.000000000000000, 8.34001671142696E-017 ) );
#247 = DIRECTION( '', ( 8.34001671142696E-017, 0.000000000000000, -1.00000000000000 ) );
#248 = SURFACE_STYLE_FILL_AREA( #303 );
#249 = ORIENTED_EDGE( '', *, *, #274, .F. );
#250 = ORIENTED_EDGE( '', *, *, #304, .T. );
#251 = CARTESIAN_POINT( '', ( 5.00000000000000, 0.000000000000000, 21.5000000000000 ) );
#252 = DIRECTION( '', ( 3.27498903271780E-017, 0.000000000000000, -1.00000000000000 ) );
#253 = DIRECTION( '', ( -1.00000000000000, 0.000000000000000, -3.27498903271780E-017 ) );
#254 = SURFACE_STYLE_FILL_AREA( #305 );
#255 = ORIENTED_EDGE( '', *, *, #306, .F. );
#256 = CARTESIAN_POINT( '', ( 2.35744508835865E-015, 0.000000000000000, 2.25000000000000 ) );
#257 = DIRECTION( '', ( -3.27498903271780E-017, 0.000000000000000, 1.00000000000000 ) );
#258 = DIRECTION( '', ( -1.00000000000000, 0.000000000000000, -3.27498903271780E-017 ) );
#259 = SURFACE_STYLE_FILL_AREA( #307 );
#260 = ORIENTED_EDGE( '', *, *, #299, .F. );
#261 = ORIENTED_EDGE( '', *, *, #306, .T. );
#262 = CARTESIAN_POINT( '', ( -2.61999122617424E-016, 0.000000000000000, 16.0000000000000 ) );
#263 = DIRECTION( '', ( 3.27498903271780E-017, -0.000000000000000, -1.00000000000000 ) );
#264 = DIRECTION( '', ( 1.00000000000000, 0.000000000000000, 3.27498903271780E-017 ) );
#265 = SURFACE_STYLE_FILL_AREA( #308 );
#266 = ORIENTED_EDGE( '', *, *, #279, .F. );
#267 = ORIENTED_EDGE( '', *, *, #295, .F. );
#268 = ORIENTED_EDGE( '', *, *, #275, .F. );
#269 = ORIENTED_EDGE( '', *, *, #304, .F. );
#270 = CARTESIAN_POINT( '', ( -4.42123519416903E-016, 0.000000000000000, 21.5000000000000 ) );
#271 = DIRECTION( '', ( 3.27498903271780E-017, -0.000000000000000, -1.00000000000000 ) );
#272 = DIRECTION( '', ( -1.00000000000000, 0.000000000000000, -3.27498903271780E-017 ) );
#273 = FILL_AREA_STYLE( '', ( #309 ) );
#274 = EDGE_CURVE( '', #310, #311, #312, .T. );
#275 = EDGE_CURVE( '', #311, #313, #314, .T. );
#276 = EDGE_CURVE( '', #313, #315, #316, .F. );
#277 = EDGE_CURVE( '', #317, #315, #318, .T. );
#278 = EDGE_CURVE( '', #317, #319, #320, .T. );
#279 = EDGE_CURVE( '', #319, #310, #321, .T. );
#280 = FILL_AREA_STYLE( '', ( #322 ) );
#281 = EDGE_CURVE( '', #315, #323, #324, .T. );
#282 = EDGE_CURVE( '', #325, #323, #326, .T. );
#283 = EDGE_CURVE( '', #325, #317, #327, .T. );
#284 = FILL_AREA_STYLE( '', ( #328 ) );
#285 = EDGE_CURVE( '', #329, #330, #331, .T. );
#286 = EDGE_CURVE( '', #332, #329, #333, .T. );
#287 = EDGE_CURVE( '', #334, #332, #335, .T. );
#288 = EDGE_CURVE( '', #330, #334, #336, .F. );
#289 = FILL_AREA_STYLE( '', ( #337 ) );
#290 = EDGE_CURVE( '', #338, #338, #339, .F. );
#291 = EDGE_CURVE( '', #340, #340, #341, .T. );
#292 = FILL_AREA_STYLE( '', ( #342 ) );
#293 = EDGE_CURVE( '', #343, #343, #344, .T. );
#294 = FILL_AREA_STYLE( '', ( #345 ) );
#295 = EDGE_CURVE( '', #313, #319, #346, .T. );
#296 = EDGE_CURVE( '', #332, #325, #347, .F. );
#297 = EDGE_CURVE( '', #323, #329, #348, .T. );
#298 = FILL_AREA_STYLE( '', ( #349 ) );
#299 = EDGE_CURVE( '', #350, #350, #351, .T. );
#300 = FILL_AREA_STYLE( '', ( #352 ) );
#301 = EDGE_CURVE( '', #334, #330, #353, .T. );
#302 = FILL_AREA_STYLE( '', ( #354 ) );
#303 = FILL_AREA_STYLE( '', ( #355 ) );
#304 = EDGE_CURVE( '', #310, #311, #356, .F. );
#305 = FILL_AREA_STYLE( '', ( #357 ) );
#306 = EDGE_CURVE( '', #358, #358, #359, .T. );
#307 = FILL_AREA_STYLE( '', ( #360 ) );
#308 = FILL_AREA_STYLE( '', ( #361 ) );
#309 = FILL_AREA_STYLE_COLOUR( '', #362 );
#310 = VERTEX_POINT( '', #363 );
#311 = VERTEX_POINT( '', #364 );
#312 = LINE( '', #365, #366 );
#313 = VERTEX_POINT( '', #367 );
#314 = B_SPLINE_CURVE_WITH_KNOTS( '', 3, ( #368, #369, #370, #371 ), .UNSPECIFIED., .F., .F., ( 4, 4 ), ( 0.000000000000000, 0.00142441204922309 ), .UNSPECIFIED. );
#315 = VERTEX_POINT( '', #372 );
#316 = LINE( '', #373, #374 );
#317 = VERTEX_POINT( '', #375 );
#318 = LINE( '', #376, #377 );
#319 = VERTEX_POINT( '', #378 );
#320 = LINE( '', #379, #380 );
#321 = B_SPLINE_CURVE_WITH_KNOTS( '', 3, ( #381, #382, #383, #384 ), .UNSPECIFIED., .F., .F., ( 4, 4 ), ( 0.000000000000000, 0.00142441204922309 ), .UNSPECIFIED. );
#322 = FILL_AREA_STYLE_COLOUR( '', #385 );
#323 = VERTEX_POINT( '', #386 );
#324 = CIRCLE( '', #387, 5.00000000000000 );
#325 = VERTEX_POINT( '', #388 );
#326 = LINE( '', #389, #390 );
#327 = CIRCLE( '', #391, 5.00000000000000 );
#328 = FILL_AREA_STYLE_COLOUR( '', #392 );
#329 = VERTEX_POINT( '', #393 );
#330 = VERTEX_POINT( '', #394 );
#331 = B_SPLINE_CURVE_WITH_KNOTS( '', 3, ( #395, #396, #397, #398 ), .UNSPECIFIED., .F., .F., ( 4, 4 ), ( 0.000000000000000, 0.00142441204922309 ), .UNSPECIFIED. );
#332 = VERTEX_POINT( '', #399 );
#333 = CIRCLE( '', #400, 5.00000000000000 );
#334 = VERTEX_POINT( '', #401 );
#335 = B_SPLINE_CURVE_WITH_KNOTS( '', 3, ( #402, #403, #404, #405 ), .UNSPECIFIED., .F., .F., ( 4, 4 ), ( 0.000000000000000, 0.00142441204922309 ), .UNSPECIFIED. );
#336 = CIRCLE( '', #406, 4.00000000000000 );
#337 = FILL_AREA_STYLE_COLOUR( '', #407 );
#338 = VERTEX_POINT( '', #408 );
#339 = CIRCLE( '', #409, 3.25000000000000 );
#340 = VERTEX_POINT( '', #410 );
#341 = CIRCLE( '', #411, 3.25000000000000 );
#342 = FILL_AREA_STYLE_COLOUR( '', #412 );
#343 = VERTEX_POINT( '', #413 );
#344 = CIRCLE( '', #414, 5.00000000000000 );
#345 = FILL_AREA_STYLE_COLOUR( '', #415 );
#346 = CIRCLE( '', #416, 5.00000000000000 );
#347 = LINE( '', #417, #418 );
#348 = LINE( '', #419, #420 );
#349 = FILL_AREA_STYLE_COLOUR( '', #421 );
#350 = VERTEX_POINT( '', #422 );
#351 = CIRCLE( '', #423, 2.25000000000000 );
#352 = FILL_AREA_STYLE_COLOUR( '', #424 );
#353 = LINE( '', #425, #426 );
#354 = FILL_AREA_STYLE_COLOUR( '', #427 );
#355 = FILL_AREA_STYLE_COLOUR( '', #428 );
#356 = CIRCLE( '', #429, 4.00000000000000 );
#357 = FILL_AREA_STYLE_COLOUR( '', #430 );
#358 = VERTEX_POINT( '', #431 );
#359 = CIRCLE( '', #432, 2.25000000000000 );
#360 = FILL_AREA_STYLE_COLOUR( '', #433 );
#361 = FILL_AREA_STYLE_COLOUR( '', #434 );
#362 = COLOUR_RGB( '', 0.200000002980232, 0.200000002980232, 0.200000002980232 );
#363 = CARTESIAN_POINT( '', ( 0.750000000000000, -3.92905841137543, 21.5000000000000 ) );
#364 = CARTESIAN_POINT( '', ( 0.750000000000000, 3.92905841137543, 21.5000000000000 ) );
#365 = CARTESIAN_POINT( '', ( 0.750000000000000, -12.5000000000000, 21.5000000000000 ) );
#366 = VECTOR( '', #435, 1000.00000000000 );
#367 = CARTESIAN_POINT( '', ( 0.750000000000000, 4.94342998332130, 20.5000000000000 ) );
#368 = CARTESIAN_POINT( '', ( 0.750000000000000, 3.92905841137543, 21.5000000000000 ) );
#369 = CARTESIAN_POINT( '', ( 0.750000000000000, 4.26778584692331, 21.1672800300492 ) );
#370 = CARTESIAN_POINT( '', ( 0.750000000000000, 4.60578823690384, 20.8338216665722 ) );
#371 = CARTESIAN_POINT( '', ( 0.750000000000000, 4.94342998332130, 20.5000000000000 ) );
#372 = CARTESIAN_POINT( '', ( 0.750000000000000, 4.94342998332130, 20.2000000000000 ) );
#373 = CARTESIAN_POINT( '', ( 0.750000000000000, 4.94342998332130, 16.0000000000000 ) );
#374 = VECTOR( '', #436, 1000.00000000000 );
#375 = CARTESIAN_POINT( '', ( 0.750000000000000, -4.94342998332130, 20.2000000000000 ) );
#376 = CARTESIAN_POINT( '', ( 0.750000000000000, -12.5000000000000, 20.2000000000000 ) );
#377 = VECTOR( '', #437, 1000.00000000000 );
#378 = CARTESIAN_POINT( '', ( 0.750000000000000, -4.94342998332130, 20.5000000000000 ) );
#379 = CARTESIAN_POINT( '', ( 0.750000000000000, -4.94342998332130, 16.0000000000000 ) );
#380 = VECTOR( '', #438, 1000.00000000000 );
#381 = CARTESIAN_POINT( '', ( 0.750000000000000, -4.94342998332130, 20.5000000000000 ) );
#382 = CARTESIAN_POINT( '', ( 0.750000000000000, -4.60578823690384, 20.8338216665722 ) );
#383 = CARTESIAN_POINT( '', ( 0.750000000000000, -4.26778584692331, 21.1672800300492 ) );
#384 = CARTESIAN_POINT( '', ( 0.750000000000000, -3.92905841137543, 21.5000000000000 ) );
#385 = COLOUR_RGB( '', 0.200000002980232, 0.200000002980232, 0.200000002980232 );
#386 = CARTESIAN_POINT( '', ( -0.750000000000000, 4.94342998332130, 20.2000000000000 ) );
#387 = AXIS2_PLACEMENT_3D( '', #439, #440, #441 );
#388 = CARTESIAN_POINT( '', ( -0.750000000000000, -4.94342998332130, 20.2000000000000 ) );
#389 = CARTESIAN_POINT( '', ( -0.750000000000000, -12.5000000000000, 20.2000000000000 ) );
#390 = VECTOR( '', #442, 1000.00000000000 );
#391 = AXIS2_PLACEMENT_3D( '', #443, #444, #445 );
#392 = COLOUR_RGB( '', 0.200000002980232, 0.200000002980232, 0.200000002980232 );
#393 = CARTESIAN_POINT( '', ( -0.750000000000000, 4.94342998332130, 20.5000000000000 ) );
#394 = CARTESIAN_POINT( '', ( -0.750000000000000, 3.92905841137543, 21.5000000000000 ) );
#395 = CARTESIAN_POINT( '', ( -0.750000000000000, 4.94342998332130, 20.5000000000000 ) );
#396 = CARTESIAN_POINT( '', ( -0.750000000000000, 4.60578823690384, 20.8338216665722 ) );
#397 = CARTESIAN_POINT( '', ( -0.750000000000000, 4.26778584692331, 21.1672800300492 ) );
#398 = CARTESIAN_POINT( '', ( -0.750000000000000, 3.92905841137543, 21.5000000000000 ) );
#399 = CARTESIAN_POINT( '', ( -0.750000000000000, -4.94342998332130, 20.5000000000000 ) );
#400 = AXIS2_PLACEMENT_3D( '', #446, #447, #448 );
#401 = CARTESIAN_POINT( '', ( -0.750000000000000, -3.92905841137543, 21.5000000000000 ) );
#402 = CARTESIAN_POINT( '', ( -0.750000000000000, -3.92905841137543, 21.5000000000000 ) );
#403 = CARTESIAN_POINT( '', ( -0.750000000000000, -4.26778584692331, 21.1672800300492 ) );
#404 = CARTESIAN_POINT( '', ( -0.750000000000000, -4.60578823690384, 20.8338216665722 ) );
#405 = CARTESIAN_POINT( '', ( -0.750000000000000, -4.94342998332130, 20.5000000000000 ) );
#406 = AXIS2_PLACEMENT_3D( '', #449, #450, #451 );
#407 = COLOUR_RGB( '', 0.200000002980232, 0.200000002980232, 0.200000002980232 );
#408 = CARTESIAN_POINT( '', ( 3.25000000000000, 0.000000000000000, 3.25000000000000 ) );
#409 = AXIS2_PLACEMENT_3D( '', #452, #453, #454 );
#410 = CARTESIAN_POINT( '', ( 3.25000000000000, 0.000000000000000, 2.50000000000000 ) );
#411 = AXIS2_PLACEMENT_3D( '', #455, #456, #457 );
#412 = COLOUR_RGB( '', 0.200000002980232, 0.200000002980232, 0.200000002980232 );
#413 = CARTESIAN_POINT( '', ( 5.00000000000000, 0.000000000000000, 5.00000000000000 ) );
#414 = AXIS2_PLACEMENT_3D( '', #458, #459, #460 );
#415 = COLOUR_RGB( '', 0.752941191196442, 0.752941191196442, 0.752941191196442 );
#416 = AXIS2_PLACEMENT_3D( '', #461, #462, #463 );
#417 = CARTESIAN_POINT( '', ( -0.750000000000000, -4.94342998332130, 16.0000000000000 ) );
#418 = VECTOR( '', #464, 1000.00000000000 );
#419 = CARTESIAN_POINT( '', ( -0.750000000000000, 4.94342998332130, 16.0000000000000 ) );
#420 = VECTOR( '', #465, 1000.00000000000 );
#421 = COLOUR_RGB( '', 0.200000002980232, 0.200000002980232, 0.200000002980232 );
#422 = CARTESIAN_POINT( '', ( 2.25000000000000, 0.000000000000000, 2.50000000000000 ) );
#423 = AXIS2_PLACEMENT_3D( '', #466, #467, #468 );
#424 = COLOUR_RGB( '', 0.200000002980232, 0.200000002980232, 0.200000002980232 );
#425 = CARTESIAN_POINT( '', ( -0.750000000000000, -12.5000000000000, 21.5000000000000 ) );
#426 = VECTOR( '', #469, 1000.00000000000 );
#427 = COLOUR_RGB( '', 0.200000002980232, 0.200000002980232, 0.200000002980232 );
#428 = COLOUR_RGB( '', 0.200000002980232, 0.200000002980232, 0.200000002980232 );
#429 = AXIS2_PLACEMENT_3D( '', #470, #471, #472 );
#430 = COLOUR_RGB( '', 0.200000002980232, 0.200000002980232, 0.200000002980232 );
#431 = CARTESIAN_POINT( '', ( 2.25000000000000, 0.000000000000000, 2.25000000000000 ) );
#432 = AXIS2_PLACEMENT_3D( '', #473, #474, #475 );
#433 = COLOUR_RGB( '', 0.200000002980232, 0.200000002980232, 0.200000002980232 );
#434 = COLOUR_RGB( '', 0.200000002980232, 0.200000002980232, 0.200000002980232 );
#435 = DIRECTION( '', ( 0.000000000000000, 1.00000000000000, 0.000000000000000 ) );
#436 = DIRECTION( '', ( -3.27498903271780E-017, 0.000000000000000, 1.00000000000000 ) );
#437 = DIRECTION( '', ( 0.000000000000000, 1.00000000000000, 0.000000000000000 ) );
#438 = DIRECTION( '', ( -3.27498903271780E-017, 0.000000000000000, 1.00000000000000 ) );
#439 = CARTESIAN_POINT( '', ( -3.99548661991571E-016, 0.000000000000000, 20.2000000000000 ) );
#440 = DIRECTION( '', ( 0.000000000000000, 0.000000000000000, 1.00000000000000 ) );
#441 = DIRECTION( '', ( 1.00000000000000, 0.000000000000000, 0.000000000000000 ) );
#442 = DIRECTION( '', ( 0.000000000000000, 1.00000000000000, 0.000000000000000 ) );
#443 = CARTESIAN_POINT( '', ( -3.99548661991571E-016, 0.000000000000000, 20.2000000000000 ) );
#444 = DIRECTION( '', ( 0.000000000000000, 0.000000000000000, 1.00000000000000 ) );
#445 = DIRECTION( '', ( 1.00000000000000, 0.000000000000000, 0.000000000000000 ) );
#446 = CARTESIAN_POINT( '', ( -4.09373629089725E-016, 0.000000000000000, 20.5000000000000 ) );
#447 = DIRECTION( '', ( 3.27498903271780E-017, 0.000000000000000, -1.00000000000000 ) );
#448 = DIRECTION( '', ( -1.00000000000000, 0.000000000000000, -3.27498903271780E-017 ) );
#449 = CARTESIAN_POINT( '', ( -4.42123519416903E-016, 0.000000000000000, 21.5000000000000 ) );
#450 = DIRECTION( '', ( 3.27498903271780E-017, 0.000000000000000, -1.00000000000000 ) );
#451 = DIRECTION( '', ( -1.00000000000000, 0.000000000000000, -3.27498903271780E-017 ) );
#452 = CARTESIAN_POINT( '', ( 1.55561979054096E-016, 0.000000000000000, 3.25000000000000 ) );
#453 = DIRECTION( '', ( -3.27498903271780E-017, 0.000000000000000, 1.00000000000000 ) );
#454 = DIRECTION( '', ( 1.00000000000000, 0.000000000000000, 3.27498903271780E-017 ) );
#455 = CARTESIAN_POINT( '', ( 1.80124396799479E-016, 0.000000000000000, 2.50000000000000 ) );
#456 = DIRECTION( '', ( -3.27498903271780E-017, 0.000000000000000, 1.00000000000000 ) );
#457 = DIRECTION( '', ( 1.00000000000000, 0.000000000000000, 3.27498903271780E-017 ) );
#458 = CARTESIAN_POINT( '', ( 9.82496709815340E-017, 0.000000000000000, 5.00000000000000 ) );
#459 = DIRECTION( '', ( -3.27498903271780E-017, 0.000000000000000, 1.00000000000000 ) );
#460 = DIRECTION( '', ( 1.00000000000000, 0.000000000000000, 3.27498903271780E-017 ) );
#461 = CARTESIAN_POINT( '', ( -4.09373629089725E-016, 0.000000000000000, 20.5000000000000 ) );
#462 = DIRECTION( '', ( 3.27498903271780E-017, 0.000000000000000, -1.00000000000000 ) );
#463 = DIRECTION( '', ( -1.00000000000000, 0.000000000000000, -3.27498903271780E-017 ) );
#464 = DIRECTION( '', ( -3.27498903271780E-017, 0.000000000000000, 1.00000000000000 ) );
#465 = DIRECTION( '', ( -3.27498903271780E-017, 0.000000000000000, 1.00000000000000 ) );
#466 = CARTESIAN_POINT( '', ( 1.80124396799479E-016, 0.000000000000000, 2.50000000000000 ) );
#467 = DIRECTION( '', ( -3.27498903271780E-017, 0.000000000000000, 1.00000000000000 ) );
#468 = DIRECTION( '', ( 1.00000000000000, 0.000000000000000, 3.27498903271780E-017 ) );
#469 = DIRECTION( '', ( 0.000000000000000, 1.00000000000000, 0.000000000000000 ) );
#470 = CARTESIAN_POINT( '', ( -4.42123519416903E-016, 0.000000000000000, 21.5000000000000 ) );
#471 = DIRECTION( '', ( 3.27498903271780E-017, 0.000000000000000, -1.00000000000000 ) );
#472 = DIRECTION( '', ( -1.00000000000000, 0.000000000000000, -3.27498903271780E-017 ) );
#473 = CARTESIAN_POINT( '', ( 1.88311869381274E-016, 0.000000000000000, 2.25000000000000 ) );
#474 = DIRECTION( '', ( -3.27498903271780E-017, 0.000000000000000, 1.00000000000000 ) );
#475 = DIRECTION( '', ( 1.00000000000000, 0.000000000000000, 3.27498903271780E-017 ) );
ENDSEC;
END-ISO-10303-21;
