ISO-10303-21;
HEADER;
FILE_DESCRIPTION( ( 'Unknown' ), '1' );
FILE_NAME( '//SBS2003/HD_Usb/Disegni/08_LIB/Users_3D/PROD_GAMM_3D/APP-A/7747336_APP_24_AR.stp', 'Unknown', ( 'Unknown' ), ( 'Unknown' ), 'PSStep 14.0', 'Unknown', '  ' );
FILE_SCHEMA( ( 'AUTOMOTIVE_DESIGN { 1 0 10303 214 1 1 1 1 }' ) );
ENDSEC;
DATA;
#1 = MECHANICAL_DESIGN_GEOMETRIC_PRESENTATION_REPRESENTATION( ' ', ( #10, #11, #12, #13, #14, #15, #16, #17, #18, #19, #20, #21, #22, #23 ), #6 );
#2 = PRODUCT_DEFINITION_CONTEXT( '', #24, 'design' );
#3 = APPLICATION_PROTOCOL_DEFINITION( 'international standard', 'automotive_design', 2001, #24 );
#4 = PRODUCT_CATEGORY_RELATIONSHIP( 'NONE', 'NONE', #25, #26 );
#5 = SHAPE_DEFINITION_REPRESENTATION( #27, #28 );
#6 =  ( GEOMETRIC_REPRESENTATION_CONTEXT( 3 )GLOBAL_UNCERTAINTY_ASSIGNED_CONTEXT( ( #31 ) )GLOBAL_UNIT_ASSIGNED_CONTEXT( ( #33, #34, #35 ) )REPRESENTATION_CONTEXT( 'NONE', 'WORKSPACE' ) );
#10 = STYLED_ITEM( '', ( #37 ), #38 );
#11 = STYLED_ITEM( '', ( #39 ), #40 );
#12 = STYLED_ITEM( '', ( #41 ), #42 );
#13 = STYLED_ITEM( '', ( #43 ), #44 );
#14 = STYLED_ITEM( '', ( #45 ), #46 );
#15 = STYLED_ITEM( '', ( #47 ), #48 );
#16 = STYLED_ITEM( '', ( #49 ), #50 );
#17 = STYLED_ITEM( '', ( #51 ), #52 );
#18 = STYLED_ITEM( '', ( #53 ), #54 );
#19 = STYLED_ITEM( '', ( #55 ), #56 );
#20 = STYLED_ITEM( '', ( #57 ), #58 );
#21 = STYLED_ITEM( '', ( #59 ), #60 );
#22 = STYLED_ITEM( '', ( #61 ), #62 );
#23 = STYLED_ITEM( '', ( #63 ), #64 );
#24 = APPLICATION_CONTEXT( 'core data for automotive mechanical design processes' );
#25 = PRODUCT_CATEGORY( 'part', 'NONE' );
#26 = PRODUCT_RELATED_PRODUCT_CATEGORY( 'detail', ' ', ( #65 ) );
#27 = PRODUCT_DEFINITION_SHAPE( 'NONE', 'NONE', #66 );
#28 = ADVANCED_BREP_SHAPE_REPRESENTATION( '1', ( #67, #68 ), #6 );
#31 = UNCERTAINTY_MEASURE_WITH_UNIT( LENGTH_MEASURE( 0.00100000000000000 ), #33, '', '' );
#33 =  ( CONVERSION_BASED_UNIT( 'MILLIMETRE', #71 )LENGTH_UNIT(  )NAMED_UNIT( #74 ) );
#34 =  ( NAMED_UNIT( #76 )PLANE_ANGLE_UNIT(  )SI_UNIT( $, .RADIAN. ) );
#35 =  ( NAMED_UNIT( #76 )SI_UNIT( $, .STERADIAN. )SOLID_ANGLE_UNIT(  ) );
#37 = PRESENTATION_STYLE_ASSIGNMENT( ( #82 ) );
#38 = ADVANCED_FACE( '', ( #83 ), #84, .T. );
#39 = PRESENTATION_STYLE_ASSIGNMENT( ( #85 ) );
#40 = ADVANCED_FACE( '', ( #86 ), #87, .T. );
#41 = PRESENTATION_STYLE_ASSIGNMENT( ( #88 ) );
#42 = ADVANCED_FACE( '', ( #89 ), #90, .T. );
#43 = PRESENTATION_STYLE_ASSIGNMENT( ( #91 ) );
#44 = ADVANCED_FACE( '', ( #92, #93 ), #94, .T. );
#45 = PRESENTATION_STYLE_ASSIGNMENT( ( #95 ) );
#46 = ADVANCED_FACE( '', ( #96 ), #97, .F. );
#47 = PRESENTATION_STYLE_ASSIGNMENT( ( #98 ) );
#48 = ADVANCED_FACE( '', ( #99 ), #100, .T. );
#49 = PRESENTATION_STYLE_ASSIGNMENT( ( #101 ) );
#50 = ADVANCED_FACE( '', ( #102, #103 ), #104, .T. );
#51 = PRESENTATION_STYLE_ASSIGNMENT( ( #105 ) );
#52 = ADVANCED_FACE( '', ( #106 ), #107, .T. );
#53 = PRESENTATION_STYLE_ASSIGNMENT( ( #108 ) );
#54 = ADVANCED_FACE( '', ( #109, #110 ), #111, .T. );
#55 = PRESENTATION_STYLE_ASSIGNMENT( ( #112 ) );
#56 = ADVANCED_FACE( '', ( #113, #114 ), #115, .F. );
#57 = PRESENTATION_STYLE_ASSIGNMENT( ( #116 ) );
#58 = ADVANCED_FACE( '', ( #117 ), #118, .T. );
#59 = PRESENTATION_STYLE_ASSIGNMENT( ( #119 ) );
#60 = ADVANCED_FACE( '', ( #120 ), #121, .F. );
#61 = PRESENTATION_STYLE_ASSIGNMENT( ( #122 ) );
#62 = ADVANCED_FACE( '', ( #123, #124 ), #125, .T. );
#63 = PRESENTATION_STYLE_ASSIGNMENT( ( #126 ) );
#64 = ADVANCED_FACE( '', ( #127, #128 ), #129, .F. );
#65 = PRODUCT( '1', '1', 'PART-1-DESC', ( #130 ) );
#66 = PRODUCT_DEFINITION( 'NONE', 'NONE', #131, #2 );
#67 = MANIFOLD_SOLID_BREP( '1', #132 );
#68 = AXIS2_PLACEMENT_3D( '', #133, #134, #135 );
#71 = LENGTH_MEASURE_WITH_UNIT( LENGTH_MEASURE( 1.00000000000000 ), #136 );
#74 = DIMENSIONAL_EXPONENTS( 1.00000000000000, 0.000000000000000, 0.000000000000000, 0.000000000000000, 0.000000000000000, 0.000000000000000, 0.000000000000000 );
#76 = DIMENSIONAL_EXPONENTS( 0.000000000000000, 0.000000000000000, 0.000000000000000, 0.000000000000000, 0.000000000000000, 0.000000000000000, 0.000000000000000 );
#82 = SURFACE_STYLE_USAGE( .BOTH., #137 );
#83 = FACE_OUTER_BOUND( '', #138, .T. );
#84 = PLANE( '', #139 );
#85 = SURFACE_STYLE_USAGE( .BOTH., #140 );
#86 = FACE_OUTER_BOUND( '', #141, .T. );
#87 = SPHERICAL_SURFACE( '', #142, 4.25000000000000 );
#88 = SURFACE_STYLE_USAGE( .BOTH., #143 );
#89 = FACE_OUTER_BOUND( '', #144, .T. );
#90 = CONICAL_SURFACE( '', #145, 6.50000000000000, 0.785398163397448 );
#91 = SURFACE_STYLE_USAGE( .BOTH., #146 );
#92 = FACE_OUTER_BOUND( '', #147, .T. );
#93 = FACE_OUTER_BOUND( '', #148, .T. );
#94 = CYLINDRICAL_SURFACE( '', #149, 8.00000000000000 );
#95 = SURFACE_STYLE_USAGE( .BOTH., #150 );
#96 = FACE_OUTER_BOUND( '', #151, .T. );
#97 = PLANE( '', #152 );
#98 = SURFACE_STYLE_USAGE( .BOTH., #153 );
#99 = FACE_OUTER_BOUND( '', #154, .T. );
#100 = PLANE( '', #155 );
#101 = SURFACE_STYLE_USAGE( .BOTH., #156 );
#102 = FACE_BOUND( '', #157, .T. );
#103 = FACE_OUTER_BOUND( '', #158, .T. );
#104 = CONICAL_SURFACE( '', #159, 8.00000000000000, 0.785398163397449 );
#105 = SURFACE_STYLE_USAGE( .BOTH., #160 );
#106 = FACE_OUTER_BOUND( '', #161, .T. );
#107 = CONICAL_SURFACE( '', #162, 6.50000000000000, 0.785398163397448 );
#108 = SURFACE_STYLE_USAGE( .BOTH., #163 );
#109 = FACE_OUTER_BOUND( '', #164, .T. );
#110 = FACE_OUTER_BOUND( '', #165, .T. );
#111 = CYLINDRICAL_SURFACE( '', #166, 4.25000000000000 );
#112 = SURFACE_STYLE_USAGE( .BOTH., #167 );
#113 = FACE_OUTER_BOUND( '', #168, .T. );
#114 = FACE_BOUND( '', #169, .T. );
#115 = PLANE( '', #170 );
#116 = SURFACE_STYLE_USAGE( .BOTH., #171 );
#117 = FACE_OUTER_BOUND( '', #172, .T. );
#118 = PLANE( '', #173 );
#119 = SURFACE_STYLE_USAGE( .BOTH., #174 );
#120 = FACE_OUTER_BOUND( '', #175, .T. );
#121 = PLANE( '', #176 );
#122 = SURFACE_STYLE_USAGE( .BOTH., #177 );
#123 = FACE_OUTER_BOUND( '', #178, .T. );
#124 = FACE_OUTER_BOUND( '', #179, .T. );
#125 = CYLINDRICAL_SURFACE( '', #180, 5.25000000000000 );
#126 = SURFACE_STYLE_USAGE( .BOTH., #181 );
#127 = FACE_OUTER_BOUND( '', #182, .T. );
#128 = FACE_BOUND( '', #183, .T. );
#129 = PLANE( '', #184 );
#130 = PRODUCT_CONTEXT( '', #24, 'mechanical' );
#131 = PRODUCT_DEFINITION_FORMATION_WITH_SPECIFIED_SOURCE( ' ', 'NONE', #65, .NOT_KNOWN. );
#132 = CLOSED_SHELL( '', ( #44, #52, #38, #58, #42, #50, #54, #56, #60, #62, #64, #40, #46, #48 ) );
#133 = CARTESIAN_POINT( '', ( 0.000000000000000, 0.000000000000000, 0.000000000000000 ) );
#134 = DIRECTION( '', ( 0.000000000000000, 0.000000000000000, 1.00000000000000 ) );
#135 = DIRECTION( '', ( 1.00000000000000, 0.000000000000000, 0.000000000000000 ) );
#136 =  ( LENGTH_UNIT(  )NAMED_UNIT( #74 )SI_UNIT( .MILLI., .METRE. ) );
#137 = SURFACE_SIDE_STYLE( '', ( #186 ) );
#138 = EDGE_LOOP( '', ( #187, #188, #189, #190 ) );
#139 = AXIS2_PLACEMENT_3D( '', #191, #192, #193 );
#140 = SURFACE_SIDE_STYLE( '', ( #194 ) );
#141 = EDGE_LOOP( '', ( #195 ) );
#142 = AXIS2_PLACEMENT_3D( '', #196, #197, #198 );
#143 = SURFACE_SIDE_STYLE( '', ( #199 ) );
#144 = EDGE_LOOP( '', ( #200, #201, #202, #203 ) );
#145 = AXIS2_PLACEMENT_3D( '', #204, #205, #206 );
#146 = SURFACE_SIDE_STYLE( '', ( #207 ) );
#147 = EDGE_LOOP( '', ( #208 ) );
#148 = EDGE_LOOP( '', ( #209, #210, #211, #212, #213, #214, #215, #216 ) );
#149 = AXIS2_PLACEMENT_3D( '', #217, #218, #219 );
#150 = SURFACE_SIDE_STYLE( '', ( #220 ) );
#151 = EDGE_LOOP( '', ( #221, #222 ) );
#152 = AXIS2_PLACEMENT_3D( '', #223, #224, #225 );
#153 = SURFACE_SIDE_STYLE( '', ( #226 ) );
#154 = EDGE_LOOP( '', ( #227, #228, #229, #230, #231, #232 ) );
#155 = AXIS2_PLACEMENT_3D( '', #233, #234, #235 );
#156 = SURFACE_SIDE_STYLE( '', ( #236 ) );
#157 = EDGE_LOOP( '', ( #237 ) );
#158 = EDGE_LOOP( '', ( #238 ) );
#159 = AXIS2_PLACEMENT_3D( '', #239, #240, #241 );
#160 = SURFACE_SIDE_STYLE( '', ( #242 ) );
#161 = EDGE_LOOP( '', ( #243, #244, #245, #246 ) );
#162 = AXIS2_PLACEMENT_3D( '', #247, #248, #249 );
#163 = SURFACE_SIDE_STYLE( '', ( #250 ) );
#164 = EDGE_LOOP( '', ( #251 ) );
#165 = EDGE_LOOP( '', ( #252 ) );
#166 = AXIS2_PLACEMENT_3D( '', #253, #254, #255 );
#167 = SURFACE_SIDE_STYLE( '', ( #256 ) );
#168 = EDGE_LOOP( '', ( #257 ) );
#169 = EDGE_LOOP( '', ( #258 ) );
#170 = AXIS2_PLACEMENT_3D( '', #259, #260, #261 );
#171 = SURFACE_SIDE_STYLE( '', ( #262 ) );
#172 = EDGE_LOOP( '', ( #263, #264, #265, #266, #267, #268 ) );
#173 = AXIS2_PLACEMENT_3D( '', #269, #270, #271 );
#174 = SURFACE_SIDE_STYLE( '', ( #272 ) );
#175 = EDGE_LOOP( '', ( #273, #274 ) );
#176 = AXIS2_PLACEMENT_3D( '', #275, #276, #277 );
#177 = SURFACE_SIDE_STYLE( '', ( #278 ) );
#178 = EDGE_LOOP( '', ( #279 ) );
#179 = EDGE_LOOP( '', ( #280 ) );
#180 = AXIS2_PLACEMENT_3D( '', #281, #282, #283 );
#181 = SURFACE_SIDE_STYLE( '', ( #284 ) );
#182 = EDGE_LOOP( '', ( #285 ) );
#183 = EDGE_LOOP( '', ( #286 ) );
#184 = AXIS2_PLACEMENT_3D( '', #287, #288, #289 );
#186 = SURFACE_STYLE_FILL_AREA( #290 );
#187 = ORIENTED_EDGE( '', *, *, #291, .T. );
#188 = ORIENTED_EDGE( '', *, *, #292, .F. );
#189 = ORIENTED_EDGE( '', *, *, #293, .T. );
#190 = ORIENTED_EDGE( '', *, *, #294, .T. );
#191 = CARTESIAN_POINT( '', ( -1.00000000000000, -12.5000000000000, 26.0000000000000 ) );
#192 = DIRECTION( '', ( 0.000000000000000, 0.000000000000000, 1.00000000000000 ) );
#193 = DIRECTION( '', ( 1.00000000000000, 0.000000000000000, 0.000000000000000 ) );
#194 = SURFACE_STYLE_FILL_AREA( #295 );
#195 = ORIENTED_EDGE( '', *, *, #296, .F. );
#196 = CARTESIAN_POINT( '', ( 2.84730380801760E-015, 0.000000000000000, 4.25000000000000 ) );
#197 = DIRECTION( '', ( -6.42154712297608E-019, 0.000000000000000, 1.00000000000000 ) );
#198 = DIRECTION( '', ( -1.00000000000000, 0.000000000000000, -6.42154712297608E-019 ) );
#199 = SURFACE_STYLE_FILL_AREA( #297 );
#200 = ORIENTED_EDGE( '', *, *, #298, .F. );
#201 = ORIENTED_EDGE( '', *, *, #299, .F. );
#202 = ORIENTED_EDGE( '', *, *, #300, .F. );
#203 = ORIENTED_EDGE( '', *, *, #301, .F. );
#204 = CARTESIAN_POINT( '', ( -1.01139367186873E-017, 0.000000000000000, 28.5000000000000 ) );
#205 = DIRECTION( '', ( 6.42154712297608E-019, -0.000000000000000, -1.00000000000000 ) );
#206 = DIRECTION( '', ( -1.00000000000000, 0.000000000000000, -6.42154712297608E-019 ) );
#207 = SURFACE_STYLE_FILL_AREA( #302 );
#208 = ORIENTED_EDGE( '', *, *, #303, .T. );
#209 = ORIENTED_EDGE( '', *, *, #304, .F. );
#210 = ORIENTED_EDGE( '', *, *, #299, .T. );
#211 = ORIENTED_EDGE( '', *, *, #305, .F. );
#212 = ORIENTED_EDGE( '', *, *, #293, .F. );
#213 = ORIENTED_EDGE( '', *, *, #306, .F. );
#214 = ORIENTED_EDGE( '', *, *, #307, .T. );
#215 = ORIENTED_EDGE( '', *, *, #308, .F. );
#216 = ORIENTED_EDGE( '', *, *, #291, .F. );
#217 = CARTESIAN_POINT( '', ( -8.18747258179450E-018, 0.000000000000000, 25.5000000000000 ) );
#218 = DIRECTION( '', ( 6.42154712297608E-019, -0.000000000000000, -1.00000000000000 ) );
#219 = DIRECTION( '', ( 1.00000000000000, 0.000000000000000, 6.42154712297608E-019 ) );
#220 = SURFACE_STYLE_FILL_AREA( #309 );
#221 = ORIENTED_EDGE( '', *, *, #310, .T. );
#222 = ORIENTED_EDGE( '', *, *, #311, .T. );
#223 = CARTESIAN_POINT( '', ( 8.00000000000000, 0.000000000000000, 28.5000000000000 ) );
#224 = DIRECTION( '', ( 6.42154712297608E-019, 0.000000000000000, -1.00000000000000 ) );
#225 = DIRECTION( '', ( -1.00000000000000, 0.000000000000000, -6.42154712297608E-019 ) );
#226 = SURFACE_STYLE_FILL_AREA( #312 );
#227 = ORIENTED_EDGE( '', *, *, #310, .F. );
#228 = ORIENTED_EDGE( '', *, *, #313, .T. );
#229 = ORIENTED_EDGE( '', *, *, #306, .T. );
#230 = ORIENTED_EDGE( '', *, *, #292, .T. );
#231 = ORIENTED_EDGE( '', *, *, #308, .T. );
#232 = ORIENTED_EDGE( '', *, *, #314, .T. );
#233 = CARTESIAN_POINT( '', ( -1.00000000000000, -12.5000000000000, 28.5000000000000 ) );
#234 = DIRECTION( '', ( 1.00000000000000, 0.000000000000000, 8.67361737988404E-017 ) );
#235 = DIRECTION( '', ( 8.67361737988404E-017, 0.000000000000000, -1.00000000000000 ) );
#236 = SURFACE_STYLE_FILL_AREA( #315 );
#237 = ORIENTED_EDGE( '', *, *, #316, .F. );
#238 = ORIENTED_EDGE( '', *, *, #303, .F. );
#239 = CARTESIAN_POINT( '', ( 3.05023488341364E-018, 0.000000000000000, 8.00000000000000 ) );
#240 = DIRECTION( '', ( -6.42154712297607E-019, 0.000000000000000, 1.00000000000000 ) );
#241 = DIRECTION( '', ( 1.00000000000000, 0.000000000000000, 6.42154712297607E-019 ) );
#242 = SURFACE_STYLE_FILL_AREA( #317 );
#243 = ORIENTED_EDGE( '', *, *, #314, .F. );
#244 = ORIENTED_EDGE( '', *, *, #307, .F. );
#245 = ORIENTED_EDGE( '', *, *, #313, .F. );
#246 = ORIENTED_EDGE( '', *, *, #311, .F. );
#247 = CARTESIAN_POINT( '', ( -1.01139367186873E-017, 0.000000000000000, 28.5000000000000 ) );
#248 = DIRECTION( '', ( 6.42154712297608E-019, -0.000000000000000, -1.00000000000000 ) );
#249 = DIRECTION( '', ( -1.00000000000000, 0.000000000000000, -6.42154712297608E-019 ) );
#250 = SURFACE_STYLE_FILL_AREA( #318 );
#251 = ORIENTED_EDGE( '', *, *, #319, .F. );
#252 = ORIENTED_EDGE( '', *, *, #296, .T. );
#253 = CARTESIAN_POINT( '', ( -8.18747258179450E-018, 0.000000000000000, 25.5000000000000 ) );
#254 = DIRECTION( '', ( 6.42154712297608E-019, -0.000000000000000, -1.00000000000000 ) );
#255 = DIRECTION( '', ( 1.00000000000000, 0.000000000000000, 6.42154712297608E-019 ) );
#256 = SURFACE_STYLE_FILL_AREA( #320 );
#257 = ORIENTED_EDGE( '', *, *, #321, .F. );
#258 = ORIENTED_EDGE( '', *, *, #319, .T. );
#259 = CARTESIAN_POINT( '', ( 4.25000000000000, 0.000000000000000, 4.50000000000000 ) );
#260 = DIRECTION( '', ( -6.42154712297608E-019, 0.000000000000000, 1.00000000000000 ) );
#261 = DIRECTION( '', ( 1.00000000000000, 0.000000000000000, 6.42154712297608E-019 ) );
#262 = SURFACE_STYLE_FILL_AREA( #322 );
#263 = ORIENTED_EDGE( '', *, *, #323, .T. );
#264 = ORIENTED_EDGE( '', *, *, #300, .T. );
#265 = ORIENTED_EDGE( '', *, *, #304, .T. );
#266 = ORIENTED_EDGE( '', *, *, #294, .F. );
#267 = ORIENTED_EDGE( '', *, *, #305, .T. );
#268 = ORIENTED_EDGE( '', *, *, #298, .T. );
#269 = CARTESIAN_POINT( '', ( 1.00000000000000, -12.5000000000000, 26.0000000000000 ) );
#270 = DIRECTION( '', ( -1.00000000000000, 0.000000000000000, 8.67361737988404E-017 ) );
#271 = DIRECTION( '', ( 8.67361737988404E-017, 0.000000000000000, 1.00000000000000 ) );
#272 = SURFACE_STYLE_FILL_AREA( #324 );
#273 = ORIENTED_EDGE( '', *, *, #323, .F. );
#274 = ORIENTED_EDGE( '', *, *, #301, .T. );
#275 = CARTESIAN_POINT( '', ( 8.00000000000000, 0.000000000000000, 28.5000000000000 ) );
#276 = DIRECTION( '', ( 6.42154712297608E-019, 0.000000000000000, -1.00000000000000 ) );
#277 = DIRECTION( '', ( -1.00000000000000, 0.000000000000000, -6.42154712297608E-019 ) );
#278 = SURFACE_STYLE_FILL_AREA( #325 );
#279 = ORIENTED_EDGE( '', *, *, #326, .F. );
#280 = ORIENTED_EDGE( '', *, *, #321, .T. );
#281 = CARTESIAN_POINT( '', ( -8.18747258179450E-018, 0.000000000000000, 25.5000000000000 ) );
#282 = DIRECTION( '', ( 6.42154712297608E-019, -0.000000000000000, -1.00000000000000 ) );
#283 = DIRECTION( '', ( 1.00000000000000, 0.000000000000000, 6.42154712297608E-019 ) );
#284 = SURFACE_STYLE_FILL_AREA( #327 );
#285 = ORIENTED_EDGE( '', *, *, #316, .T. );
#286 = ORIENTED_EDGE( '', *, *, #326, .T. );
#287 = CARTESIAN_POINT( '', ( 5.25000000000000, 0.000000000000000, 6.00000000000000 ) );
#288 = DIRECTION( '', ( -6.42154712297608E-019, 0.000000000000000, 1.00000000000000 ) );
#289 = DIRECTION( '', ( 1.00000000000000, 0.000000000000000, 6.42154712297608E-019 ) );
#290 = FILL_AREA_STYLE( '', ( #328 ) );
#291 = EDGE_CURVE( '', #329, #330, #331, .T. );
#292 = EDGE_CURVE( '', #332, #330, #333, .T. );
#293 = EDGE_CURVE( '', #332, #334, #335, .T. );
#294 = EDGE_CURVE( '', #334, #329, #336, .T. );
#295 = FILL_AREA_STYLE( '', ( #337 ) );
#296 = EDGE_CURVE( '', #338, #338, #339, .T. );
#297 = FILL_AREA_STYLE( '', ( #340 ) );
#298 = EDGE_CURVE( '', #341, #342, #343, .T. );
#299 = EDGE_CURVE( '', #344, #341, #345, .T. );
#300 = EDGE_CURVE( '', #346, #344, #347, .T. );
#301 = EDGE_CURVE( '', #342, #346, #348, .F. );
#302 = FILL_AREA_STYLE( '', ( #349 ) );
#303 = EDGE_CURVE( '', #350, #350, #351, .T. );
#304 = EDGE_CURVE( '', #344, #329, #352, .F. );
#305 = EDGE_CURVE( '', #334, #341, #353, .T. );
#306 = EDGE_CURVE( '', #354, #332, #355, .F. );
#307 = EDGE_CURVE( '', #354, #356, #357, .T. );
#308 = EDGE_CURVE( '', #330, #356, #358, .T. );
#309 = FILL_AREA_STYLE( '', ( #359 ) );
#310 = EDGE_CURVE( '', #360, #361, #362, .T. );
#311 = EDGE_CURVE( '', #361, #360, #363, .F. );
#312 = FILL_AREA_STYLE( '', ( #364 ) );
#313 = EDGE_CURVE( '', #360, #354, #365, .T. );
#314 = EDGE_CURVE( '', #356, #361, #366, .T. );
#315 = FILL_AREA_STYLE( '', ( #367 ) );
#316 = EDGE_CURVE( '', #368, #368, #369, .F. );
#317 = FILL_AREA_STYLE( '', ( #370 ) );
#318 = FILL_AREA_STYLE( '', ( #371 ) );
#319 = EDGE_CURVE( '', #372, #372, #373, .T. );
#320 = FILL_AREA_STYLE( '', ( #374 ) );
#321 = EDGE_CURVE( '', #375, #375, #376, .T. );
#322 = FILL_AREA_STYLE( '', ( #377 ) );
#323 = EDGE_CURVE( '', #342, #346, #378, .T. );
#324 = FILL_AREA_STYLE( '', ( #379 ) );
#325 = FILL_AREA_STYLE( '', ( #380 ) );
#326 = EDGE_CURVE( '', #381, #381, #382, .T. );
#327 = FILL_AREA_STYLE( '', ( #383 ) );
#328 = FILL_AREA_STYLE_COLOUR( '', #384 );
#329 = VERTEX_POINT( '', #385 );
#330 = VERTEX_POINT( '', #386 );
#331 = CIRCLE( '', #387, 8.00000000000000 );
#332 = VERTEX_POINT( '', #388 );
#333 = LINE( '', #389, #390 );
#334 = VERTEX_POINT( '', #391 );
#335 = CIRCLE( '', #392, 8.00000000000000 );
#336 = LINE( '', #393, #394 );
#337 = FILL_AREA_STYLE_COLOUR( '', #395 );
#338 = VERTEX_POINT( '', #396 );
#339 = CIRCLE( '', #397, 4.25000000000000 );
#340 = FILL_AREA_STYLE_COLOUR( '', #398 );
#341 = VERTEX_POINT( '', #399 );
#342 = VERTEX_POINT( '', #400 );
#343 = B_SPLINE_CURVE_WITH_KNOTS( '', 3, ( #401, #402, #403, #404 ), .UNSPECIFIED., .F., .F., ( 4, 4 ), ( 0.000000000000000, 0.00213169584889623 ), .UNSPECIFIED. );
#344 = VERTEX_POINT( '', #405 );
#345 = CIRCLE( '', #406, 8.00000000000000 );
#346 = VERTEX_POINT( '', #407 );
#347 = B_SPLINE_CURVE_WITH_KNOTS( '', 3, ( #408, #409, #410, #411 ), .UNSPECIFIED., .F., .F., ( 4, 4 ), ( 0.000000000000000, 0.00213169584889623 ), .UNSPECIFIED. );
#348 = CIRCLE( '', #412, 6.50000000000000 );
#349 = FILL_AREA_STYLE_COLOUR( '', #413 );
#350 = VERTEX_POINT( '', #414 );
#351 = CIRCLE( '', #415, 8.00000000000000 );
#352 = LINE( '', #416, #417 );
#353 = LINE( '', #418, #419 );
#354 = VERTEX_POINT( '', #420 );
#355 = LINE( '', #421, #422 );
#356 = VERTEX_POINT( '', #423 );
#357 = CIRCLE( '', #424, 8.00000000000000 );
#358 = LINE( '', #425, #426 );
#359 = FILL_AREA_STYLE_COLOUR( '', #427 );
#360 = VERTEX_POINT( '', #428 );
#361 = VERTEX_POINT( '', #429 );
#362 = LINE( '', #430, #431 );
#363 = CIRCLE( '', #432, 6.50000000000000 );
#364 = FILL_AREA_STYLE_COLOUR( '', #433 );
#365 = B_SPLINE_CURVE_WITH_KNOTS( '', 3, ( #434, #435, #436, #437 ), .UNSPECIFIED., .F., .F., ( 4, 4 ), ( 0.000000000000000, 0.00213169584889623 ), .UNSPECIFIED. );
#366 = B_SPLINE_CURVE_WITH_KNOTS( '', 3, ( #438, #439, #440, #441 ), .UNSPECIFIED., .F., .F., ( 4, 4 ), ( 0.000000000000000, 0.00213169584889623 ), .UNSPECIFIED. );
#367 = FILL_AREA_STYLE_COLOUR( '', #442 );
#368 = VERTEX_POINT( '', #443 );
#369 = CIRCLE( '', #444, 6.00000000000000 );
#370 = FILL_AREA_STYLE_COLOUR( '', #445 );
#371 = FILL_AREA_STYLE_COLOUR( '', #446 );
#372 = VERTEX_POINT( '', #447 );
#373 = CIRCLE( '', #448, 4.25000000000000 );
#374 = FILL_AREA_STYLE_COLOUR( '', #449 );
#375 = VERTEX_POINT( '', #450 );
#376 = CIRCLE( '', #451, 5.25000000000000 );
#377 = FILL_AREA_STYLE_COLOUR( '', #452 );
#378 = LINE( '', #453, #454 );
#379 = FILL_AREA_STYLE_COLOUR( '', #455 );
#380 = FILL_AREA_STYLE_COLOUR( '', #456 );
#381 = VERTEX_POINT( '', #457 );
#382 = CIRCLE( '', #458, 5.25000000000000 );
#383 = FILL_AREA_STYLE_COLOUR( '', #459 );
#384 = COLOUR_RGB( '', 0.200000002980232, 0.200000002980232, 0.200000002980232 );
#385 = CARTESIAN_POINT( '', ( 1.00000000000000, 7.93725393319377, 26.0000000000000 ) );
#386 = CARTESIAN_POINT( '', ( -1.00000000000000, 7.93725393319377, 26.0000000000000 ) );
#387 = AXIS2_PLACEMENT_3D( '', #460, #461, #462 );
#388 = CARTESIAN_POINT( '', ( -1.00000000000000, -7.93725393319377, 26.0000000000000 ) );
#389 = CARTESIAN_POINT( '', ( -1.00000000000000, -12.5000000000000, 26.0000000000000 ) );
#390 = VECTOR( '', #463, 1000.00000000000 );
#391 = CARTESIAN_POINT( '', ( 1.00000000000000, -7.93725393319377, 26.0000000000000 ) );
#392 = AXIS2_PLACEMENT_3D( '', #464, #465, #466 );
#393 = CARTESIAN_POINT( '', ( 1.00000000000000, -12.5000000000000, 26.0000000000000 ) );
#394 = VECTOR( '', #467, 1000.00000000000 );
#395 = COLOUR_RGB( '', 0.200000002980232, 0.200000002980232, 0.200000002980232 );
#396 = CARTESIAN_POINT( '', ( 4.25000000000000, 0.000000000000000, 4.25000000000000 ) );
#397 = AXIS2_PLACEMENT_3D( '', #468, #469, #470 );
#398 = COLOUR_RGB( '', 0.200000002980232, 0.200000002980232, 0.200000002980232 );
#399 = CARTESIAN_POINT( '', ( 1.00000000000000, -7.93725393319377, 27.0000000000000 ) );
#400 = CARTESIAN_POINT( '', ( 1.00000000000000, -6.42261628933257, 28.5000000000000 ) );
#401 = CARTESIAN_POINT( '', ( 1.00000000000000, -7.93725393319377, 27.0000000000000 ) );
#402 = CARTESIAN_POINT( '', ( 1.00000000000000, -7.43283414983020, 27.5004634886854 ) );
#403 = CARTESIAN_POINT( '', ( 1.00000000000000, -6.92806152084952, 28.0005721881067 ) );
#404 = CARTESIAN_POINT( '', ( 1.00000000000000, -6.42261628933257, 28.5000000000000 ) );
#405 = CARTESIAN_POINT( '', ( 1.00000000000000, 7.93725393319377, 27.0000000000000 ) );
#406 = AXIS2_PLACEMENT_3D( '', #471, #472, #473 );
#407 = CARTESIAN_POINT( '', ( 1.00000000000000, 6.42261628933257, 28.5000000000000 ) );
#408 = CARTESIAN_POINT( '', ( 1.00000000000000, 6.42261628933257, 28.5000000000000 ) );
#409 = CARTESIAN_POINT( '', ( 1.00000000000000, 6.92806152084952, 28.0005721881067 ) );
#410 = CARTESIAN_POINT( '', ( 1.00000000000000, 7.43283414983020, 27.5004634886854 ) );
#411 = CARTESIAN_POINT( '', ( 1.00000000000000, 7.93725393319377, 27.0000000000000 ) );
#412 = AXIS2_PLACEMENT_3D( '', #474, #475, #476 );
#413 = COLOUR_RGB( '', 0.752941191196442, 0.752941191196442, 0.752941191196442 );
#414 = CARTESIAN_POINT( '', ( 8.00000000000000, 0.000000000000000, 8.00000000000000 ) );
#415 = AXIS2_PLACEMENT_3D( '', #477, #478, #479 );
#416 = CARTESIAN_POINT( '', ( 1.00000000000000, 7.93725393319377, 25.5000000000000 ) );
#417 = VECTOR( '', #480, 1000.00000000000 );
#418 = CARTESIAN_POINT( '', ( 1.00000000000000, -7.93725393319377, 25.5000000000000 ) );
#419 = VECTOR( '', #481, 1000.00000000000 );
#420 = CARTESIAN_POINT( '', ( -1.00000000000000, -7.93725393319377, 27.0000000000000 ) );
#421 = CARTESIAN_POINT( '', ( -1.00000000000000, -7.93725393319377, 25.5000000000000 ) );
#422 = VECTOR( '', #482, 1000.00000000000 );
#423 = CARTESIAN_POINT( '', ( -1.00000000000000, 7.93725393319377, 27.0000000000000 ) );
#424 = AXIS2_PLACEMENT_3D( '', #483, #484, #485 );
#425 = CARTESIAN_POINT( '', ( -1.00000000000000, 7.93725393319377, 25.5000000000000 ) );
#426 = VECTOR( '', #486, 1000.00000000000 );
#427 = COLOUR_RGB( '', 0.200000002980232, 0.200000002980232, 0.200000002980232 );
#428 = CARTESIAN_POINT( '', ( -1.00000000000000, -6.42261628933257, 28.5000000000000 ) );
#429 = CARTESIAN_POINT( '', ( -1.00000000000000, 6.42261628933257, 28.5000000000000 ) );
#430 = CARTESIAN_POINT( '', ( -1.00000000000000, -12.5000000000000, 28.5000000000000 ) );
#431 = VECTOR( '', #487, 1000.00000000000 );
#432 = AXIS2_PLACEMENT_3D( '', #488, #489, #490 );
#433 = COLOUR_RGB( '', 0.200000002980232, 0.200000002980232, 0.200000002980232 );
#434 = CARTESIAN_POINT( '', ( -1.00000000000000, -6.42261628933257, 28.5000000000000 ) );
#435 = CARTESIAN_POINT( '', ( -1.00000000000000, -6.92806152084952, 28.0005721881067 ) );
#436 = CARTESIAN_POINT( '', ( -1.00000000000000, -7.43283414983020, 27.5004634886854 ) );
#437 = CARTESIAN_POINT( '', ( -1.00000000000000, -7.93725393319377, 27.0000000000000 ) );
#438 = CARTESIAN_POINT( '', ( -1.00000000000000, 7.93725393319377, 27.0000000000000 ) );
#439 = CARTESIAN_POINT( '', ( -1.00000000000000, 7.43283414983020, 27.5004634886854 ) );
#440 = CARTESIAN_POINT( '', ( -1.00000000000000, 6.92806152084952, 28.0005721881067 ) );
#441 = CARTESIAN_POINT( '', ( -1.00000000000000, 6.42261628933257, 28.5000000000000 ) );
#442 = COLOUR_RGB( '', 0.200000002980232, 0.200000002980232, 0.200000002980232 );
#443 = CARTESIAN_POINT( '', ( 6.00000000000000, 0.000000000000000, 6.00000000000000 ) );
#444 = AXIS2_PLACEMENT_3D( '', #491, #492, #493 );
#445 = COLOUR_RGB( '', 0.200000002980232, 0.200000002980232, 0.200000002980232 );
#446 = COLOUR_RGB( '', 0.200000002980232, 0.200000002980232, 0.200000002980232 );
#447 = CARTESIAN_POINT( '', ( 4.25000000000000, 0.000000000000000, 4.50000000000000 ) );
#448 = AXIS2_PLACEMENT_3D( '', #494, #495, #496 );
#449 = COLOUR_RGB( '', 0.200000002980232, 0.200000002980232, 0.200000002980232 );
#450 = CARTESIAN_POINT( '', ( 5.25000000000000, 0.000000000000000, 4.50000000000000 ) );
#451 = AXIS2_PLACEMENT_3D( '', #497, #498, #499 );
#452 = COLOUR_RGB( '', 0.200000002980232, 0.200000002980232, 0.200000002980232 );
#453 = CARTESIAN_POINT( '', ( 1.00000000000000, -12.5000000000000, 28.5000000000000 ) );
#454 = VECTOR( '', #500, 1000.00000000000 );
#455 = COLOUR_RGB( '', 0.200000002980232, 0.200000002980232, 0.200000002980232 );
#456 = COLOUR_RGB( '', 0.200000002980232, 0.200000002980232, 0.200000002980232 );
#457 = CARTESIAN_POINT( '', ( 5.25000000000000, 0.000000000000000, 6.00000000000000 ) );
#458 = AXIS2_PLACEMENT_3D( '', #501, #502, #503 );
#459 = COLOUR_RGB( '', 0.200000002980232, 0.200000002980232, 0.200000002980232 );
#460 = CARTESIAN_POINT( '', ( -8.50854993794330E-018, 0.000000000000000, 26.0000000000000 ) );
#461 = DIRECTION( '', ( 0.000000000000000, 0.000000000000000, 1.00000000000000 ) );
#462 = DIRECTION( '', ( 1.00000000000000, 0.000000000000000, 0.000000000000000 ) );
#463 = DIRECTION( '', ( 0.000000000000000, 1.00000000000000, 0.000000000000000 ) );
#464 = CARTESIAN_POINT( '', ( -8.50854993794330E-018, 0.000000000000000, 26.0000000000000 ) );
#465 = DIRECTION( '', ( 0.000000000000000, 0.000000000000000, 1.00000000000000 ) );
#466 = DIRECTION( '', ( 1.00000000000000, 0.000000000000000, 0.000000000000000 ) );
#467 = DIRECTION( '', ( 0.000000000000000, 1.00000000000000, 0.000000000000000 ) );
#468 = CARTESIAN_POINT( '', ( 5.45831505452967E-018, 0.000000000000000, 4.25000000000000 ) );
#469 = DIRECTION( '', ( -6.42154712297608E-019, 0.000000000000000, 1.00000000000000 ) );
#470 = DIRECTION( '', ( 1.00000000000000, 0.000000000000000, 6.42154712297608E-019 ) );
#471 = CARTESIAN_POINT( '', ( -9.15070465024091E-018, 0.000000000000000, 27.0000000000000 ) );
#472 = DIRECTION( '', ( 6.42154712297608E-019, 0.000000000000000, -1.00000000000000 ) );
#473 = DIRECTION( '', ( -1.00000000000000, 0.000000000000000, -6.42154712297608E-019 ) );
#474 = CARTESIAN_POINT( '', ( -1.01139367186873E-017, 0.000000000000000, 28.5000000000000 ) );
#475 = DIRECTION( '', ( 6.42154712297608E-019, 0.000000000000000, -1.00000000000000 ) );
#476 = DIRECTION( '', ( -1.00000000000000, 0.000000000000000, -6.42154712297608E-019 ) );
#477 = CARTESIAN_POINT( '', ( 3.05023488341364E-018, 0.000000000000000, 8.00000000000000 ) );
#478 = DIRECTION( '', ( -6.42154712297607E-019, 0.000000000000000, 1.00000000000000 ) );
#479 = DIRECTION( '', ( 1.00000000000000, 0.000000000000000, 6.42154712297607E-019 ) );
#480 = DIRECTION( '', ( -6.42154712297608E-019, 0.000000000000000, 1.00000000000000 ) );
#481 = DIRECTION( '', ( -6.42154712297608E-019, 0.000000000000000, 1.00000000000000 ) );
#482 = DIRECTION( '', ( -6.42154712297608E-019, 0.000000000000000, 1.00000000000000 ) );
#483 = CARTESIAN_POINT( '', ( -9.15070465024091E-018, 0.000000000000000, 27.0000000000000 ) );
#484 = DIRECTION( '', ( 6.42154712297608E-019, 0.000000000000000, -1.00000000000000 ) );
#485 = DIRECTION( '', ( -1.00000000000000, 0.000000000000000, -6.42154712297608E-019 ) );
#486 = DIRECTION( '', ( -6.42154712297608E-019, 0.000000000000000, 1.00000000000000 ) );
#487 = DIRECTION( '', ( 0.000000000000000, 1.00000000000000, 0.000000000000000 ) );
#488 = CARTESIAN_POINT( '', ( -1.01139367186873E-017, 0.000000000000000, 28.5000000000000 ) );
#489 = DIRECTION( '', ( 6.42154712297608E-019, 0.000000000000000, -1.00000000000000 ) );
#490 = DIRECTION( '', ( -1.00000000000000, 0.000000000000000, -6.42154712297608E-019 ) );
#491 = CARTESIAN_POINT( '', ( 4.33454430800885E-018, 0.000000000000000, 6.00000000000000 ) );
#492 = DIRECTION( '', ( -6.42154712297608E-019, 0.000000000000000, 1.00000000000000 ) );
#493 = DIRECTION( '', ( 1.00000000000000, 0.000000000000000, 6.42154712297608E-019 ) );
#494 = CARTESIAN_POINT( '', ( 5.29777637645526E-018, 0.000000000000000, 4.50000000000000 ) );
#495 = DIRECTION( '', ( -6.42154712297608E-019, 0.000000000000000, 1.00000000000000 ) );
#496 = DIRECTION( '', ( 1.00000000000000, 0.000000000000000, 6.42154712297608E-019 ) );
#497 = CARTESIAN_POINT( '', ( 5.29777637645526E-018, 0.000000000000000, 4.50000000000000 ) );
#498 = DIRECTION( '', ( -6.42154712297608E-019, 0.000000000000000, 1.00000000000000 ) );
#499 = DIRECTION( '', ( 1.00000000000000, 0.000000000000000, 6.42154712297608E-019 ) );
#500 = DIRECTION( '', ( 0.000000000000000, 1.00000000000000, 0.000000000000000 ) );
#501 = CARTESIAN_POINT( '', ( 4.33454430800886E-018, 0.000000000000000, 6.00000000000000 ) );
#502 = DIRECTION( '', ( -6.42154712297608E-019, 0.000000000000000, 1.00000000000000 ) );
#503 = DIRECTION( '', ( 1.00000000000000, 0.000000000000000, 6.42154712297608E-019 ) );
ENDSEC;
END-ISO-10303-21;
