ISO-10303-21;
HEADER;
FILE_DESCRIPTION( ( 'Unknown' ), '1' );
FILE_NAME( '//SBS2003/HD_Usb/Disegni/08_LIB/Users_3D/PROD_GAMM_3D/APP-A/7747340_APP_30_A.stp', 'Unknown', ( 'Unknown' ), ( 'Unknown' ), 'PSStep 14.0', 'Unknown', '  ' );
FILE_SCHEMA( ( 'AUTOMOTIVE_DESIGN { 1 0 10303 214 1 1 1 1 }' ) );
ENDSEC;
DATA;
#1 = MECHANICAL_DESIGN_GEOMETRIC_PRESENTATION_REPRESENTATION( ' ', ( #10, #11, #12, #13, #14, #15, #16, #17, #18, #19, #20, #21, #22, #23 ), #6 );
#2 = PRODUCT_DEFINITION_CONTEXT( '', #24, 'design' );
#3 = APPLICATION_PROTOCOL_DEFINITION( 'international standard', 'automotive_design', 2001, #24 );
#4 = PRODUCT_CATEGORY_RELATIONSHIP( 'NONE', 'NONE', #25, #26 );
#5 = SHAPE_DEFINITION_REPRESENTATION( #27, #28 );
#6 =  ( GEOMETRIC_REPRESENTATION_CONTEXT( 3 )GLOBAL_UNCERTAINTY_ASSIGNED_CONTEXT( ( #31 ) )GLOBAL_UNIT_ASSIGNED_CONTEXT( ( #33, #34, #35 ) )REPRESENTATION_CONTEXT( 'NONE', 'WORKSPACE' ) );
#10 = STYLED_ITEM( '', ( #37 ), #38 );
#11 = STYLED_ITEM( '', ( #39 ), #40 );
#12 = STYLED_ITEM( '', ( #41 ), #42 );
#13 = STYLED_ITEM( '', ( #43 ), #44 );
#14 = STYLED_ITEM( '', ( #45 ), #46 );
#15 = STYLED_ITEM( '', ( #47 ), #48 );
#16 = STYLED_ITEM( '', ( #49 ), #50 );
#17 = STYLED_ITEM( '', ( #51 ), #52 );
#18 = STYLED_ITEM( '', ( #53 ), #54 );
#19 = STYLED_ITEM( '', ( #55 ), #56 );
#20 = STYLED_ITEM( '', ( #57 ), #58 );
#21 = STYLED_ITEM( '', ( #59 ), #60 );
#22 = STYLED_ITEM( '', ( #61 ), #62 );
#23 = STYLED_ITEM( '', ( #63 ), #64 );
#24 = APPLICATION_CONTEXT( 'core data for automotive mechanical design processes' );
#25 = PRODUCT_CATEGORY( 'part', 'NONE' );
#26 = PRODUCT_RELATED_PRODUCT_CATEGORY( 'detail', ' ', ( #65 ) );
#27 = PRODUCT_DEFINITION_SHAPE( 'NONE', 'NONE', #66 );
#28 = ADVANCED_BREP_SHAPE_REPRESENTATION( '1', ( #67, #68 ), #6 );
#31 = UNCERTAINTY_MEASURE_WITH_UNIT( LENGTH_MEASURE( 0.00100000000000000 ), #33, '', '' );
#33 =  ( CONVERSION_BASED_UNIT( 'MILLIMETRE', #71 )LENGTH_UNIT(  )NAMED_UNIT( #74 ) );
#34 =  ( NAMED_UNIT( #76 )PLANE_ANGLE_UNIT(  )SI_UNIT( $, .RADIAN. ) );
#35 =  ( NAMED_UNIT( #76 )SI_UNIT( $, .STERADIAN. )SOLID_ANGLE_UNIT(  ) );
#37 = PRESENTATION_STYLE_ASSIGNMENT( ( #82 ) );
#38 = ADVANCED_FACE( '', ( #83, #84 ), #85, .T. );
#39 = PRESENTATION_STYLE_ASSIGNMENT( ( #86 ) );
#40 = ADVANCED_FACE( '', ( #87 ), #88, .T. );
#41 = PRESENTATION_STYLE_ASSIGNMENT( ( #89 ) );
#42 = ADVANCED_FACE( '', ( #90 ), #91, .F. );
#43 = PRESENTATION_STYLE_ASSIGNMENT( ( #92 ) );
#44 = ADVANCED_FACE( '', ( #93, #94 ), #95, .T. );
#45 = PRESENTATION_STYLE_ASSIGNMENT( ( #96 ) );
#46 = ADVANCED_FACE( '', ( #97 ), #98, .T. );
#47 = PRESENTATION_STYLE_ASSIGNMENT( ( #99 ) );
#48 = ADVANCED_FACE( '', ( #100 ), #101, .T. );
#49 = PRESENTATION_STYLE_ASSIGNMENT( ( #102 ) );
#50 = ADVANCED_FACE( '', ( #103, #104 ), #105, .F. );
#51 = PRESENTATION_STYLE_ASSIGNMENT( ( #106 ) );
#52 = ADVANCED_FACE( '', ( #107, #108 ), #109, .F. );
#53 = PRESENTATION_STYLE_ASSIGNMENT( ( #110 ) );
#54 = ADVANCED_FACE( '', ( #111 ), #112, .F. );
#55 = PRESENTATION_STYLE_ASSIGNMENT( ( #113 ) );
#56 = ADVANCED_FACE( '', ( #114 ), #115, .T. );
#57 = PRESENTATION_STYLE_ASSIGNMENT( ( #116 ) );
#58 = ADVANCED_FACE( '', ( #117, #118 ), #119, .T. );
#59 = PRESENTATION_STYLE_ASSIGNMENT( ( #120 ) );
#60 = ADVANCED_FACE( '', ( #121 ), #122, .T. );
#61 = PRESENTATION_STYLE_ASSIGNMENT( ( #123 ) );
#62 = ADVANCED_FACE( '', ( #124 ), #125, .T. );
#63 = PRESENTATION_STYLE_ASSIGNMENT( ( #126 ) );
#64 = ADVANCED_FACE( '', ( #127, #128 ), #129, .T. );
#65 = PRODUCT( '1', '1', 'PART-1-DESC', ( #130 ) );
#66 = PRODUCT_DEFINITION( 'NONE', 'NONE', #131, #2 );
#67 = MANIFOLD_SOLID_BREP( '1', #132 );
#68 = AXIS2_PLACEMENT_3D( '', #133, #134, #135 );
#71 = LENGTH_MEASURE_WITH_UNIT( LENGTH_MEASURE( 1.00000000000000 ), #136 );
#74 = DIMENSIONAL_EXPONENTS( 1.00000000000000, 0.000000000000000, 0.000000000000000, 0.000000000000000, 0.000000000000000, 0.000000000000000, 0.000000000000000 );
#76 = DIMENSIONAL_EXPONENTS( 0.000000000000000, 0.000000000000000, 0.000000000000000, 0.000000000000000, 0.000000000000000, 0.000000000000000, 0.000000000000000 );
#82 = SURFACE_STYLE_USAGE( .BOTH., #137 );
#83 = FACE_OUTER_BOUND( '', #138, .T. );
#84 = FACE_OUTER_BOUND( '', #139, .T. );
#85 = CYLINDRICAL_SURFACE( '', #140, 10.0000000000000 );
#86 = SURFACE_STYLE_USAGE( .BOTH., #141 );
#87 = FACE_OUTER_BOUND( '', #142, .T. );
#88 = PLANE( '', #143 );
#89 = SURFACE_STYLE_USAGE( .BOTH., #144 );
#90 = FACE_OUTER_BOUND( '', #145, .T. );
#91 = PLANE( '', #146 );
#92 = SURFACE_STYLE_USAGE( .BOTH., #147 );
#93 = FACE_OUTER_BOUND( '', #148, .T. );
#94 = FACE_OUTER_BOUND( '', #149, .T. );
#95 = CYLINDRICAL_SURFACE( '', #150, 5.00000000000000 );
#96 = SURFACE_STYLE_USAGE( .BOTH., #151 );
#97 = FACE_OUTER_BOUND( '', #152, .T. );
#98 = SPHERICAL_SURFACE( '', #153, 5.00000000000000 );
#99 = SURFACE_STYLE_USAGE( .BOTH., #154 );
#100 = FACE_OUTER_BOUND( '', #155, .T. );
#101 = CONICAL_SURFACE( '', #156, 8.50000000000000, 0.785398163397448 );
#102 = SURFACE_STYLE_USAGE( .BOTH., #157 );
#103 = FACE_OUTER_BOUND( '', #158, .T. );
#104 = FACE_BOUND( '', #159, .T. );
#105 = PLANE( '', #160 );
#106 = SURFACE_STYLE_USAGE( .BOTH., #161 );
#107 = FACE_OUTER_BOUND( '', #162, .T. );
#108 = FACE_BOUND( '', #163, .T. );
#109 = PLANE( '', #164 );
#110 = SURFACE_STYLE_USAGE( .BOTH., #165 );
#111 = FACE_OUTER_BOUND( '', #166, .T. );
#112 = PLANE( '', #167 );
#113 = SURFACE_STYLE_USAGE( .BOTH., #168 );
#114 = FACE_OUTER_BOUND( '', #169, .T. );
#115 = PLANE( '', #170 );
#116 = SURFACE_STYLE_USAGE( .BOTH., #171 );
#117 = FACE_OUTER_BOUND( '', #172, .T. );
#118 = FACE_OUTER_BOUND( '', #173, .T. );
#119 = CYLINDRICAL_SURFACE( '', #174, 6.00000000000000 );
#120 = SURFACE_STYLE_USAGE( .BOTH., #175 );
#121 = FACE_OUTER_BOUND( '', #176, .T. );
#122 = PLANE( '', #177 );
#123 = SURFACE_STYLE_USAGE( .BOTH., #178 );
#124 = FACE_OUTER_BOUND( '', #179, .T. );
#125 = CONICAL_SURFACE( '', #180, 8.50000000000000, 0.785398163397448 );
#126 = SURFACE_STYLE_USAGE( .BOTH., #181 );
#127 = FACE_BOUND( '', #182, .T. );
#128 = FACE_OUTER_BOUND( '', #183, .T. );
#129 = CONICAL_SURFACE( '', #184, 10.0000000000000, 0.785398163397449 );
#130 = PRODUCT_CONTEXT( '', #24, 'mechanical' );
#131 = PRODUCT_DEFINITION_FORMATION_WITH_SPECIFIED_SOURCE( ' ', 'NONE', #65, .NOT_KNOWN. );
#132 = CLOSED_SHELL( '', ( #38, #48, #40, #60, #62, #64, #44, #50, #42, #58, #52, #46, #54, #56 ) );
#133 = CARTESIAN_POINT( '', ( 0.000000000000000, 0.000000000000000, 0.000000000000000 ) );
#134 = DIRECTION( '', ( 0.000000000000000, 0.000000000000000, 1.00000000000000 ) );
#135 = DIRECTION( '', ( 1.00000000000000, 0.000000000000000, 0.000000000000000 ) );
#136 =  ( LENGTH_UNIT(  )NAMED_UNIT( #74 )SI_UNIT( .MILLI., .METRE. ) );
#137 = SURFACE_SIDE_STYLE( '', ( #186 ) );
#138 = EDGE_LOOP( '', ( #187 ) );
#139 = EDGE_LOOP( '', ( #188, #189, #190, #191, #192, #193, #194, #195 ) );
#140 = AXIS2_PLACEMENT_3D( '', #196, #197, #198 );
#141 = SURFACE_SIDE_STYLE( '', ( #199 ) );
#142 = EDGE_LOOP( '', ( #200, #201, #202, #203 ) );
#143 = AXIS2_PLACEMENT_3D( '', #204, #205, #206 );
#144 = SURFACE_SIDE_STYLE( '', ( #207 ) );
#145 = EDGE_LOOP( '', ( #208, #209 ) );
#146 = AXIS2_PLACEMENT_3D( '', #210, #211, #212 );
#147 = SURFACE_SIDE_STYLE( '', ( #213 ) );
#148 = EDGE_LOOP( '', ( #214 ) );
#149 = EDGE_LOOP( '', ( #215 ) );
#150 = AXIS2_PLACEMENT_3D( '', #216, #217, #218 );
#151 = SURFACE_SIDE_STYLE( '', ( #219 ) );
#152 = EDGE_LOOP( '', ( #220 ) );
#153 = AXIS2_PLACEMENT_3D( '', #221, #222, #223 );
#154 = SURFACE_SIDE_STYLE( '', ( #224 ) );
#155 = EDGE_LOOP( '', ( #225, #226, #227, #228 ) );
#156 = AXIS2_PLACEMENT_3D( '', #229, #230, #231 );
#157 = SURFACE_SIDE_STYLE( '', ( #232 ) );
#158 = EDGE_LOOP( '', ( #233 ) );
#159 = EDGE_LOOP( '', ( #234 ) );
#160 = AXIS2_PLACEMENT_3D( '', #235, #236, #237 );
#161 = SURFACE_SIDE_STYLE( '', ( #238 ) );
#162 = EDGE_LOOP( '', ( #239 ) );
#163 = EDGE_LOOP( '', ( #240 ) );
#164 = AXIS2_PLACEMENT_3D( '', #241, #242, #243 );
#165 = SURFACE_SIDE_STYLE( '', ( #244 ) );
#166 = EDGE_LOOP( '', ( #245, #246 ) );
#167 = AXIS2_PLACEMENT_3D( '', #247, #248, #249 );
#168 = SURFACE_SIDE_STYLE( '', ( #250 ) );
#169 = EDGE_LOOP( '', ( #251, #252, #253, #254, #255, #256 ) );
#170 = AXIS2_PLACEMENT_3D( '', #257, #258, #259 );
#171 = SURFACE_SIDE_STYLE( '', ( #260 ) );
#172 = EDGE_LOOP( '', ( #261 ) );
#173 = EDGE_LOOP( '', ( #262 ) );
#174 = AXIS2_PLACEMENT_3D( '', #263, #264, #265 );
#175 = SURFACE_SIDE_STYLE( '', ( #266 ) );
#176 = EDGE_LOOP( '', ( #267, #268, #269, #270, #271, #272 ) );
#177 = AXIS2_PLACEMENT_3D( '', #273, #274, #275 );
#178 = SURFACE_SIDE_STYLE( '', ( #276 ) );
#179 = EDGE_LOOP( '', ( #277, #278, #279, #280 ) );
#180 = AXIS2_PLACEMENT_3D( '', #281, #282, #283 );
#181 = SURFACE_SIDE_STYLE( '', ( #284 ) );
#182 = EDGE_LOOP( '', ( #285 ) );
#183 = EDGE_LOOP( '', ( #286 ) );
#184 = AXIS2_PLACEMENT_3D( '', #287, #288, #289 );
#186 = SURFACE_STYLE_FILL_AREA( #290 );
#187 = ORIENTED_EDGE( '', *, *, #291, .T. );
#188 = ORIENTED_EDGE( '', *, *, #292, .F. );
#189 = ORIENTED_EDGE( '', *, *, #293, .T. );
#190 = ORIENTED_EDGE( '', *, *, #294, .F. );
#191 = ORIENTED_EDGE( '', *, *, #295, .F. );
#192 = ORIENTED_EDGE( '', *, *, #296, .F. );
#193 = ORIENTED_EDGE( '', *, *, #297, .T. );
#194 = ORIENTED_EDGE( '', *, *, #298, .F. );
#195 = ORIENTED_EDGE( '', *, *, #299, .F. );
#196 = CARTESIAN_POINT( '', ( -8.18747258179450E-018, 0.000000000000000, 25.5000000000000 ) );
#197 = DIRECTION( '', ( 6.42154712297608E-019, -0.000000000000000, -1.00000000000000 ) );
#198 = DIRECTION( '', ( 1.00000000000000, 0.000000000000000, 6.42154712297608E-019 ) );
#199 = SURFACE_STYLE_FILL_AREA( #300 );
#200 = ORIENTED_EDGE( '', *, *, #299, .T. );
#201 = ORIENTED_EDGE( '', *, *, #301, .F. );
#202 = ORIENTED_EDGE( '', *, *, #295, .T. );
#203 = ORIENTED_EDGE( '', *, *, #302, .T. );
#204 = CARTESIAN_POINT( '', ( -1.00000000000000, -12.5000000000000, 34.0000000000000 ) );
#205 = DIRECTION( '', ( 0.000000000000000, 0.000000000000000, 1.00000000000000 ) );
#206 = DIRECTION( '', ( 1.00000000000000, 0.000000000000000, 0.000000000000000 ) );
#207 = SURFACE_STYLE_FILL_AREA( #303 );
#208 = ORIENTED_EDGE( '', *, *, #304, .F. );
#209 = ORIENTED_EDGE( '', *, *, #305, .T. );
#210 = CARTESIAN_POINT( '', ( 10.0000000000000, 0.000000000000000, 36.5000000000000 ) );
#211 = DIRECTION( '', ( 6.42154712297608E-019, 0.000000000000000, -1.00000000000000 ) );
#212 = DIRECTION( '', ( -1.00000000000000, 0.000000000000000, -6.42154712297608E-019 ) );
#213 = SURFACE_STYLE_FILL_AREA( #306 );
#214 = ORIENTED_EDGE( '', *, *, #307, .F. );
#215 = ORIENTED_EDGE( '', *, *, #308, .T. );
#216 = CARTESIAN_POINT( '', ( -8.18747258179450E-018, 0.000000000000000, 25.5000000000000 ) );
#217 = DIRECTION( '', ( 6.42154712297608E-019, -0.000000000000000, -1.00000000000000 ) );
#218 = DIRECTION( '', ( 1.00000000000000, 0.000000000000000, 6.42154712297608E-019 ) );
#219 = SURFACE_STYLE_FILL_AREA( #309 );
#220 = ORIENTED_EDGE( '', *, *, #308, .F. );
#221 = CARTESIAN_POINT( '', ( 3.85763741731417E-015, 0.000000000000000, 5.00000000000000 ) );
#222 = DIRECTION( '', ( -6.42154712297608E-019, 0.000000000000000, 1.00000000000000 ) );
#223 = DIRECTION( '', ( -1.00000000000000, 0.000000000000000, -6.42154712297608E-019 ) );
#224 = SURFACE_STYLE_FILL_AREA( #310 );
#225 = ORIENTED_EDGE( '', *, *, #311, .F. );
#226 = ORIENTED_EDGE( '', *, *, #297, .F. );
#227 = ORIENTED_EDGE( '', *, *, #312, .F. );
#228 = ORIENTED_EDGE( '', *, *, #313, .F. );
#229 = CARTESIAN_POINT( '', ( -1.52511744170682E-017, 0.000000000000000, 36.5000000000000 ) );
#230 = DIRECTION( '', ( 6.42154712297608E-019, -0.000000000000000, -1.00000000000000 ) );
#231 = DIRECTION( '', ( -1.00000000000000, 0.000000000000000, -6.42154712297608E-019 ) );
#232 = SURFACE_STYLE_FILL_AREA( #314 );
#233 = ORIENTED_EDGE( '', *, *, #315, .F. );
#234 = ORIENTED_EDGE( '', *, *, #307, .T. );
#235 = CARTESIAN_POINT( '', ( 5.00000000000000, 0.000000000000000, 6.50000000000000 ) );
#236 = DIRECTION( '', ( -6.42154712297608E-019, 0.000000000000000, 1.00000000000000 ) );
#237 = DIRECTION( '', ( 1.00000000000000, 0.000000000000000, 6.42154712297608E-019 ) );
#238 = SURFACE_STYLE_FILL_AREA( #316 );
#239 = ORIENTED_EDGE( '', *, *, #317, .T. );
#240 = ORIENTED_EDGE( '', *, *, #318, .T. );
#241 = CARTESIAN_POINT( '', ( 6.00000000000000, 0.000000000000000, 8.00000000000000 ) );
#242 = DIRECTION( '', ( -6.42154712297608E-019, 0.000000000000000, 1.00000000000000 ) );
#243 = DIRECTION( '', ( 1.00000000000000, 0.000000000000000, 6.42154712297608E-019 ) );
#244 = SURFACE_STYLE_FILL_AREA( #319 );
#245 = ORIENTED_EDGE( '', *, *, #320, .T. );
#246 = ORIENTED_EDGE( '', *, *, #313, .T. );
#247 = CARTESIAN_POINT( '', ( 10.0000000000000, 0.000000000000000, 36.5000000000000 ) );
#248 = DIRECTION( '', ( 6.42154712297608E-019, 0.000000000000000, -1.00000000000000 ) );
#249 = DIRECTION( '', ( -1.00000000000000, 0.000000000000000, -6.42154712297608E-019 ) );
#250 = SURFACE_STYLE_FILL_AREA( #321 );
#251 = ORIENTED_EDGE( '', *, *, #320, .F. );
#252 = ORIENTED_EDGE( '', *, *, #312, .T. );
#253 = ORIENTED_EDGE( '', *, *, #296, .T. );
#254 = ORIENTED_EDGE( '', *, *, #301, .T. );
#255 = ORIENTED_EDGE( '', *, *, #298, .T. );
#256 = ORIENTED_EDGE( '', *, *, #311, .T. );
#257 = CARTESIAN_POINT( '', ( -1.00000000000000, -12.5000000000000, 36.5000000000000 ) );
#258 = DIRECTION( '', ( 1.00000000000000, 0.000000000000000, 8.67361737988403E-017 ) );
#259 = DIRECTION( '', ( 8.67361737988403E-017, 0.000000000000000, -1.00000000000000 ) );
#260 = SURFACE_STYLE_FILL_AREA( #322 );
#261 = ORIENTED_EDGE( '', *, *, #318, .F. );
#262 = ORIENTED_EDGE( '', *, *, #315, .T. );
#263 = CARTESIAN_POINT( '', ( -8.18747258179450E-018, 0.000000000000000, 25.5000000000000 ) );
#264 = DIRECTION( '', ( 6.42154712297608E-019, -0.000000000000000, -1.00000000000000 ) );
#265 = DIRECTION( '', ( 1.00000000000000, 0.000000000000000, 6.42154712297608E-019 ) );
#266 = SURFACE_STYLE_FILL_AREA( #323 );
#267 = ORIENTED_EDGE( '', *, *, #304, .T. );
#268 = ORIENTED_EDGE( '', *, *, #324, .T. );
#269 = ORIENTED_EDGE( '', *, *, #292, .T. );
#270 = ORIENTED_EDGE( '', *, *, #302, .F. );
#271 = ORIENTED_EDGE( '', *, *, #294, .T. );
#272 = ORIENTED_EDGE( '', *, *, #325, .T. );
#273 = CARTESIAN_POINT( '', ( 1.00000000000000, -12.5000000000000, 34.0000000000000 ) );
#274 = DIRECTION( '', ( -1.00000000000000, 0.000000000000000, 8.67361737988403E-017 ) );
#275 = DIRECTION( '', ( 8.67361737988403E-017, 0.000000000000000, 1.00000000000000 ) );
#276 = SURFACE_STYLE_FILL_AREA( #326 );
#277 = ORIENTED_EDGE( '', *, *, #325, .F. );
#278 = ORIENTED_EDGE( '', *, *, #293, .F. );
#279 = ORIENTED_EDGE( '', *, *, #324, .F. );
#280 = ORIENTED_EDGE( '', *, *, #305, .F. );
#281 = CARTESIAN_POINT( '', ( -1.52511744170682E-017, 0.000000000000000, 36.5000000000000 ) );
#282 = DIRECTION( '', ( 6.42154712297608E-019, -0.000000000000000, -1.00000000000000 ) );
#283 = DIRECTION( '', ( -1.00000000000000, 0.000000000000000, -6.42154712297608E-019 ) );
#284 = SURFACE_STYLE_FILL_AREA( #327 );
#285 = ORIENTED_EDGE( '', *, *, #317, .F. );
#286 = ORIENTED_EDGE( '', *, *, #291, .F. );
#287 = CARTESIAN_POINT( '', ( 1.12377074652081E-018, 0.000000000000000, 11.0000000000000 ) );
#288 = DIRECTION( '', ( -6.42154712297608E-019, 0.000000000000000, 1.00000000000000 ) );
#289 = DIRECTION( '', ( 1.00000000000000, 0.000000000000000, 6.42154712297608E-019 ) );
#290 = FILL_AREA_STYLE( '', ( #328 ) );
#291 = EDGE_CURVE( '', #329, #329, #330, .T. );
#292 = EDGE_CURVE( '', #331, #332, #333, .F. );
#293 = EDGE_CURVE( '', #331, #334, #335, .T. );
#294 = EDGE_CURVE( '', #336, #334, #337, .T. );
#295 = EDGE_CURVE( '', #338, #336, #339, .T. );
#296 = EDGE_CURVE( '', #340, #338, #341, .F. );
#297 = EDGE_CURVE( '', #340, #342, #343, .T. );
#298 = EDGE_CURVE( '', #344, #342, #345, .T. );
#299 = EDGE_CURVE( '', #332, #344, #346, .T. );
#300 = FILL_AREA_STYLE( '', ( #347 ) );
#301 = EDGE_CURVE( '', #338, #344, #348, .T. );
#302 = EDGE_CURVE( '', #336, #332, #349, .T. );
#303 = FILL_AREA_STYLE( '', ( #350 ) );
#304 = EDGE_CURVE( '', #351, #352, #353, .T. );
#305 = EDGE_CURVE( '', #351, #352, #354, .F. );
#306 = FILL_AREA_STYLE( '', ( #355 ) );
#307 = EDGE_CURVE( '', #356, #356, #357, .T. );
#308 = EDGE_CURVE( '', #358, #358, #359, .T. );
#309 = FILL_AREA_STYLE( '', ( #360 ) );
#310 = FILL_AREA_STYLE( '', ( #361 ) );
#311 = EDGE_CURVE( '', #342, #362, #363, .T. );
#312 = EDGE_CURVE( '', #364, #340, #365, .T. );
#313 = EDGE_CURVE( '', #362, #364, #366, .F. );
#314 = FILL_AREA_STYLE( '', ( #367 ) );
#315 = EDGE_CURVE( '', #368, #368, #369, .T. );
#316 = FILL_AREA_STYLE( '', ( #370 ) );
#317 = EDGE_CURVE( '', #371, #371, #372, .F. );
#318 = EDGE_CURVE( '', #373, #373, #374, .T. );
#319 = FILL_AREA_STYLE( '', ( #375 ) );
#320 = EDGE_CURVE( '', #364, #362, #376, .T. );
#321 = FILL_AREA_STYLE( '', ( #377 ) );
#322 = FILL_AREA_STYLE( '', ( #378 ) );
#323 = FILL_AREA_STYLE( '', ( #379 ) );
#324 = EDGE_CURVE( '', #352, #331, #380, .T. );
#325 = EDGE_CURVE( '', #334, #351, #381, .T. );
#326 = FILL_AREA_STYLE( '', ( #382 ) );
#327 = FILL_AREA_STYLE( '', ( #383 ) );
#328 = FILL_AREA_STYLE_COLOUR( '', #384 );
#329 = VERTEX_POINT( '', #385 );
#330 = CIRCLE( '', #386, 10.0000000000000 );
#331 = VERTEX_POINT( '', #387 );
#332 = VERTEX_POINT( '', #388 );
#333 = LINE( '', #389, #390 );
#334 = VERTEX_POINT( '', #391 );
#335 = CIRCLE( '', #392, 10.0000000000000 );
#336 = VERTEX_POINT( '', #393 );
#337 = LINE( '', #394, #395 );
#338 = VERTEX_POINT( '', #396 );
#339 = CIRCLE( '', #397, 10.0000000000000 );
#340 = VERTEX_POINT( '', #398 );
#341 = LINE( '', #399, #400 );
#342 = VERTEX_POINT( '', #401 );
#343 = CIRCLE( '', #402, 10.0000000000000 );
#344 = VERTEX_POINT( '', #403 );
#345 = LINE( '', #404, #405 );
#346 = CIRCLE( '', #406, 10.0000000000000 );
#347 = FILL_AREA_STYLE_COLOUR( '', #407 );
#348 = LINE( '', #408, #409 );
#349 = LINE( '', #410, #411 );
#350 = FILL_AREA_STYLE_COLOUR( '', #412 );
#351 = VERTEX_POINT( '', #413 );
#352 = VERTEX_POINT( '', #414 );
#353 = LINE( '', #415, #416 );
#354 = CIRCLE( '', #417, 8.50000000000000 );
#355 = FILL_AREA_STYLE_COLOUR( '', #418 );
#356 = VERTEX_POINT( '', #419 );
#357 = CIRCLE( '', #420, 5.00000000000000 );
#358 = VERTEX_POINT( '', #421 );
#359 = CIRCLE( '', #422, 5.00000000000000 );
#360 = FILL_AREA_STYLE_COLOUR( '', #423 );
#361 = FILL_AREA_STYLE_COLOUR( '', #424 );
#362 = VERTEX_POINT( '', #425 );
#363 = B_SPLINE_CURVE_WITH_KNOTS( '', 3, ( #426, #427, #428, #429 ), .UNSPECIFIED., .F., .F., ( 4, 4 ), ( 0.000000000000000, 0.00212762493169426 ), .UNSPECIFIED. );
#364 = VERTEX_POINT( '', #430 );
#365 = B_SPLINE_CURVE_WITH_KNOTS( '', 3, ( #431, #432, #433, #434 ), .UNSPECIFIED., .F., .F., ( 4, 4 ), ( 8.67361737988404E-018, 0.00212762493169425 ), .UNSPECIFIED. );
#366 = CIRCLE( '', #435, 8.50000000000000 );
#367 = FILL_AREA_STYLE_COLOUR( '', #436 );
#368 = VERTEX_POINT( '', #437 );
#369 = CIRCLE( '', #438, 6.00000000000000 );
#370 = FILL_AREA_STYLE_COLOUR( '', #439 );
#371 = VERTEX_POINT( '', #440 );
#372 = CIRCLE( '', #441, 7.00000000000000 );
#373 = VERTEX_POINT( '', #442 );
#374 = CIRCLE( '', #443, 6.00000000000000 );
#375 = FILL_AREA_STYLE_COLOUR( '', #444 );
#376 = LINE( '', #445, #446 );
#377 = FILL_AREA_STYLE_COLOUR( '', #447 );
#378 = FILL_AREA_STYLE_COLOUR( '', #448 );
#379 = FILL_AREA_STYLE_COLOUR( '', #449 );
#380 = B_SPLINE_CURVE_WITH_KNOTS( '', 3, ( #450, #451, #452, #453 ), .UNSPECIFIED., .F., .F., ( 4, 4 ), ( 0.000000000000000, 0.00212762493169425 ), .UNSPECIFIED. );
#381 = B_SPLINE_CURVE_WITH_KNOTS( '', 3, ( #454, #455, #456, #457 ), .UNSPECIFIED., .F., .F., ( 4, 4 ), ( 0.000000000000000, 0.00212762493169425 ), .UNSPECIFIED. );
#382 = FILL_AREA_STYLE_COLOUR( '', #458 );
#383 = FILL_AREA_STYLE_COLOUR( '', #459 );
#384 = COLOUR_RGB( '', 0.752941191196442, 0.752941191196442, 0.752941191196442 );
#385 = CARTESIAN_POINT( '', ( 10.0000000000000, 0.000000000000000, 11.0000000000000 ) );
#386 = AXIS2_PLACEMENT_3D( '', #460, #461, #462 );
#387 = CARTESIAN_POINT( '', ( 1.00000000000000, 9.94987437106620, 35.0000000000000 ) );
#388 = CARTESIAN_POINT( '', ( 1.00000000000000, 9.94987437106620, 34.0000000000000 ) );
#389 = CARTESIAN_POINT( '', ( 1.00000000000000, 9.94987437106620, 25.5000000000000 ) );
#390 = VECTOR( '', #463, 1000.00000000000 );
#391 = CARTESIAN_POINT( '', ( 1.00000000000000, -9.94987437106620, 35.0000000000000 ) );
#392 = AXIS2_PLACEMENT_3D( '', #464, #465, #466 );
#393 = CARTESIAN_POINT( '', ( 1.00000000000000, -9.94987437106620, 34.0000000000000 ) );
#394 = CARTESIAN_POINT( '', ( 1.00000000000000, -9.94987437106620, 25.5000000000000 ) );
#395 = VECTOR( '', #467, 1000.00000000000 );
#396 = CARTESIAN_POINT( '', ( -1.00000000000000, -9.94987437106620, 34.0000000000000 ) );
#397 = AXIS2_PLACEMENT_3D( '', #468, #469, #470 );
#398 = CARTESIAN_POINT( '', ( -1.00000000000000, -9.94987437106620, 35.0000000000000 ) );
#399 = CARTESIAN_POINT( '', ( -1.00000000000000, -9.94987437106620, 25.5000000000000 ) );
#400 = VECTOR( '', #471, 1000.00000000000 );
#401 = CARTESIAN_POINT( '', ( -1.00000000000000, 9.94987437106620, 35.0000000000000 ) );
#402 = AXIS2_PLACEMENT_3D( '', #472, #473, #474 );
#403 = CARTESIAN_POINT( '', ( -1.00000000000000, 9.94987437106620, 34.0000000000000 ) );
#404 = CARTESIAN_POINT( '', ( -1.00000000000000, 9.94987437106620, 25.5000000000000 ) );
#405 = VECTOR( '', #475, 1000.00000000000 );
#406 = AXIS2_PLACEMENT_3D( '', #476, #477, #478 );
#407 = COLOUR_RGB( '', 0.200000002980232, 0.200000002980232, 0.200000002980232 );
#408 = CARTESIAN_POINT( '', ( -1.00000000000000, -12.5000000000000, 34.0000000000000 ) );
#409 = VECTOR( '', #479, 1000.00000000000 );
#410 = CARTESIAN_POINT( '', ( 1.00000000000000, -12.5000000000000, 34.0000000000000 ) );
#411 = VECTOR( '', #480, 1000.00000000000 );
#412 = COLOUR_RGB( '', 0.200000002980232, 0.200000002980232, 0.200000002980232 );
#413 = CARTESIAN_POINT( '', ( 1.00000000000000, -8.44097150806707, 36.5000000000000 ) );
#414 = CARTESIAN_POINT( '', ( 1.00000000000000, 8.44097150806707, 36.5000000000000 ) );
#415 = CARTESIAN_POINT( '', ( 1.00000000000000, -12.5000000000000, 36.5000000000000 ) );
#416 = VECTOR( '', #481, 1000.00000000000 );
#417 = AXIS2_PLACEMENT_3D( '', #482, #483, #484 );
#418 = COLOUR_RGB( '', 0.200000002980232, 0.200000002980232, 0.200000002980232 );
#419 = CARTESIAN_POINT( '', ( 5.00000000000000, 0.000000000000000, 6.50000000000000 ) );
#420 = AXIS2_PLACEMENT_3D( '', #485, #486, #487 );
#421 = CARTESIAN_POINT( '', ( 5.00000000000000, 0.000000000000000, 5.00000000000000 ) );
#422 = AXIS2_PLACEMENT_3D( '', #488, #489, #490 );
#423 = COLOUR_RGB( '', 0.200000002980232, 0.200000002980232, 0.200000002980232 );
#424 = COLOUR_RGB( '', 0.200000002980232, 0.200000002980232, 0.200000002980232 );
#425 = CARTESIAN_POINT( '', ( -1.00000000000000, 8.44097150806706, 36.5000000000000 ) );
#426 = CARTESIAN_POINT( '', ( -1.00000000000000, 9.94987437106620, 35.0000000000000 ) );
#427 = CARTESIAN_POINT( '', ( -1.00000000000000, 9.44712992927114, 35.5002244036613 ) );
#428 = CARTESIAN_POINT( '', ( -1.00000000000000, 8.94420181815806, 36.0002643871207 ) );
#429 = CARTESIAN_POINT( '', ( -1.00000000000000, 8.44097150806707, 36.5000000000000 ) );
#430 = CARTESIAN_POINT( '', ( -1.00000000000000, -8.44097150806706, 36.5000000000000 ) );
#431 = CARTESIAN_POINT( '', ( -1.00000000000000, -8.44097150806707, 36.5000000000000 ) );
#432 = CARTESIAN_POINT( '', ( -1.00000000000000, -8.94420181815806, 36.0002643871207 ) );
#433 = CARTESIAN_POINT( '', ( -1.00000000000000, -9.44712992927114, 35.5002244036613 ) );
#434 = CARTESIAN_POINT( '', ( -1.00000000000000, -9.94987437106620, 35.0000000000000 ) );
#435 = AXIS2_PLACEMENT_3D( '', #491, #492, #493 );
#436 = COLOUR_RGB( '', 0.200000002980232, 0.200000002980232, 0.200000002980232 );
#437 = CARTESIAN_POINT( '', ( 6.00000000000000, 0.000000000000000, 6.50000000000000 ) );
#438 = AXIS2_PLACEMENT_3D( '', #494, #495, #496 );
#439 = COLOUR_RGB( '', 0.200000002980232, 0.200000002980232, 0.200000002980232 );
#440 = CARTESIAN_POINT( '', ( 7.00000000000000, 0.000000000000000, 8.00000000000000 ) );
#441 = AXIS2_PLACEMENT_3D( '', #497, #498, #499 );
#442 = CARTESIAN_POINT( '', ( 6.00000000000000, 0.000000000000000, 8.00000000000000 ) );
#443 = AXIS2_PLACEMENT_3D( '', #500, #501, #502 );
#444 = COLOUR_RGB( '', 0.200000002980232, 0.200000002980232, 0.200000002980232 );
#445 = CARTESIAN_POINT( '', ( -1.00000000000000, -12.5000000000000, 36.5000000000000 ) );
#446 = VECTOR( '', #503, 1000.00000000000 );
#447 = COLOUR_RGB( '', 0.200000002980232, 0.200000002980232, 0.200000002980232 );
#448 = COLOUR_RGB( '', 0.200000002980232, 0.200000002980232, 0.200000002980232 );
#449 = COLOUR_RGB( '', 0.200000002980232, 0.200000002980232, 0.200000002980232 );
#450 = CARTESIAN_POINT( '', ( 1.00000000000000, 8.44097150806707, 36.5000000000000 ) );
#451 = CARTESIAN_POINT( '', ( 1.00000000000000, 8.94420181815806, 36.0002643871207 ) );
#452 = CARTESIAN_POINT( '', ( 1.00000000000000, 9.44712992927114, 35.5002244036613 ) );
#453 = CARTESIAN_POINT( '', ( 1.00000000000000, 9.94987437106620, 35.0000000000000 ) );
#454 = CARTESIAN_POINT( '', ( 1.00000000000000, -9.94987437106620, 35.0000000000000 ) );
#455 = CARTESIAN_POINT( '', ( 1.00000000000000, -9.44712992927114, 35.5002244036613 ) );
#456 = CARTESIAN_POINT( '', ( 1.00000000000000, -8.94420181815806, 36.0002643871207 ) );
#457 = CARTESIAN_POINT( '', ( 1.00000000000000, -8.44097150806707, 36.5000000000000 ) );
#458 = COLOUR_RGB( '', 0.200000002980232, 0.200000002980232, 0.200000002980232 );
#459 = COLOUR_RGB( '', 0.200000002980232, 0.200000002980232, 0.200000002980232 );
#460 = CARTESIAN_POINT( '', ( 1.12377074652081E-018, 0.000000000000000, 11.0000000000000 ) );
#461 = DIRECTION( '', ( -6.42154712297608E-019, 0.000000000000000, 1.00000000000000 ) );
#462 = DIRECTION( '', ( 1.00000000000000, 0.000000000000000, 6.42154712297608E-019 ) );
#463 = DIRECTION( '', ( -6.42154712297608E-019, 0.000000000000000, 1.00000000000000 ) );
#464 = CARTESIAN_POINT( '', ( -1.42879423486218E-017, 0.000000000000000, 35.0000000000000 ) );
#465 = DIRECTION( '', ( 6.42154712297608E-019, 0.000000000000000, -1.00000000000000 ) );
#466 = DIRECTION( '', ( -1.00000000000000, 0.000000000000000, -6.42154712297608E-019 ) );
#467 = DIRECTION( '', ( -6.42154712297608E-019, 0.000000000000000, 1.00000000000000 ) );
#468 = CARTESIAN_POINT( '', ( -1.36457876363242E-017, 0.000000000000000, 34.0000000000000 ) );
#469 = DIRECTION( '', ( 0.000000000000000, 0.000000000000000, 1.00000000000000 ) );
#470 = DIRECTION( '', ( 1.00000000000000, 0.000000000000000, 0.000000000000000 ) );
#471 = DIRECTION( '', ( -6.42154712297608E-019, 0.000000000000000, 1.00000000000000 ) );
#472 = CARTESIAN_POINT( '', ( -1.42879423486218E-017, 0.000000000000000, 35.0000000000000 ) );
#473 = DIRECTION( '', ( 6.42154712297608E-019, 0.000000000000000, -1.00000000000000 ) );
#474 = DIRECTION( '', ( -1.00000000000000, 0.000000000000000, -6.42154712297608E-019 ) );
#475 = DIRECTION( '', ( -6.42154712297608E-019, 0.000000000000000, 1.00000000000000 ) );
#476 = CARTESIAN_POINT( '', ( -1.36457876363242E-017, 0.000000000000000, 34.0000000000000 ) );
#477 = DIRECTION( '', ( 0.000000000000000, 0.000000000000000, 1.00000000000000 ) );
#478 = DIRECTION( '', ( 1.00000000000000, 0.000000000000000, 0.000000000000000 ) );
#479 = DIRECTION( '', ( 0.000000000000000, 1.00000000000000, 0.000000000000000 ) );
#480 = DIRECTION( '', ( 0.000000000000000, 1.00000000000000, 0.000000000000000 ) );
#481 = DIRECTION( '', ( 0.000000000000000, 1.00000000000000, 0.000000000000000 ) );
#482 = CARTESIAN_POINT( '', ( -1.52511744170682E-017, 0.000000000000000, 36.5000000000000 ) );
#483 = DIRECTION( '', ( 6.42154712297608E-019, 0.000000000000000, -1.00000000000000 ) );
#484 = DIRECTION( '', ( -1.00000000000000, 0.000000000000000, -6.42154712297608E-019 ) );
#485 = CARTESIAN_POINT( '', ( 4.01346695186005E-018, 0.000000000000000, 6.50000000000000 ) );
#486 = DIRECTION( '', ( -6.42154712297608E-019, 0.000000000000000, 1.00000000000000 ) );
#487 = DIRECTION( '', ( 1.00000000000000, 0.000000000000000, 6.42154712297608E-019 ) );
#488 = CARTESIAN_POINT( '', ( 4.97669902030646E-018, 0.000000000000000, 5.00000000000000 ) );
#489 = DIRECTION( '', ( -6.42154712297608E-019, 0.000000000000000, 1.00000000000000 ) );
#490 = DIRECTION( '', ( 1.00000000000000, 0.000000000000000, 6.42154712297608E-019 ) );
#491 = CARTESIAN_POINT( '', ( -1.52511744170682E-017, 0.000000000000000, 36.5000000000000 ) );
#492 = DIRECTION( '', ( 6.42154712297608E-019, 0.000000000000000, -1.00000000000000 ) );
#493 = DIRECTION( '', ( -1.00000000000000, 0.000000000000000, -6.42154712297608E-019 ) );
#494 = CARTESIAN_POINT( '', ( 4.01346695186005E-018, 0.000000000000000, 6.50000000000000 ) );
#495 = DIRECTION( '', ( -6.42154712297608E-019, 0.000000000000000, 1.00000000000000 ) );
#496 = DIRECTION( '', ( 1.00000000000000, 0.000000000000000, 6.42154712297608E-019 ) );
#497 = CARTESIAN_POINT( '', ( 3.05023488341363E-018, 0.000000000000000, 8.00000000000000 ) );
#498 = DIRECTION( '', ( -6.42154712297608E-019, 0.000000000000000, 1.00000000000000 ) );
#499 = DIRECTION( '', ( 1.00000000000000, 0.000000000000000, 6.42154712297608E-019 ) );
#500 = CARTESIAN_POINT( '', ( 3.05023488341364E-018, 0.000000000000000, 8.00000000000000 ) );
#501 = DIRECTION( '', ( -6.42154712297608E-019, 0.000000000000000, 1.00000000000000 ) );
#502 = DIRECTION( '', ( 1.00000000000000, 0.000000000000000, 6.42154712297608E-019 ) );
#503 = DIRECTION( '', ( 0.000000000000000, 1.00000000000000, 0.000000000000000 ) );
ENDSEC;
END-ISO-10303-21;
