ISO-10303-21;
HEADER;
FILE_DESCRIPTION( ( 'Unknown' ), '1' );
FILE_NAME( '//SBS2003/HD_Usb/Disegni/08_LIB/Users_3D/PROD_GAMM_3D/APP-A/7747345_APP_34_A.stp', 'Unknown', ( 'Unknown' ), ( 'Unknown' ), 'PSStep 14.0', 'Unknown', '  ' );
FILE_SCHEMA( ( 'AUTOMOTIVE_DESIGN { 1 0 10303 214 1 1 1 1 }' ) );
ENDSEC;
DATA;
#1 = MECHANICAL_DESIGN_GEOMETRIC_PRESENTATION_REPRESENTATION( ' ', ( #10, #11, #12, #13, #14, #15, #16, #17, #18, #19, #20, #21, #22, #23 ), #6 );
#2 = PRODUCT_DEFINITION_CONTEXT( '', #24, 'design' );
#3 = APPLICATION_PROTOCOL_DEFINITION( 'international standard', 'automotive_design', 2001, #24 );
#4 = PRODUCT_CATEGORY_RELATIONSHIP( 'NONE', 'NONE', #25, #26 );
#5 = SHAPE_DEFINITION_REPRESENTATION( #27, #28 );
#6 =  ( GEOMETRIC_REPRESENTATION_CONTEXT( 3 )GLOBAL_UNCERTAINTY_ASSIGNED_CONTEXT( ( #31 ) )GLOBAL_UNIT_ASSIGNED_CONTEXT( ( #33, #34, #35 ) )REPRESENTATION_CONTEXT( 'NONE', 'WORKSPACE' ) );
#10 = STYLED_ITEM( '', ( #37 ), #38 );
#11 = STYLED_ITEM( '', ( #39 ), #40 );
#12 = STYLED_ITEM( '', ( #41 ), #42 );
#13 = STYLED_ITEM( '', ( #43 ), #44 );
#14 = STYLED_ITEM( '', ( #45 ), #46 );
#15 = STYLED_ITEM( '', ( #47 ), #48 );
#16 = STYLED_ITEM( '', ( #49 ), #50 );
#17 = STYLED_ITEM( '', ( #51 ), #52 );
#18 = STYLED_ITEM( '', ( #53 ), #54 );
#19 = STYLED_ITEM( '', ( #55 ), #56 );
#20 = STYLED_ITEM( '', ( #57 ), #58 );
#21 = STYLED_ITEM( '', ( #59 ), #60 );
#22 = STYLED_ITEM( '', ( #61 ), #62 );
#23 = STYLED_ITEM( '', ( #63 ), #64 );
#24 = APPLICATION_CONTEXT( 'core data for automotive mechanical design processes' );
#25 = PRODUCT_CATEGORY( 'part', 'NONE' );
#26 = PRODUCT_RELATED_PRODUCT_CATEGORY( 'detail', ' ', ( #65 ) );
#27 = PRODUCT_DEFINITION_SHAPE( 'NONE', 'NONE', #66 );
#28 = ADVANCED_BREP_SHAPE_REPRESENTATION( '1', ( #67, #68 ), #6 );
#31 = UNCERTAINTY_MEASURE_WITH_UNIT( LENGTH_MEASURE( 0.00100000000000000 ), #33, '', '' );
#33 =  ( CONVERSION_BASED_UNIT( 'MILLIMETRE', #71 )LENGTH_UNIT(  )NAMED_UNIT( #74 ) );
#34 =  ( NAMED_UNIT( #76 )PLANE_ANGLE_UNIT(  )SI_UNIT( $, .RADIAN. ) );
#35 =  ( NAMED_UNIT( #76 )SI_UNIT( $, .STERADIAN. )SOLID_ANGLE_UNIT(  ) );
#37 = PRESENTATION_STYLE_ASSIGNMENT( ( #82 ) );
#38 = ADVANCED_FACE( '', ( #83 ), #84, .T. );
#39 = PRESENTATION_STYLE_ASSIGNMENT( ( #85 ) );
#40 = ADVANCED_FACE( '', ( #86, #87 ), #88, .T. );
#41 = PRESENTATION_STYLE_ASSIGNMENT( ( #89 ) );
#42 = ADVANCED_FACE( '', ( #90, #91 ), #92, .T. );
#43 = PRESENTATION_STYLE_ASSIGNMENT( ( #93 ) );
#44 = ADVANCED_FACE( '', ( #94 ), #95, .T. );
#45 = PRESENTATION_STYLE_ASSIGNMENT( ( #96 ) );
#46 = ADVANCED_FACE( '', ( #97 ), #98, .T. );
#47 = PRESENTATION_STYLE_ASSIGNMENT( ( #99 ) );
#48 = ADVANCED_FACE( '', ( #100 ), #101, .F. );
#49 = PRESENTATION_STYLE_ASSIGNMENT( ( #102 ) );
#50 = ADVANCED_FACE( '', ( #103, #104 ), #105, .F. );
#51 = PRESENTATION_STYLE_ASSIGNMENT( ( #106 ) );
#52 = ADVANCED_FACE( '', ( #107 ), #108, .T. );
#53 = PRESENTATION_STYLE_ASSIGNMENT( ( #109 ) );
#54 = ADVANCED_FACE( '', ( #110, #111 ), #112, .F. );
#55 = PRESENTATION_STYLE_ASSIGNMENT( ( #113 ) );
#56 = ADVANCED_FACE( '', ( #114 ), #115, .T. );
#57 = PRESENTATION_STYLE_ASSIGNMENT( ( #116 ) );
#58 = ADVANCED_FACE( '', ( #117 ), #118, .T. );
#59 = PRESENTATION_STYLE_ASSIGNMENT( ( #119 ) );
#60 = ADVANCED_FACE( '', ( #120, #121 ), #122, .T. );
#61 = PRESENTATION_STYLE_ASSIGNMENT( ( #123 ) );
#62 = ADVANCED_FACE( '', ( #124, #125 ), #126, .T. );
#63 = PRESENTATION_STYLE_ASSIGNMENT( ( #127 ) );
#64 = ADVANCED_FACE( '', ( #128 ), #129, .F. );
#65 = PRODUCT( '1', '1', 'PART-1-DESC', ( #130 ) );
#66 = PRODUCT_DEFINITION( 'NONE', 'NONE', #131, #2 );
#67 = MANIFOLD_SOLID_BREP( '1', #132 );
#68 = AXIS2_PLACEMENT_3D( '', #133, #134, #135 );
#71 = LENGTH_MEASURE_WITH_UNIT( LENGTH_MEASURE( 1.00000000000000 ), #136 );
#74 = DIMENSIONAL_EXPONENTS( 1.00000000000000, 0.000000000000000, 0.000000000000000, 0.000000000000000, 0.000000000000000, 0.000000000000000, 0.000000000000000 );
#76 = DIMENSIONAL_EXPONENTS( 0.000000000000000, 0.000000000000000, 0.000000000000000, 0.000000000000000, 0.000000000000000, 0.000000000000000, 0.000000000000000 );
#82 = SURFACE_STYLE_USAGE( .BOTH., #137 );
#83 = FACE_OUTER_BOUND( '', #138, .T. );
#84 = PLANE( '', #139 );
#85 = SURFACE_STYLE_USAGE( .BOTH., #140 );
#86 = FACE_BOUND( '', #141, .T. );
#87 = FACE_OUTER_BOUND( '', #142, .T. );
#88 = CONICAL_SURFACE( '', #143, 12.0000000000000, 0.785398163397448 );
#89 = SURFACE_STYLE_USAGE( .BOTH., #144 );
#90 = FACE_OUTER_BOUND( '', #145, .T. );
#91 = FACE_OUTER_BOUND( '', #146, .T. );
#92 = CYLINDRICAL_SURFACE( '', #147, 6.00000000000000 );
#93 = SURFACE_STYLE_USAGE( .BOTH., #148 );
#94 = FACE_OUTER_BOUND( '', #149, .T. );
#95 = CONICAL_SURFACE( '', #150, 10.5000000000000, 0.785398163397448 );
#96 = SURFACE_STYLE_USAGE( .BOTH., #151 );
#97 = FACE_OUTER_BOUND( '', #152, .T. );
#98 = SPHERICAL_SURFACE( '', #153, 6.00000000000000 );
#99 = SURFACE_STYLE_USAGE( .BOTH., #154 );
#100 = FACE_OUTER_BOUND( '', #155, .T. );
#101 = PLANE( '', #156 );
#102 = SURFACE_STYLE_USAGE( .BOTH., #157 );
#103 = FACE_OUTER_BOUND( '', #158, .T. );
#104 = FACE_BOUND( '', #159, .T. );
#105 = PLANE( '', #160 );
#106 = SURFACE_STYLE_USAGE( .BOTH., #161 );
#107 = FACE_OUTER_BOUND( '', #162, .T. );
#108 = PLANE( '', #163 );
#109 = SURFACE_STYLE_USAGE( .BOTH., #164 );
#110 = FACE_OUTER_BOUND( '', #165, .T. );
#111 = FACE_BOUND( '', #166, .T. );
#112 = PLANE( '', #167 );
#113 = SURFACE_STYLE_USAGE( .BOTH., #168 );
#114 = FACE_OUTER_BOUND( '', #169, .T. );
#115 = CONICAL_SURFACE( '', #170, 10.5000000000000, 0.785398163397448 );
#116 = SURFACE_STYLE_USAGE( .BOTH., #171 );
#117 = FACE_OUTER_BOUND( '', #172, .T. );
#118 = PLANE( '', #173 );
#119 = SURFACE_STYLE_USAGE( .BOTH., #174 );
#120 = FACE_OUTER_BOUND( '', #175, .T. );
#121 = FACE_OUTER_BOUND( '', #176, .T. );
#122 = CYLINDRICAL_SURFACE( '', #177, 12.0000000000000 );
#123 = SURFACE_STYLE_USAGE( .BOTH., #178 );
#124 = FACE_OUTER_BOUND( '', #179, .T. );
#125 = FACE_OUTER_BOUND( '', #180, .T. );
#126 = CYLINDRICAL_SURFACE( '', #181, 7.00000000000000 );
#127 = SURFACE_STYLE_USAGE( .BOTH., #182 );
#128 = FACE_OUTER_BOUND( '', #183, .T. );
#129 = PLANE( '', #184 );
#130 = PRODUCT_CONTEXT( '', #24, 'mechanical' );
#131 = PRODUCT_DEFINITION_FORMATION_WITH_SPECIFIED_SOURCE( ' ', 'NONE', #65, .NOT_KNOWN. );
#132 = CLOSED_SHELL( '', ( #60, #44, #52, #38, #56, #40, #42, #54, #64, #62, #50, #46, #48, #58 ) );
#133 = CARTESIAN_POINT( '', ( 0.000000000000000, 0.000000000000000, 0.000000000000000 ) );
#134 = DIRECTION( '', ( 0.000000000000000, 0.000000000000000, 1.00000000000000 ) );
#135 = DIRECTION( '', ( 1.00000000000000, 0.000000000000000, 0.000000000000000 ) );
#136 =  ( LENGTH_UNIT(  )NAMED_UNIT( #74 )SI_UNIT( .MILLI., .METRE. ) );
#137 = SURFACE_SIDE_STYLE( '', ( #186 ) );
#138 = EDGE_LOOP( '', ( #187, #188, #189, #190, #191, #192 ) );
#139 = AXIS2_PLACEMENT_3D( '', #193, #194, #195 );
#140 = SURFACE_SIDE_STYLE( '', ( #196 ) );
#141 = EDGE_LOOP( '', ( #197 ) );
#142 = EDGE_LOOP( '', ( #198 ) );
#143 = AXIS2_PLACEMENT_3D( '', #199, #200, #201 );
#144 = SURFACE_SIDE_STYLE( '', ( #202 ) );
#145 = EDGE_LOOP( '', ( #203 ) );
#146 = EDGE_LOOP( '', ( #204 ) );
#147 = AXIS2_PLACEMENT_3D( '', #205, #206, #207 );
#148 = SURFACE_SIDE_STYLE( '', ( #208 ) );
#149 = EDGE_LOOP( '', ( #209, #210, #211, #212 ) );
#150 = AXIS2_PLACEMENT_3D( '', #213, #214, #215 );
#151 = SURFACE_SIDE_STYLE( '', ( #216 ) );
#152 = EDGE_LOOP( '', ( #217 ) );
#153 = AXIS2_PLACEMENT_3D( '', #218, #219, #220 );
#154 = SURFACE_SIDE_STYLE( '', ( #221 ) );
#155 = EDGE_LOOP( '', ( #222, #223 ) );
#156 = AXIS2_PLACEMENT_3D( '', #224, #225, #226 );
#157 = SURFACE_SIDE_STYLE( '', ( #227 ) );
#158 = EDGE_LOOP( '', ( #228 ) );
#159 = EDGE_LOOP( '', ( #229 ) );
#160 = AXIS2_PLACEMENT_3D( '', #230, #231, #232 );
#161 = SURFACE_SIDE_STYLE( '', ( #233 ) );
#162 = EDGE_LOOP( '', ( #234, #235, #236, #237 ) );
#163 = AXIS2_PLACEMENT_3D( '', #238, #239, #240 );
#164 = SURFACE_SIDE_STYLE( '', ( #241 ) );
#165 = EDGE_LOOP( '', ( #242 ) );
#166 = EDGE_LOOP( '', ( #243 ) );
#167 = AXIS2_PLACEMENT_3D( '', #244, #245, #246 );
#168 = SURFACE_SIDE_STYLE( '', ( #247 ) );
#169 = EDGE_LOOP( '', ( #248, #249, #250, #251 ) );
#170 = AXIS2_PLACEMENT_3D( '', #252, #253, #254 );
#171 = SURFACE_SIDE_STYLE( '', ( #255 ) );
#172 = EDGE_LOOP( '', ( #256, #257, #258, #259, #260, #261 ) );
#173 = AXIS2_PLACEMENT_3D( '', #262, #263, #264 );
#174 = SURFACE_SIDE_STYLE( '', ( #265 ) );
#175 = EDGE_LOOP( '', ( #266 ) );
#176 = EDGE_LOOP( '', ( #267, #268, #269, #270, #271, #272, #273, #274 ) );
#177 = AXIS2_PLACEMENT_3D( '', #275, #276, #277 );
#178 = SURFACE_SIDE_STYLE( '', ( #278 ) );
#179 = EDGE_LOOP( '', ( #279 ) );
#180 = EDGE_LOOP( '', ( #280 ) );
#181 = AXIS2_PLACEMENT_3D( '', #281, #282, #283 );
#182 = SURFACE_SIDE_STYLE( '', ( #284 ) );
#183 = EDGE_LOOP( '', ( #285, #286 ) );
#184 = AXIS2_PLACEMENT_3D( '', #287, #288, #289 );
#186 = SURFACE_STYLE_FILL_AREA( #290 );
#187 = ORIENTED_EDGE( '', *, *, #291, .T. );
#188 = ORIENTED_EDGE( '', *, *, #292, .T. );
#189 = ORIENTED_EDGE( '', *, *, #293, .T. );
#190 = ORIENTED_EDGE( '', *, *, #294, .F. );
#191 = ORIENTED_EDGE( '', *, *, #295, .T. );
#192 = ORIENTED_EDGE( '', *, *, #296, .T. );
#193 = CARTESIAN_POINT( '', ( 1.25000000000000, -12.5000000000000, 39.0000000000000 ) );
#194 = DIRECTION( '', ( -1.00000000000000, 0.000000000000000, 1.44560289664734E-016 ) );
#195 = DIRECTION( '', ( 1.44560289664734E-016, 0.000000000000000, 1.00000000000000 ) );
#196 = SURFACE_STYLE_FILL_AREA( #297 );
#197 = ORIENTED_EDGE( '', *, *, #298, .F. );
#198 = ORIENTED_EDGE( '', *, *, #299, .F. );
#199 = CARTESIAN_POINT( '', ( -1.60538678074403E-019, 0.000000000000000, 13.0000000000000 ) );
#200 = DIRECTION( '', ( -6.42154712297608E-019, 0.000000000000000, 1.00000000000000 ) );
#201 = DIRECTION( '', ( 1.00000000000000, 0.000000000000000, 6.42154712297608E-019 ) );
#202 = SURFACE_STYLE_FILL_AREA( #300 );
#203 = ORIENTED_EDGE( '', *, *, #301, .F. );
#204 = ORIENTED_EDGE( '', *, *, #302, .T. );
#205 = CARTESIAN_POINT( '', ( -8.18747258179450E-018, 0.000000000000000, 25.5000000000000 ) );
#206 = DIRECTION( '', ( 6.42154712297608E-019, -0.000000000000000, -1.00000000000000 ) );
#207 = DIRECTION( '', ( 1.00000000000000, 0.000000000000000, 6.42154712297608E-019 ) );
#208 = SURFACE_STYLE_FILL_AREA( #303 );
#209 = ORIENTED_EDGE( '', *, *, #304, .F. );
#210 = ORIENTED_EDGE( '', *, *, #305, .F. );
#211 = ORIENTED_EDGE( '', *, *, #306, .F. );
#212 = ORIENTED_EDGE( '', *, *, #307, .F. );
#213 = CARTESIAN_POINT( '', ( -1.87830253347051E-017, 0.000000000000000, 42.0000000000000 ) );
#214 = DIRECTION( '', ( 6.42154712297608E-019, -0.000000000000000, -1.00000000000000 ) );
#215 = DIRECTION( '', ( -1.00000000000000, 0.000000000000000, -6.42154712297608E-019 ) );
#216 = SURFACE_STYLE_FILL_AREA( #308 );
#217 = ORIENTED_EDGE( '', *, *, #302, .F. );
#218 = CARTESIAN_POINT( '', ( 4.40872847693047E-015, 0.000000000000000, 6.00000000000000 ) );
#219 = DIRECTION( '', ( -6.42154712297608E-019, 0.000000000000000, 1.00000000000000 ) );
#220 = DIRECTION( '', ( -1.00000000000000, 0.000000000000000, -6.42154712297608E-019 ) );
#221 = SURFACE_STYLE_FILL_AREA( #309 );
#222 = ORIENTED_EDGE( '', *, *, #310, .T. );
#223 = ORIENTED_EDGE( '', *, *, #307, .T. );
#224 = CARTESIAN_POINT( '', ( 12.0000000000000, 0.000000000000000, 42.0000000000000 ) );
#225 = DIRECTION( '', ( 6.42154712297608E-019, 0.000000000000000, -1.00000000000000 ) );
#226 = DIRECTION( '', ( -1.00000000000000, 0.000000000000000, -6.42154712297608E-019 ) );
#227 = SURFACE_STYLE_FILL_AREA( #311 );
#228 = ORIENTED_EDGE( '', *, *, #298, .T. );
#229 = ORIENTED_EDGE( '', *, *, #312, .T. );
#230 = CARTESIAN_POINT( '', ( 7.00000000000000, 0.000000000000000, 10.0000000000000 ) );
#231 = DIRECTION( '', ( -6.42154712297608E-019, 0.000000000000000, 1.00000000000000 ) );
#232 = DIRECTION( '', ( 1.00000000000000, 0.000000000000000, 6.42154712297608E-019 ) );
#233 = SURFACE_STYLE_FILL_AREA( #313 );
#234 = ORIENTED_EDGE( '', *, *, #314, .T. );
#235 = ORIENTED_EDGE( '', *, *, #315, .F. );
#236 = ORIENTED_EDGE( '', *, *, #316, .T. );
#237 = ORIENTED_EDGE( '', *, *, #294, .T. );
#238 = CARTESIAN_POINT( '', ( -1.25000000000000, -12.5000000000000, 39.0000000000000 ) );
#239 = DIRECTION( '', ( 0.000000000000000, 0.000000000000000, 1.00000000000000 ) );
#240 = DIRECTION( '', ( 1.00000000000000, 0.000000000000000, 0.000000000000000 ) );
#241 = SURFACE_STYLE_FILL_AREA( #317 );
#242 = ORIENTED_EDGE( '', *, *, #318, .F. );
#243 = ORIENTED_EDGE( '', *, *, #301, .T. );
#244 = CARTESIAN_POINT( '', ( 6.00000000000000, 0.000000000000000, 8.00000000000000 ) );
#245 = DIRECTION( '', ( -6.42154712297608E-019, 0.000000000000000, 1.00000000000000 ) );
#246 = DIRECTION( '', ( 1.00000000000000, 0.000000000000000, 6.42154712297608E-019 ) );
#247 = SURFACE_STYLE_FILL_AREA( #319 );
#248 = ORIENTED_EDGE( '', *, *, #296, .F. );
#249 = ORIENTED_EDGE( '', *, *, #320, .F. );
#250 = ORIENTED_EDGE( '', *, *, #292, .F. );
#251 = ORIENTED_EDGE( '', *, *, #321, .F. );
#252 = CARTESIAN_POINT( '', ( -1.87830253347051E-017, 0.000000000000000, 42.0000000000000 ) );
#253 = DIRECTION( '', ( 6.42154712297608E-019, -0.000000000000000, -1.00000000000000 ) );
#254 = DIRECTION( '', ( -1.00000000000000, 0.000000000000000, -6.42154712297608E-019 ) );
#255 = SURFACE_STYLE_FILL_AREA( #322 );
#256 = ORIENTED_EDGE( '', *, *, #310, .F. );
#257 = ORIENTED_EDGE( '', *, *, #306, .T. );
#258 = ORIENTED_EDGE( '', *, *, #323, .T. );
#259 = ORIENTED_EDGE( '', *, *, #315, .T. );
#260 = ORIENTED_EDGE( '', *, *, #324, .T. );
#261 = ORIENTED_EDGE( '', *, *, #304, .T. );
#262 = CARTESIAN_POINT( '', ( -1.25000000000000, -12.5000000000000, 42.0000000000000 ) );
#263 = DIRECTION( '', ( 1.00000000000000, 0.000000000000000, 1.44560289664734E-016 ) );
#264 = DIRECTION( '', ( 1.44560289664734E-016, 0.000000000000000, -1.00000000000000 ) );
#265 = SURFACE_STYLE_FILL_AREA( #325 );
#266 = ORIENTED_EDGE( '', *, *, #299, .T. );
#267 = ORIENTED_EDGE( '', *, *, #293, .F. );
#268 = ORIENTED_EDGE( '', *, *, #320, .T. );
#269 = ORIENTED_EDGE( '', *, *, #295, .F. );
#270 = ORIENTED_EDGE( '', *, *, #316, .F. );
#271 = ORIENTED_EDGE( '', *, *, #323, .F. );
#272 = ORIENTED_EDGE( '', *, *, #305, .T. );
#273 = ORIENTED_EDGE( '', *, *, #324, .F. );
#274 = ORIENTED_EDGE( '', *, *, #314, .F. );
#275 = CARTESIAN_POINT( '', ( -8.18747258179450E-018, 0.000000000000000, 25.5000000000000 ) );
#276 = DIRECTION( '', ( 6.42154712297608E-019, -0.000000000000000, -1.00000000000000 ) );
#277 = DIRECTION( '', ( 1.00000000000000, 0.000000000000000, 6.42154712297608E-019 ) );
#278 = SURFACE_STYLE_FILL_AREA( #326 );
#279 = ORIENTED_EDGE( '', *, *, #312, .F. );
#280 = ORIENTED_EDGE( '', *, *, #318, .T. );
#281 = CARTESIAN_POINT( '', ( -8.18747258179450E-018, 0.000000000000000, 25.5000000000000 ) );
#282 = DIRECTION( '', ( 6.42154712297608E-019, -0.000000000000000, -1.00000000000000 ) );
#283 = DIRECTION( '', ( 1.00000000000000, 0.000000000000000, 6.42154712297608E-019 ) );
#284 = SURFACE_STYLE_FILL_AREA( #327 );
#285 = ORIENTED_EDGE( '', *, *, #291, .F. );
#286 = ORIENTED_EDGE( '', *, *, #321, .T. );
#287 = CARTESIAN_POINT( '', ( 12.0000000000000, 0.000000000000000, 42.0000000000000 ) );
#288 = DIRECTION( '', ( 6.42154712297608E-019, 0.000000000000000, -1.00000000000000 ) );
#289 = DIRECTION( '', ( -1.00000000000000, 0.000000000000000, -6.42154712297608E-019 ) );
#290 = FILL_AREA_STYLE( '', ( #328 ) );
#291 = EDGE_CURVE( '', #329, #330, #331, .T. );
#292 = EDGE_CURVE( '', #330, #332, #333, .T. );
#293 = EDGE_CURVE( '', #332, #334, #335, .F. );
#294 = EDGE_CURVE( '', #336, #334, #337, .T. );
#295 = EDGE_CURVE( '', #336, #338, #339, .T. );
#296 = EDGE_CURVE( '', #338, #329, #340, .T. );
#297 = FILL_AREA_STYLE( '', ( #341 ) );
#298 = EDGE_CURVE( '', #342, #342, #343, .F. );
#299 = EDGE_CURVE( '', #344, #344, #345, .T. );
#300 = FILL_AREA_STYLE( '', ( #346 ) );
#301 = EDGE_CURVE( '', #347, #347, #348, .T. );
#302 = EDGE_CURVE( '', #349, #349, #350, .T. );
#303 = FILL_AREA_STYLE( '', ( #351 ) );
#304 = EDGE_CURVE( '', #352, #353, #354, .T. );
#305 = EDGE_CURVE( '', #355, #352, #356, .T. );
#306 = EDGE_CURVE( '', #357, #355, #358, .T. );
#307 = EDGE_CURVE( '', #353, #357, #359, .F. );
#308 = FILL_AREA_STYLE( '', ( #360 ) );
#309 = FILL_AREA_STYLE( '', ( #361 ) );
#310 = EDGE_CURVE( '', #357, #353, #362, .T. );
#311 = FILL_AREA_STYLE( '', ( #363 ) );
#312 = EDGE_CURVE( '', #364, #364, #365, .T. );
#313 = FILL_AREA_STYLE( '', ( #366 ) );
#314 = EDGE_CURVE( '', #334, #367, #368, .T. );
#315 = EDGE_CURVE( '', #369, #367, #370, .T. );
#316 = EDGE_CURVE( '', #369, #336, #371, .T. );
#317 = FILL_AREA_STYLE( '', ( #372 ) );
#318 = EDGE_CURVE( '', #373, #373, #374, .T. );
#319 = FILL_AREA_STYLE( '', ( #375 ) );
#320 = EDGE_CURVE( '', #332, #338, #376, .T. );
#321 = EDGE_CURVE( '', #329, #330, #377, .F. );
#322 = FILL_AREA_STYLE( '', ( #378 ) );
#323 = EDGE_CURVE( '', #355, #369, #379, .F. );
#324 = EDGE_CURVE( '', #367, #352, #380, .T. );
#325 = FILL_AREA_STYLE( '', ( #381 ) );
#326 = FILL_AREA_STYLE( '', ( #382 ) );
#327 = FILL_AREA_STYLE( '', ( #383 ) );
#328 = FILL_AREA_STYLE_COLOUR( '', #384 );
#329 = VERTEX_POINT( '', #385 );
#330 = VERTEX_POINT( '', #386 );
#331 = LINE( '', #387, #388 );
#332 = VERTEX_POINT( '', #389 );
#333 = B_SPLINE_CURVE_WITH_KNOTS( '', 3, ( #390, #391, #392, #393 ), .UNSPECIFIED., .F., .F., ( 4, 4 ), ( 0.000000000000000, 0.00212796939319392 ), .UNSPECIFIED. );
#334 = VERTEX_POINT( '', #394 );
#335 = LINE( '', #395, #396 );
#336 = VERTEX_POINT( '', #397 );
#337 = LINE( '', #398, #399 );
#338 = VERTEX_POINT( '', #400 );
#339 = LINE( '', #401, #402 );
#340 = B_SPLINE_CURVE_WITH_KNOTS( '', 3, ( #403, #404, #405, #406 ), .UNSPECIFIED., .F., .F., ( 4, 4 ), ( 0.000000000000000, 0.00212796939319392 ), .UNSPECIFIED. );
#341 = FILL_AREA_STYLE_COLOUR( '', #407 );
#342 = VERTEX_POINT( '', #408 );
#343 = CIRCLE( '', #409, 9.00000000000000 );
#344 = VERTEX_POINT( '', #410 );
#345 = CIRCLE( '', #411, 12.0000000000000 );
#346 = FILL_AREA_STYLE_COLOUR( '', #412 );
#347 = VERTEX_POINT( '', #413 );
#348 = CIRCLE( '', #414, 6.00000000000000 );
#349 = VERTEX_POINT( '', #415 );
#350 = CIRCLE( '', #416, 6.00000000000000 );
#351 = FILL_AREA_STYLE_COLOUR( '', #417 );
#352 = VERTEX_POINT( '', #418 );
#353 = VERTEX_POINT( '', #419 );
#354 = B_SPLINE_CURVE_WITH_KNOTS( '', 3, ( #420, #421, #422, #423 ), .UNSPECIFIED., .F., .F., ( 4, 4 ), ( 0.000000000000000, 0.00212796939319392 ), .UNSPECIFIED. );
#355 = VERTEX_POINT( '', #424 );
#356 = CIRCLE( '', #425, 12.0000000000000 );
#357 = VERTEX_POINT( '', #426 );
#358 = B_SPLINE_CURVE_WITH_KNOTS( '', 3, ( #427, #428, #429, #430 ), .UNSPECIFIED., .F., .F., ( 4, 4 ), ( 0.000000000000000, 0.00212796939319392 ), .UNSPECIFIED. );
#359 = CIRCLE( '', #431, 10.5000000000000 );
#360 = FILL_AREA_STYLE_COLOUR( '', #432 );
#361 = FILL_AREA_STYLE_COLOUR( '', #433 );
#362 = LINE( '', #434, #435 );
#363 = FILL_AREA_STYLE_COLOUR( '', #436 );
#364 = VERTEX_POINT( '', #437 );
#365 = CIRCLE( '', #438, 7.00000000000000 );
#366 = FILL_AREA_STYLE_COLOUR( '', #439 );
#367 = VERTEX_POINT( '', #440 );
#368 = CIRCLE( '', #441, 12.0000000000000 );
#369 = VERTEX_POINT( '', #442 );
#370 = LINE( '', #443, #444 );
#371 = CIRCLE( '', #445, 12.0000000000000 );
#372 = FILL_AREA_STYLE_COLOUR( '', #446 );
#373 = VERTEX_POINT( '', #447 );
#374 = CIRCLE( '', #448, 7.00000000000000 );
#375 = FILL_AREA_STYLE_COLOUR( '', #449 );
#376 = CIRCLE( '', #450, 12.0000000000000 );
#377 = CIRCLE( '', #451, 10.5000000000000 );
#378 = FILL_AREA_STYLE_COLOUR( '', #452 );
#379 = LINE( '', #453, #454 );
#380 = LINE( '', #455, #456 );
#381 = FILL_AREA_STYLE_COLOUR( '', #457 );
#382 = FILL_AREA_STYLE_COLOUR( '', #458 );
#383 = FILL_AREA_STYLE_COLOUR( '', #459 );
#384 = COLOUR_RGB( '', 0.200000002980232, 0.200000002980232, 0.200000002980232 );
#385 = CARTESIAN_POINT( '', ( 1.25000000000000, -10.4253297309965, 42.0000000000000 ) );
#386 = CARTESIAN_POINT( '', ( 1.25000000000000, 10.4253297309965, 42.0000000000000 ) );
#387 = CARTESIAN_POINT( '', ( 1.25000000000000, -12.5000000000000, 42.0000000000000 ) );
#388 = VECTOR( '', #460, 1000.00000000000 );
#389 = CARTESIAN_POINT( '', ( 1.25000000000000, 11.9347182622800, 40.5000000000000 ) );
#390 = CARTESIAN_POINT( '', ( 1.25000000000000, 10.4253297309965, 42.0000000000000 ) );
#391 = CARTESIAN_POINT( '', ( 1.25000000000000, 10.9286835223948, 41.5002257860310 ) );
#392 = CARTESIAN_POINT( '', ( 1.25000000000000, 11.4317849167583, 41.0001973152923 ) );
#393 = CARTESIAN_POINT( '', ( 1.25000000000000, 11.9347182622800, 40.5000000000000 ) );
#394 = CARTESIAN_POINT( '', ( 1.25000000000000, 11.9347182622800, 39.0000000000000 ) );
#395 = CARTESIAN_POINT( '', ( 1.25000000000000, 11.9347182622800, 25.5000000000000 ) );
#396 = VECTOR( '', #461, 1000.00000000000 );
#397 = CARTESIAN_POINT( '', ( 1.25000000000000, -11.9347182622800, 39.0000000000000 ) );
#398 = CARTESIAN_POINT( '', ( 1.25000000000000, -12.5000000000000, 39.0000000000000 ) );
#399 = VECTOR( '', #462, 1000.00000000000 );
#400 = CARTESIAN_POINT( '', ( 1.25000000000000, -11.9347182622800, 40.5000000000000 ) );
#401 = CARTESIAN_POINT( '', ( 1.25000000000000, -11.9347182622800, 25.5000000000000 ) );
#402 = VECTOR( '', #463, 1000.00000000000 );
#403 = CARTESIAN_POINT( '', ( 1.25000000000000, -11.9347182622800, 40.5000000000000 ) );
#404 = CARTESIAN_POINT( '', ( 1.25000000000000, -11.4317849167583, 41.0001973152923 ) );
#405 = CARTESIAN_POINT( '', ( 1.25000000000000, -10.9286835223948, 41.5002257860310 ) );
#406 = CARTESIAN_POINT( '', ( 1.25000000000000, -10.4253297309965, 42.0000000000000 ) );
#407 = COLOUR_RGB( '', 0.200000002980232, 0.200000002980232, 0.200000002980232 );
#408 = CARTESIAN_POINT( '', ( 9.00000000000000, 0.000000000000000, 10.0000000000000 ) );
#409 = AXIS2_PLACEMENT_3D( '', #464, #465, #466 );
#410 = CARTESIAN_POINT( '', ( 12.0000000000000, 0.000000000000000, 13.0000000000000 ) );
#411 = AXIS2_PLACEMENT_3D( '', #467, #468, #469 );
#412 = COLOUR_RGB( '', 0.200000002980232, 0.200000002980232, 0.200000002980232 );
#413 = CARTESIAN_POINT( '', ( 6.00000000000000, 0.000000000000000, 8.00000000000000 ) );
#414 = AXIS2_PLACEMENT_3D( '', #470, #471, #472 );
#415 = CARTESIAN_POINT( '', ( 6.00000000000000, 0.000000000000000, 6.00000000000000 ) );
#416 = AXIS2_PLACEMENT_3D( '', #473, #474, #475 );
#417 = COLOUR_RGB( '', 0.200000002980232, 0.200000002980232, 0.200000002980232 );
#418 = CARTESIAN_POINT( '', ( -1.25000000000000, 11.9347182622800, 40.5000000000000 ) );
#419 = CARTESIAN_POINT( '', ( -1.25000000000000, 10.4253297309965, 42.0000000000000 ) );
#420 = CARTESIAN_POINT( '', ( -1.25000000000000, 11.9347182622800, 40.5000000000000 ) );
#421 = CARTESIAN_POINT( '', ( -1.25000000000000, 11.4317849167583, 41.0001973152923 ) );
#422 = CARTESIAN_POINT( '', ( -1.25000000000000, 10.9286835223948, 41.5002257860310 ) );
#423 = CARTESIAN_POINT( '', ( -1.25000000000000, 10.4253297309965, 42.0000000000000 ) );
#424 = CARTESIAN_POINT( '', ( -1.25000000000000, -11.9347182622800, 40.5000000000000 ) );
#425 = AXIS2_PLACEMENT_3D( '', #476, #477, #478 );
#426 = CARTESIAN_POINT( '', ( -1.25000000000000, -10.4253297309965, 42.0000000000000 ) );
#427 = CARTESIAN_POINT( '', ( -1.25000000000000, -10.4253297309965, 42.0000000000000 ) );
#428 = CARTESIAN_POINT( '', ( -1.25000000000000, -10.9286835223948, 41.5002257860310 ) );
#429 = CARTESIAN_POINT( '', ( -1.25000000000000, -11.4317849167583, 41.0001973152923 ) );
#430 = CARTESIAN_POINT( '', ( -1.25000000000000, -11.9347182622800, 40.5000000000000 ) );
#431 = AXIS2_PLACEMENT_3D( '', #479, #480, #481 );
#432 = COLOUR_RGB( '', 0.200000002980232, 0.200000002980232, 0.200000002980232 );
#433 = COLOUR_RGB( '', 0.200000002980232, 0.200000002980232, 0.200000002980232 );
#434 = CARTESIAN_POINT( '', ( -1.25000000000000, -12.5000000000000, 42.0000000000000 ) );
#435 = VECTOR( '', #482, 1000.00000000000 );
#436 = COLOUR_RGB( '', 0.200000002980232, 0.200000002980232, 0.200000002980232 );
#437 = CARTESIAN_POINT( '', ( 7.00000000000000, 0.000000000000000, 10.0000000000000 ) );
#438 = AXIS2_PLACEMENT_3D( '', #483, #484, #485 );
#439 = COLOUR_RGB( '', 0.200000002980232, 0.200000002980232, 0.200000002980232 );
#440 = CARTESIAN_POINT( '', ( -1.25000000000000, 11.9347182622800, 39.0000000000000 ) );
#441 = AXIS2_PLACEMENT_3D( '', #486, #487, #488 );
#442 = CARTESIAN_POINT( '', ( -1.25000000000000, -11.9347182622800, 39.0000000000000 ) );
#443 = CARTESIAN_POINT( '', ( -1.25000000000000, -12.5000000000000, 39.0000000000000 ) );
#444 = VECTOR( '', #489, 1000.00000000000 );
#445 = AXIS2_PLACEMENT_3D( '', #490, #491, #492 );
#446 = COLOUR_RGB( '', 0.200000002980232, 0.200000002980232, 0.200000002980232 );
#447 = CARTESIAN_POINT( '', ( 7.00000000000000, 0.000000000000000, 8.00000000000000 ) );
#448 = AXIS2_PLACEMENT_3D( '', #493, #494, #495 );
#449 = COLOUR_RGB( '', 0.200000002980232, 0.200000002980232, 0.200000002980232 );
#450 = AXIS2_PLACEMENT_3D( '', #496, #497, #498 );
#451 = AXIS2_PLACEMENT_3D( '', #499, #500, #501 );
#452 = COLOUR_RGB( '', 0.200000002980232, 0.200000002980232, 0.200000002980232 );
#453 = CARTESIAN_POINT( '', ( -1.25000000000000, -11.9347182622800, 25.5000000000000 ) );
#454 = VECTOR( '', #502, 1000.00000000000 );
#455 = CARTESIAN_POINT( '', ( -1.25000000000000, 11.9347182622800, 25.5000000000000 ) );
#456 = VECTOR( '', #503, 1000.00000000000 );
#457 = COLOUR_RGB( '', 0.752941191196442, 0.752941191196442, 0.752941191196442 );
#458 = COLOUR_RGB( '', 0.200000002980232, 0.200000002980232, 0.200000002980232 );
#459 = COLOUR_RGB( '', 0.200000002980232, 0.200000002980232, 0.200000002980232 );
#460 = DIRECTION( '', ( 0.000000000000000, 1.00000000000000, 0.000000000000000 ) );
#461 = DIRECTION( '', ( -6.42154712297608E-019, 0.000000000000000, 1.00000000000000 ) );
#462 = DIRECTION( '', ( 0.000000000000000, 1.00000000000000, 0.000000000000000 ) );
#463 = DIRECTION( '', ( -6.42154712297608E-019, 0.000000000000000, 1.00000000000000 ) );
#464 = CARTESIAN_POINT( '', ( 1.76592545881842E-018, 0.000000000000000, 10.0000000000000 ) );
#465 = DIRECTION( '', ( -6.42154712297608E-019, 0.000000000000000, 1.00000000000000 ) );
#466 = DIRECTION( '', ( 1.00000000000000, 0.000000000000000, 6.42154712297608E-019 ) );
#467 = CARTESIAN_POINT( '', ( -1.60538678074403E-019, 0.000000000000000, 13.0000000000000 ) );
#468 = DIRECTION( '', ( -6.42154712297608E-019, 0.000000000000000, 1.00000000000000 ) );
#469 = DIRECTION( '', ( 1.00000000000000, 0.000000000000000, 6.42154712297608E-019 ) );
#470 = CARTESIAN_POINT( '', ( 3.05023488341364E-018, 0.000000000000000, 8.00000000000000 ) );
#471 = DIRECTION( '', ( -6.42154712297608E-019, 0.000000000000000, 1.00000000000000 ) );
#472 = DIRECTION( '', ( 1.00000000000000, 0.000000000000000, 6.42154712297608E-019 ) );
#473 = CARTESIAN_POINT( '', ( 4.33454430800886E-018, 0.000000000000000, 6.00000000000000 ) );
#474 = DIRECTION( '', ( -6.42154712297608E-019, 0.000000000000000, 1.00000000000000 ) );
#475 = DIRECTION( '', ( 1.00000000000000, 0.000000000000000, 6.42154712297608E-019 ) );
#476 = CARTESIAN_POINT( '', ( -1.78197932662586E-017, 0.000000000000000, 40.5000000000000 ) );
#477 = DIRECTION( '', ( 6.42154712297608E-019, 0.000000000000000, -1.00000000000000 ) );
#478 = DIRECTION( '', ( -1.00000000000000, 0.000000000000000, -6.42154712297608E-019 ) );
#479 = CARTESIAN_POINT( '', ( -1.87830253347051E-017, 0.000000000000000, 42.0000000000000 ) );
#480 = DIRECTION( '', ( 6.42154712297608E-019, 0.000000000000000, -1.00000000000000 ) );
#481 = DIRECTION( '', ( -1.00000000000000, 0.000000000000000, -6.42154712297608E-019 ) );
#482 = DIRECTION( '', ( 0.000000000000000, 1.00000000000000, 0.000000000000000 ) );
#483 = CARTESIAN_POINT( '', ( 1.76592545881842E-018, 0.000000000000000, 10.0000000000000 ) );
#484 = DIRECTION( '', ( -6.42154712297608E-019, 0.000000000000000, 1.00000000000000 ) );
#485 = DIRECTION( '', ( 1.00000000000000, 0.000000000000000, 6.42154712297608E-019 ) );
#486 = CARTESIAN_POINT( '', ( -1.68565611978122E-017, 0.000000000000000, 39.0000000000000 ) );
#487 = DIRECTION( '', ( 0.000000000000000, 0.000000000000000, 1.00000000000000 ) );
#488 = DIRECTION( '', ( 1.00000000000000, 0.000000000000000, 0.000000000000000 ) );
#489 = DIRECTION( '', ( 0.000000000000000, 1.00000000000000, 0.000000000000000 ) );
#490 = CARTESIAN_POINT( '', ( -1.68565611978122E-017, 0.000000000000000, 39.0000000000000 ) );
#491 = DIRECTION( '', ( 0.000000000000000, 0.000000000000000, 1.00000000000000 ) );
#492 = DIRECTION( '', ( 1.00000000000000, 0.000000000000000, 0.000000000000000 ) );
#493 = CARTESIAN_POINT( '', ( 3.05023488341364E-018, 0.000000000000000, 8.00000000000000 ) );
#494 = DIRECTION( '', ( -6.42154712297608E-019, 0.000000000000000, 1.00000000000000 ) );
#495 = DIRECTION( '', ( 1.00000000000000, 0.000000000000000, 6.42154712297608E-019 ) );
#496 = CARTESIAN_POINT( '', ( -1.78197932662586E-017, 0.000000000000000, 40.5000000000000 ) );
#497 = DIRECTION( '', ( 6.42154712297608E-019, 0.000000000000000, -1.00000000000000 ) );
#498 = DIRECTION( '', ( -1.00000000000000, 0.000000000000000, -6.42154712297608E-019 ) );
#499 = CARTESIAN_POINT( '', ( -1.87830253347051E-017, 0.000000000000000, 42.0000000000000 ) );
#500 = DIRECTION( '', ( 6.42154712297608E-019, 0.000000000000000, -1.00000000000000 ) );
#501 = DIRECTION( '', ( -1.00000000000000, 0.000000000000000, -6.42154712297608E-019 ) );
#502 = DIRECTION( '', ( -6.42154712297608E-019, 0.000000000000000, 1.00000000000000 ) );
#503 = DIRECTION( '', ( -6.42154712297608E-019, 0.000000000000000, 1.00000000000000 ) );
ENDSEC;
END-ISO-10303-21;
