ISO-10303-21;
HEADER;
FILE_DESCRIPTION( ( 'Unknown' ), '1' );
FILE_NAME( '//SBS2003/HD_Usb/Disegni/08_LIB/Users_3D/PROD_GAMM_3D/APS-A/7747405_APS_7_A.stp', 'Unknown', ( 'Unknown' ), ( 'Unknown' ), 'PSStep 14.0', 'Unknown', '  ' );
FILE_SCHEMA( ( 'AUTOMOTIVE_DESIGN { 1 0 10303 214 1 1 1 1 }' ) );
ENDSEC;
DATA;
#1 = MECHANICAL_DESIGN_GEOMETRIC_PRESENTATION_REPRESENTATION( ' ', ( #10, #11, #12, #13, #14, #15, #16, #17, #18, #19, #20, #21 ), #6 );
#2 = PRODUCT_DEFINITION_CONTEXT( '', #22, 'design' );
#3 = APPLICATION_PROTOCOL_DEFINITION( 'international standard', 'automotive_design', 2001, #22 );
#4 = PRODUCT_CATEGORY_RELATIONSHIP( 'NONE', 'NONE', #23, #24 );
#5 = SHAPE_DEFINITION_REPRESENTATION( #25, #26 );
#6 =  ( GEOMETRIC_REPRESENTATION_CONTEXT( 3 )GLOBAL_UNCERTAINTY_ASSIGNED_CONTEXT( ( #29 ) )GLOBAL_UNIT_ASSIGNED_CONTEXT( ( #31, #32, #33 ) )REPRESENTATION_CONTEXT( 'NONE', 'WORKSPACE' ) );
#10 = STYLED_ITEM( '', ( #35 ), #36 );
#11 = STYLED_ITEM( '', ( #37 ), #38 );
#12 = STYLED_ITEM( '', ( #39 ), #40 );
#13 = STYLED_ITEM( '', ( #41 ), #42 );
#14 = STYLED_ITEM( '', ( #43 ), #44 );
#15 = STYLED_ITEM( '', ( #45 ), #46 );
#16 = STYLED_ITEM( '', ( #47 ), #48 );
#17 = STYLED_ITEM( '', ( #49 ), #50 );
#18 = STYLED_ITEM( '', ( #51 ), #52 );
#19 = STYLED_ITEM( '', ( #53 ), #54 );
#20 = STYLED_ITEM( '', ( #55 ), #56 );
#21 = STYLED_ITEM( '', ( #57 ), #58 );
#22 = APPLICATION_CONTEXT( 'core data for automotive mechanical design processes' );
#23 = PRODUCT_CATEGORY( 'part', 'NONE' );
#24 = PRODUCT_RELATED_PRODUCT_CATEGORY( 'detail', ' ', ( #59 ) );
#25 = PRODUCT_DEFINITION_SHAPE( 'NONE', 'NONE', #60 );
#26 = ADVANCED_BREP_SHAPE_REPRESENTATION( '1', ( #61, #62 ), #6 );
#29 = UNCERTAINTY_MEASURE_WITH_UNIT( LENGTH_MEASURE( 0.00100000000000000 ), #31, '', '' );
#31 =  ( CONVERSION_BASED_UNIT( 'MILLIMETRE', #65 )LENGTH_UNIT(  )NAMED_UNIT( #68 ) );
#32 =  ( NAMED_UNIT( #70 )PLANE_ANGLE_UNIT(  )SI_UNIT( $, .RADIAN. ) );
#33 =  ( NAMED_UNIT( #70 )SI_UNIT( $, .STERADIAN. )SOLID_ANGLE_UNIT(  ) );
#35 = PRESENTATION_STYLE_ASSIGNMENT( ( #76 ) );
#36 = ADVANCED_FACE( '', ( #77 ), #78, .T. );
#37 = PRESENTATION_STYLE_ASSIGNMENT( ( #79 ) );
#38 = ADVANCED_FACE( '', ( #80 ), #81, .T. );
#39 = PRESENTATION_STYLE_ASSIGNMENT( ( #82 ) );
#40 = ADVANCED_FACE( '', ( #83 ), #84, .T. );
#41 = PRESENTATION_STYLE_ASSIGNMENT( ( #85 ) );
#42 = ADVANCED_FACE( '', ( #86, #87 ), #88, .T. );
#43 = PRESENTATION_STYLE_ASSIGNMENT( ( #89 ) );
#44 = ADVANCED_FACE( '', ( #90 ), #91, .T. );
#45 = PRESENTATION_STYLE_ASSIGNMENT( ( #92 ) );
#46 = ADVANCED_FACE( '', ( #93, #94 ), #95, .T. );
#47 = PRESENTATION_STYLE_ASSIGNMENT( ( #96 ) );
#48 = ADVANCED_FACE( '', ( #97 ), #98, .T. );
#49 = PRESENTATION_STYLE_ASSIGNMENT( ( #99 ) );
#50 = ADVANCED_FACE( '', ( #100 ), #101, .T. );
#51 = PRESENTATION_STYLE_ASSIGNMENT( ( #102 ) );
#52 = ADVANCED_FACE( '', ( #103, #104 ), #105, .T. );
#53 = PRESENTATION_STYLE_ASSIGNMENT( ( #106 ) );
#54 = ADVANCED_FACE( '', ( #107 ), #108, .T. );
#55 = PRESENTATION_STYLE_ASSIGNMENT( ( #109 ) );
#56 = ADVANCED_FACE( '', ( #110, #111 ), #112, .T. );
#57 = PRESENTATION_STYLE_ASSIGNMENT( ( #113 ) );
#58 = ADVANCED_FACE( '', ( #114 ), #115, .T. );
#59 = PRODUCT( '1', '1', 'PART-1-DESC', ( #116 ) );
#60 = PRODUCT_DEFINITION( 'NONE', 'NONE', #117, #2 );
#61 = MANIFOLD_SOLID_BREP( '1', #118 );
#62 = AXIS2_PLACEMENT_3D( '', #119, #120, #121 );
#65 = LENGTH_MEASURE_WITH_UNIT( LENGTH_MEASURE( 1.00000000000000 ), #122 );
#68 = DIMENSIONAL_EXPONENTS( 1.00000000000000, 0.000000000000000, 0.000000000000000, 0.000000000000000, 0.000000000000000, 0.000000000000000, 0.000000000000000 );
#70 = DIMENSIONAL_EXPONENTS( 0.000000000000000, 0.000000000000000, 0.000000000000000, 0.000000000000000, 0.000000000000000, 0.000000000000000, 0.000000000000000 );
#76 = SURFACE_STYLE_USAGE( .BOTH., #123 );
#77 = FACE_OUTER_BOUND( '', #124, .T. );
#78 = PLANE( '', #125 );
#79 = SURFACE_STYLE_USAGE( .BOTH., #126 );
#80 = FACE_OUTER_BOUND( '', #127, .T. );
#81 = PLANE( '', #128 );
#82 = SURFACE_STYLE_USAGE( .BOTH., #129 );
#83 = FACE_OUTER_BOUND( '', #130, .T. );
#84 = CONICAL_SURFACE( '', #131, 1.20000000000000, 0.785398163397446 );
#85 = SURFACE_STYLE_USAGE( .BOTH., #132 );
#86 = FACE_BOUND( '', #133, .T. );
#87 = FACE_OUTER_BOUND( '', #134, .T. );
#88 = CONICAL_SURFACE( '', #135, 1.50000000000000, 0.785398163397449 );
#89 = SURFACE_STYLE_USAGE( .BOTH., #136 );
#90 = FACE_OUTER_BOUND( '', #137, .T. );
#91 = CONICAL_SURFACE( '', #138, 1.20000000000000, 0.785398163397446 );
#92 = SURFACE_STYLE_USAGE( .BOTH., #139 );
#93 = FACE_OUTER_BOUND( '', #140, .T. );
#94 = FACE_OUTER_BOUND( '', #141, .T. );
#95 = CYLINDRICAL_SURFACE( '', #142, 1.00000000000000 );
#96 = SURFACE_STYLE_USAGE( .BOTH., #143 );
#97 = FACE_OUTER_BOUND( '', #144, .T. );
#98 = PLANE( '', #145 );
#99 = SURFACE_STYLE_USAGE( .BOTH., #146 );
#100 = FACE_OUTER_BOUND( '', #147, .T. );
#101 = SPHERICAL_SURFACE( '', #148, 0.750000000000000 );
#102 = SURFACE_STYLE_USAGE( .BOTH., #149 );
#103 = FACE_BOUND( '', #150, .T. );
#104 = FACE_OUTER_BOUND( '', #151, .T. );
#105 = PLANE( '', #152 );
#106 = SURFACE_STYLE_USAGE( .BOTH., #153 );
#107 = FACE_OUTER_BOUND( '', #154, .T. );
#108 = PLANE( '', #155 );
#109 = SURFACE_STYLE_USAGE( .BOTH., #156 );
#110 = FACE_OUTER_BOUND( '', #157, .T. );
#111 = FACE_OUTER_BOUND( '', #158, .T. );
#112 = CYLINDRICAL_SURFACE( '', #159, 1.50000000000000 );
#113 = SURFACE_STYLE_USAGE( .BOTH., #160 );
#114 = FACE_OUTER_BOUND( '', #161, .T. );
#115 = PLANE( '', #162 );
#116 = PRODUCT_CONTEXT( '', #22, 'mechanical' );
#117 = PRODUCT_DEFINITION_FORMATION_WITH_SPECIFIED_SOURCE( ' ', 'NONE', #59, .NOT_KNOWN. );
#118 = CLOSED_SHELL( '', ( #36, #44, #56, #38, #58, #54, #40, #48, #42, #46, #52, #50 ) );
#119 = CARTESIAN_POINT( '', ( 0.000000000000000, 0.000000000000000, 0.000000000000000 ) );
#120 = DIRECTION( '', ( 0.000000000000000, 0.000000000000000, 1.00000000000000 ) );
#121 = DIRECTION( '', ( 1.00000000000000, 0.000000000000000, 0.000000000000000 ) );
#122 =  ( LENGTH_UNIT(  )NAMED_UNIT( #68 )SI_UNIT( .MILLI., .METRE. ) );
#123 = SURFACE_SIDE_STYLE( '', ( #164 ) );
#124 = EDGE_LOOP( '', ( #165, #166 ) );
#125 = AXIS2_PLACEMENT_3D( '', #167, #168, #169 );
#126 = SURFACE_SIDE_STYLE( '', ( #170 ) );
#127 = EDGE_LOOP( '', ( #171, #172, #173, #174 ) );
#128 = AXIS2_PLACEMENT_3D( '', #175, #176, #177 );
#129 = SURFACE_SIDE_STYLE( '', ( #178 ) );
#130 = EDGE_LOOP( '', ( #179, #180, #181, #182 ) );
#131 = AXIS2_PLACEMENT_3D( '', #183, #184, #185 );
#132 = SURFACE_SIDE_STYLE( '', ( #186 ) );
#133 = EDGE_LOOP( '', ( #187 ) );
#134 = EDGE_LOOP( '', ( #188 ) );
#135 = AXIS2_PLACEMENT_3D( '', #189, #190, #191 );
#136 = SURFACE_SIDE_STYLE( '', ( #192 ) );
#137 = EDGE_LOOP( '', ( #193, #194, #195, #196 ) );
#138 = AXIS2_PLACEMENT_3D( '', #197, #198, #199 );
#139 = SURFACE_SIDE_STYLE( '', ( #200 ) );
#140 = EDGE_LOOP( '', ( #201 ) );
#141 = EDGE_LOOP( '', ( #202 ) );
#142 = AXIS2_PLACEMENT_3D( '', #203, #204, #205 );
#143 = SURFACE_SIDE_STYLE( '', ( #206 ) );
#144 = EDGE_LOOP( '', ( #207, #208 ) );
#145 = AXIS2_PLACEMENT_3D( '', #209, #210, #211 );
#146 = SURFACE_SIDE_STYLE( '', ( #212 ) );
#147 = EDGE_LOOP( '', ( #213 ) );
#148 = AXIS2_PLACEMENT_3D( '', #214, #215, #216 );
#149 = SURFACE_SIDE_STYLE( '', ( #217 ) );
#150 = EDGE_LOOP( '', ( #218 ) );
#151 = EDGE_LOOP( '', ( #219 ) );
#152 = AXIS2_PLACEMENT_3D( '', #220, #221, #222 );
#153 = SURFACE_SIDE_STYLE( '', ( #223 ) );
#154 = EDGE_LOOP( '', ( #224, #225, #226, #227, #228, #229 ) );
#155 = AXIS2_PLACEMENT_3D( '', #230, #231, #232 );
#156 = SURFACE_SIDE_STYLE( '', ( #233 ) );
#157 = EDGE_LOOP( '', ( #234 ) );
#158 = EDGE_LOOP( '', ( #235, #236, #237, #238, #239, #240, #241, #242 ) );
#159 = AXIS2_PLACEMENT_3D( '', #243, #244, #245 );
#160 = SURFACE_SIDE_STYLE( '', ( #246 ) );
#161 = EDGE_LOOP( '', ( #247, #248, #249, #250, #251, #252 ) );
#162 = AXIS2_PLACEMENT_3D( '', #253, #254, #255 );
#164 = SURFACE_STYLE_FILL_AREA( #256 );
#165 = ORIENTED_EDGE( '', *, *, #257, .T. );
#166 = ORIENTED_EDGE( '', *, *, #258, .T. );
#167 = CARTESIAN_POINT( '', ( 0.000000000000000, 0.000000000000000, 7.50000000000000 ) );
#168 = DIRECTION( '', ( 0.000000000000000, 0.000000000000000, 1.00000000000000 ) );
#169 = DIRECTION( '', ( 1.00000000000000, 0.000000000000000, 0.000000000000000 ) );
#170 = SURFACE_STYLE_FILL_AREA( #259 );
#171 = ORIENTED_EDGE( '', *, *, #260, .T. );
#172 = ORIENTED_EDGE( '', *, *, #261, .F. );
#173 = ORIENTED_EDGE( '', *, *, #262, .F. );
#174 = ORIENTED_EDGE( '', *, *, #263, .F. );
#175 = CARTESIAN_POINT( '', ( -0.250000000000000, -10.0000000000000, 7.00000000000000 ) );
#176 = DIRECTION( '', ( 0.000000000000000, 0.000000000000000, 1.00000000000000 ) );
#177 = DIRECTION( '', ( 1.00000000000000, 0.000000000000000, 0.000000000000000 ) );
#178 = SURFACE_STYLE_FILL_AREA( #264 );
#179 = ORIENTED_EDGE( '', *, *, #265, .F. );
#180 = ORIENTED_EDGE( '', *, *, #266, .F. );
#181 = ORIENTED_EDGE( '', *, *, #267, .F. );
#182 = ORIENTED_EDGE( '', *, *, #258, .F. );
#183 = CARTESIAN_POINT( '', ( 0.000000000000000, 0.000000000000000, 7.50000000000000 ) );
#184 = DIRECTION( '', ( -0.000000000000000, 0.000000000000000, -1.00000000000000 ) );
#185 = DIRECTION( '', ( -1.00000000000000, 0.000000000000000, 0.000000000000000 ) );
#186 = SURFACE_STYLE_FILL_AREA( #268 );
#187 = ORIENTED_EDGE( '', *, *, #269, .T. );
#188 = ORIENTED_EDGE( '', *, *, #270, .F. );
#189 = CARTESIAN_POINT( '', ( 0.000000000000000, 0.000000000000000, 1.50000000000000 ) );
#190 = DIRECTION( '', ( -0.000000000000000, -0.000000000000000, 1.00000000000000 ) );
#191 = DIRECTION( '', ( 1.00000000000000, 0.000000000000000, 0.000000000000000 ) );
#192 = SURFACE_STYLE_FILL_AREA( #271 );
#193 = ORIENTED_EDGE( '', *, *, #272, .F. );
#194 = ORIENTED_EDGE( '', *, *, #273, .F. );
#195 = ORIENTED_EDGE( '', *, *, #274, .F. );
#196 = ORIENTED_EDGE( '', *, *, #275, .F. );
#197 = CARTESIAN_POINT( '', ( 0.000000000000000, 0.000000000000000, 7.50000000000000 ) );
#198 = DIRECTION( '', ( -0.000000000000000, 0.000000000000000, -1.00000000000000 ) );
#199 = DIRECTION( '', ( -1.00000000000000, 0.000000000000000, 0.000000000000000 ) );
#200 = SURFACE_STYLE_FILL_AREA( #276 );
#201 = ORIENTED_EDGE( '', *, *, #277, .T. );
#202 = ORIENTED_EDGE( '', *, *, #269, .F. );
#203 = CARTESIAN_POINT( '', ( 0.000000000000000, 0.000000000000000, 57.1500000000000 ) );
#204 = DIRECTION( '', ( -0.000000000000000, -0.000000000000000, -1.00000000000000 ) );
#205 = DIRECTION( '', ( 1.00000000000000, 0.000000000000000, 0.000000000000000 ) );
#206 = SURFACE_STYLE_FILL_AREA( #278 );
#207 = ORIENTED_EDGE( '', *, *, #279, .F. );
#208 = ORIENTED_EDGE( '', *, *, #275, .T. );
#209 = CARTESIAN_POINT( '', ( 0.000000000000000, 0.000000000000000, 7.50000000000000 ) );
#210 = DIRECTION( '', ( 0.000000000000000, 0.000000000000000, 1.00000000000000 ) );
#211 = DIRECTION( '', ( 1.00000000000000, 0.000000000000000, 0.000000000000000 ) );
#212 = SURFACE_STYLE_FILL_AREA( #280 );
#213 = ORIENTED_EDGE( '', *, *, #281, .F. );
#214 = CARTESIAN_POINT( '', ( 0.000000000000000, 0.000000000000000, 0.750000000000000 ) );
#215 = DIRECTION( '', ( 0.000000000000000, 0.000000000000000, 1.00000000000000 ) );
#216 = DIRECTION( '', ( 1.00000000000000, 0.000000000000000, 0.000000000000000 ) );
#217 = SURFACE_STYLE_FILL_AREA( #282 );
#218 = ORIENTED_EDGE( '', *, *, #281, .T. );
#219 = ORIENTED_EDGE( '', *, *, #277, .F. );
#220 = CARTESIAN_POINT( '', ( 0.707106781186548, 0.000000000000000, 0.500000000000000 ) );
#221 = DIRECTION( '', ( 0.000000000000000, 0.000000000000000, -1.00000000000000 ) );
#222 = DIRECTION( '', ( -1.00000000000000, 0.000000000000000, 0.000000000000000 ) );
#223 = SURFACE_STYLE_FILL_AREA( #283 );
#224 = ORIENTED_EDGE( '', *, *, #257, .F. );
#225 = ORIENTED_EDGE( '', *, *, #267, .T. );
#226 = ORIENTED_EDGE( '', *, *, #284, .F. );
#227 = ORIENTED_EDGE( '', *, *, #262, .T. );
#228 = ORIENTED_EDGE( '', *, *, #285, .F. );
#229 = ORIENTED_EDGE( '', *, *, #265, .T. );
#230 = CARTESIAN_POINT( '', ( -0.250000000000000, -10.0000000000000, 7.50000000000000 ) );
#231 = DIRECTION( '', ( 1.00000000000000, 0.000000000000000, -1.08420217248550E-016 ) );
#232 = DIRECTION( '', ( -1.08420217248550E-016, 0.000000000000000, -1.00000000000000 ) );
#233 = SURFACE_STYLE_FILL_AREA( #286 );
#234 = ORIENTED_EDGE( '', *, *, #270, .T. );
#235 = ORIENTED_EDGE( '', *, *, #284, .T. );
#236 = ORIENTED_EDGE( '', *, *, #266, .T. );
#237 = ORIENTED_EDGE( '', *, *, #285, .T. );
#238 = ORIENTED_EDGE( '', *, *, #261, .T. );
#239 = ORIENTED_EDGE( '', *, *, #287, .T. );
#240 = ORIENTED_EDGE( '', *, *, #273, .T. );
#241 = ORIENTED_EDGE( '', *, *, #288, .T. );
#242 = ORIENTED_EDGE( '', *, *, #263, .T. );
#243 = CARTESIAN_POINT( '', ( 0.000000000000000, 0.000000000000000, 57.1500000000000 ) );
#244 = DIRECTION( '', ( -0.000000000000000, -0.000000000000000, -1.00000000000000 ) );
#245 = DIRECTION( '', ( 1.00000000000000, 0.000000000000000, 0.000000000000000 ) );
#246 = SURFACE_STYLE_FILL_AREA( #289 );
#247 = ORIENTED_EDGE( '', *, *, #279, .T. );
#248 = ORIENTED_EDGE( '', *, *, #274, .T. );
#249 = ORIENTED_EDGE( '', *, *, #287, .F. );
#250 = ORIENTED_EDGE( '', *, *, #260, .F. );
#251 = ORIENTED_EDGE( '', *, *, #288, .F. );
#252 = ORIENTED_EDGE( '', *, *, #272, .T. );
#253 = CARTESIAN_POINT( '', ( 0.250000000000000, -10.0000000000000, 7.00000000000000 ) );
#254 = DIRECTION( '', ( -1.00000000000000, 0.000000000000000, 1.08420217248550E-016 ) );
#255 = DIRECTION( '', ( 1.08420217248550E-016, 0.000000000000000, 1.00000000000000 ) );
#256 = FILL_AREA_STYLE( '', ( #290 ) );
#257 = EDGE_CURVE( '', #291, #292, #293, .T. );
#258 = EDGE_CURVE( '', #292, #291, #294, .T. );
#259 = FILL_AREA_STYLE( '', ( #295 ) );
#260 = EDGE_CURVE( '', #296, #297, #298, .T. );
#261 = EDGE_CURVE( '', #299, #297, #300, .F. );
#262 = EDGE_CURVE( '', #301, #299, #302, .T. );
#263 = EDGE_CURVE( '', #296, #301, #303, .F. );
#264 = FILL_AREA_STYLE( '', ( #304 ) );
#265 = EDGE_CURVE( '', #305, #292, #306, .T. );
#266 = EDGE_CURVE( '', #307, #305, #308, .F. );
#267 = EDGE_CURVE( '', #291, #307, #309, .T. );
#268 = FILL_AREA_STYLE( '', ( #310 ) );
#269 = EDGE_CURVE( '', #311, #311, #312, .T. );
#270 = EDGE_CURVE( '', #313, #313, #314, .T. );
#271 = FILL_AREA_STYLE( '', ( #315 ) );
#272 = EDGE_CURVE( '', #316, #317, #318, .T. );
#273 = EDGE_CURVE( '', #319, #316, #320, .F. );
#274 = EDGE_CURVE( '', #321, #319, #322, .T. );
#275 = EDGE_CURVE( '', #317, #321, #323, .T. );
#276 = FILL_AREA_STYLE( '', ( #324 ) );
#277 = EDGE_CURVE( '', #325, #325, #326, .T. );
#278 = FILL_AREA_STYLE( '', ( #327 ) );
#279 = EDGE_CURVE( '', #317, #321, #328, .T. );
#280 = FILL_AREA_STYLE( '', ( #329 ) );
#281 = EDGE_CURVE( '', #330, #330, #331, .T. );
#282 = FILL_AREA_STYLE( '', ( #332 ) );
#283 = FILL_AREA_STYLE( '', ( #333 ) );
#284 = EDGE_CURVE( '', #301, #307, #334, .T. );
#285 = EDGE_CURVE( '', #305, #299, #335, .F. );
#286 = FILL_AREA_STYLE( '', ( #336 ) );
#287 = EDGE_CURVE( '', #297, #319, #337, .T. );
#288 = EDGE_CURVE( '', #316, #296, #338, .F. );
#289 = FILL_AREA_STYLE( '', ( #339 ) );
#290 = FILL_AREA_STYLE_COLOUR( '', #340 );
#291 = VERTEX_POINT( '', #341 );
#292 = VERTEX_POINT( '', #342 );
#293 = LINE( '', #343, #344 );
#294 = CIRCLE( '', #345, 1.20000000000000 );
#295 = FILL_AREA_STYLE_COLOUR( '', #346 );
#296 = VERTEX_POINT( '', #347 );
#297 = VERTEX_POINT( '', #348 );
#298 = LINE( '', #349, #350 );
#299 = VERTEX_POINT( '', #351 );
#300 = CIRCLE( '', #352, 1.50000000000000 );
#301 = VERTEX_POINT( '', #353 );
#302 = LINE( '', #354, #355 );
#303 = CIRCLE( '', #356, 1.50000000000000 );
#304 = FILL_AREA_STYLE_COLOUR( '', #357 );
#305 = VERTEX_POINT( '', #358 );
#306 = B_SPLINE_CURVE_WITH_KNOTS( '', 3, ( #359, #360, #361, #362 ), .UNSPECIFIED., .F., .F., ( 4, 4 ), ( 0.000000000000000, 0.000428064153498906 ), .UNSPECIFIED. );
#307 = VERTEX_POINT( '', #363 );
#308 = CIRCLE( '', #364, 1.50000000000000 );
#309 = B_SPLINE_CURVE_WITH_KNOTS( '', 3, ( #365, #366, #367, #368 ), .UNSPECIFIED., .F., .F., ( 4, 4 ), ( 0.000000000000000, 0.000428064153498906 ), .UNSPECIFIED. );
#310 = FILL_AREA_STYLE_COLOUR( '', #369 );
#311 = VERTEX_POINT( '', #370 );
#312 = CIRCLE( '', #371, 1.00000000000000 );
#313 = VERTEX_POINT( '', #372 );
#314 = CIRCLE( '', #373, 1.50000000000000 );
#315 = FILL_AREA_STYLE_COLOUR( '', #374 );
#316 = VERTEX_POINT( '', #375 );
#317 = VERTEX_POINT( '', #376 );
#318 = B_SPLINE_CURVE_WITH_KNOTS( '', 3, ( #377, #378, #379, #380 ), .UNSPECIFIED., .F., .F., ( 4, 4 ), ( 0.000000000000000, 0.000428064153498904 ), .UNSPECIFIED. );
#319 = VERTEX_POINT( '', #381 );
#320 = CIRCLE( '', #382, 1.50000000000000 );
#321 = VERTEX_POINT( '', #383 );
#322 = B_SPLINE_CURVE_WITH_KNOTS( '', 3, ( #384, #385, #386, #387 ), .UNSPECIFIED., .F., .F., ( 4, 4 ), ( 0.000000000000000, 0.000428064153498904 ), .UNSPECIFIED. );
#323 = CIRCLE( '', #388, 1.20000000000000 );
#324 = FILL_AREA_STYLE_COLOUR( '', #389 );
#325 = VERTEX_POINT( '', #390 );
#326 = CIRCLE( '', #391, 1.00000000000000 );
#327 = FILL_AREA_STYLE_COLOUR( '', #392 );
#328 = LINE( '', #393, #394 );
#329 = FILL_AREA_STYLE_COLOUR( '', #395 );
#330 = VERTEX_POINT( '', #396 );
#331 = CIRCLE( '', #397, 0.707106781186548 );
#332 = FILL_AREA_STYLE_COLOUR( '', #398 );
#333 = FILL_AREA_STYLE_COLOUR( '', #399 );
#334 = LINE( '', #400, #401 );
#335 = LINE( '', #402, #403 );
#336 = FILL_AREA_STYLE_COLOUR( '', #404 );
#337 = LINE( '', #405, #406 );
#338 = LINE( '', #407, #408 );
#339 = FILL_AREA_STYLE_COLOUR( '', #409 );
#340 = COLOUR_RGB( '', 0.200000002980232, 0.200000002980232, 0.200000002980232 );
#341 = CARTESIAN_POINT( '', ( -0.250000000000000, -1.17366945943055, 7.50000000000000 ) );
#342 = CARTESIAN_POINT( '', ( -0.250000000000000, 1.17366945943055, 7.50000000000000 ) );
#343 = CARTESIAN_POINT( '', ( -0.250000000000000, -10.0000000000000, 7.50000000000000 ) );
#344 = VECTOR( '', #410, 1000.00000000000 );
#345 = AXIS2_PLACEMENT_3D( '', #411, #412, #413 );
#346 = COLOUR_RGB( '', 0.200000002980232, 0.200000002980232, 0.200000002980232 );
#347 = CARTESIAN_POINT( '', ( 0.250000000000000, -1.47901994577490, 7.00000000000000 ) );
#348 = CARTESIAN_POINT( '', ( 0.250000000000000, 1.47901994577490, 7.00000000000000 ) );
#349 = CARTESIAN_POINT( '', ( 0.250000000000000, -10.0000000000000, 7.00000000000000 ) );
#350 = VECTOR( '', #414, 1000.00000000000 );
#351 = CARTESIAN_POINT( '', ( -0.250000000000000, 1.47901994577490, 7.00000000000000 ) );
#352 = AXIS2_PLACEMENT_3D( '', #415, #416, #417 );
#353 = CARTESIAN_POINT( '', ( -0.250000000000000, -1.47901994577490, 7.00000000000000 ) );
#354 = CARTESIAN_POINT( '', ( -0.250000000000000, -10.0000000000000, 7.00000000000000 ) );
#355 = VECTOR( '', #418, 1000.00000000000 );
#356 = AXIS2_PLACEMENT_3D( '', #419, #420, #421 );
#357 = COLOUR_RGB( '', 0.200000002980232, 0.200000002980232, 0.200000002980232 );
#358 = CARTESIAN_POINT( '', ( -0.249999999999995, 1.47901994577491, 7.20000000000000 ) );
#359 = CARTESIAN_POINT( '', ( -0.249999999999995, 1.47901994577491, 7.20000000000000 ) );
#360 = CARTESIAN_POINT( '', ( -0.249999999999995, 1.37741620859435, 7.30018263590354 ) );
#361 = CARTESIAN_POINT( '', ( -0.250000000000000, 1.27567808359702, 7.40022966101440 ) );
#362 = CARTESIAN_POINT( '', ( -0.250000000000000, 1.17366945943055, 7.50000000000000 ) );
#363 = CARTESIAN_POINT( '', ( -0.249999999999995, -1.47901994577491, 7.20000000000000 ) );
#364 = AXIS2_PLACEMENT_3D( '', #422, #423, #424 );
#365 = CARTESIAN_POINT( '', ( -0.250000000000000, -1.17366945943055, 7.50000000000000 ) );
#366 = CARTESIAN_POINT( '', ( -0.250000000000000, -1.27567808359702, 7.40022966101440 ) );
#367 = CARTESIAN_POINT( '', ( -0.250000000000000, -1.37741620859435, 7.30018263590354 ) );
#368 = CARTESIAN_POINT( '', ( -0.250000000000000, -1.47901994577490, 7.20000000000000 ) );
#369 = COLOUR_RGB( '', 0.200000002980232, 0.200000002980232, 0.200000002980232 );
#370 = CARTESIAN_POINT( '', ( 1.00000000000000, 0.000000000000000, 1.00000000000000 ) );
#371 = AXIS2_PLACEMENT_3D( '', #425, #426, #427 );
#372 = CARTESIAN_POINT( '', ( 1.50000000000000, 0.000000000000000, 1.50000000000000 ) );
#373 = AXIS2_PLACEMENT_3D( '', #428, #429, #430 );
#374 = COLOUR_RGB( '', 0.200000002980232, 0.200000002980232, 0.200000002980232 );
#375 = CARTESIAN_POINT( '', ( 0.250000000000006, -1.47901994577490, 7.20000000000000 ) );
#376 = CARTESIAN_POINT( '', ( 0.250000000000000, -1.17366945943055, 7.50000000000000 ) );
#377 = CARTESIAN_POINT( '', ( 0.250000000000006, -1.47901994577490, 7.20000000000000 ) );
#378 = CARTESIAN_POINT( '', ( 0.250000000000006, -1.37741620859435, 7.30018263590354 ) );
#379 = CARTESIAN_POINT( '', ( 0.250000000000000, -1.27567808359702, 7.40022966101440 ) );
#380 = CARTESIAN_POINT( '', ( 0.250000000000000, -1.17366945943055, 7.50000000000000 ) );
#381 = CARTESIAN_POINT( '', ( 0.250000000000006, 1.47901994577490, 7.20000000000000 ) );
#382 = AXIS2_PLACEMENT_3D( '', #431, #432, #433 );
#383 = CARTESIAN_POINT( '', ( 0.250000000000000, 1.17366945943055, 7.50000000000000 ) );
#384 = CARTESIAN_POINT( '', ( 0.250000000000000, 1.17366945943055, 7.50000000000000 ) );
#385 = CARTESIAN_POINT( '', ( 0.250000000000000, 1.27567808359702, 7.40022966101440 ) );
#386 = CARTESIAN_POINT( '', ( 0.250000000000000, 1.37741620859435, 7.30018263590354 ) );
#387 = CARTESIAN_POINT( '', ( 0.250000000000000, 1.47901994577490, 7.20000000000000 ) );
#388 = AXIS2_PLACEMENT_3D( '', #434, #435, #436 );
#389 = COLOUR_RGB( '', 0.200000002980232, 0.200000002980232, 0.200000002980232 );
#390 = CARTESIAN_POINT( '', ( 1.00000000000000, 0.000000000000000, 0.500000000000000 ) );
#391 = AXIS2_PLACEMENT_3D( '', #437, #438, #439 );
#392 = COLOUR_RGB( '', 0.200000002980232, 0.200000002980232, 0.200000002980232 );
#393 = CARTESIAN_POINT( '', ( 0.250000000000000, -10.0000000000000, 7.50000000000000 ) );
#394 = VECTOR( '', #440, 1000.00000000000 );
#395 = COLOUR_RGB( '', 0.200000002980232, 0.200000002980232, 0.200000002980232 );
#396 = CARTESIAN_POINT( '', ( 0.707106781186548, 0.000000000000000, 0.500000000000000 ) );
#397 = AXIS2_PLACEMENT_3D( '', #441, #442, #443 );
#398 = COLOUR_RGB( '', 0.200000002980232, 0.200000002980232, 0.200000002980232 );
#399 = COLOUR_RGB( '', 0.200000002980232, 0.200000002980232, 0.200000002980232 );
#400 = CARTESIAN_POINT( '', ( -0.249999999999995, -1.47901994577491, 57.1500000000000 ) );
#401 = VECTOR( '', #444, 1000.00000000000 );
#402 = CARTESIAN_POINT( '', ( -0.249999999999995, 1.47901994577491, 57.1500000000000 ) );
#403 = VECTOR( '', #445, 1000.00000000000 );
#404 = COLOUR_RGB( '', 0.752941191196442, 0.752941191196442, 0.752941191196442 );
#405 = CARTESIAN_POINT( '', ( 0.250000000000006, 1.47901994577490, 57.1500000000000 ) );
#406 = VECTOR( '', #446, 1000.00000000000 );
#407 = CARTESIAN_POINT( '', ( 0.250000000000006, -1.47901994577490, 57.1500000000000 ) );
#408 = VECTOR( '', #447, 1000.00000000000 );
#409 = COLOUR_RGB( '', 0.200000002980232, 0.200000002980232, 0.200000002980232 );
#410 = DIRECTION( '', ( 0.000000000000000, 1.00000000000000, 0.000000000000000 ) );
#411 = CARTESIAN_POINT( '', ( 0.000000000000000, 0.000000000000000, 7.50000000000000 ) );
#412 = DIRECTION( '', ( 0.000000000000000, 0.000000000000000, 1.00000000000000 ) );
#413 = DIRECTION( '', ( 1.00000000000000, 0.000000000000000, 0.000000000000000 ) );
#414 = DIRECTION( '', ( 0.000000000000000, 1.00000000000000, 0.000000000000000 ) );
#415 = CARTESIAN_POINT( '', ( 0.000000000000000, 0.000000000000000, 7.00000000000000 ) );
#416 = DIRECTION( '', ( 0.000000000000000, 0.000000000000000, 1.00000000000000 ) );
#417 = DIRECTION( '', ( 1.00000000000000, 0.000000000000000, 0.000000000000000 ) );
#418 = DIRECTION( '', ( 0.000000000000000, 1.00000000000000, 0.000000000000000 ) );
#419 = CARTESIAN_POINT( '', ( 0.000000000000000, 0.000000000000000, 7.00000000000000 ) );
#420 = DIRECTION( '', ( 0.000000000000000, 0.000000000000000, 1.00000000000000 ) );
#421 = DIRECTION( '', ( 1.00000000000000, 0.000000000000000, 0.000000000000000 ) );
#422 = CARTESIAN_POINT( '', ( 0.000000000000000, 0.000000000000000, 7.20000000000000 ) );
#423 = DIRECTION( '', ( 0.000000000000000, 0.000000000000000, 1.00000000000000 ) );
#424 = DIRECTION( '', ( 1.00000000000000, 0.000000000000000, 0.000000000000000 ) );
#425 = CARTESIAN_POINT( '', ( 0.000000000000000, 0.000000000000000, 1.00000000000000 ) );
#426 = DIRECTION( '', ( 0.000000000000000, 0.000000000000000, 1.00000000000000 ) );
#427 = DIRECTION( '', ( 1.00000000000000, 0.000000000000000, 0.000000000000000 ) );
#428 = CARTESIAN_POINT( '', ( 0.000000000000000, 0.000000000000000, 1.50000000000000 ) );
#429 = DIRECTION( '', ( 0.000000000000000, 0.000000000000000, 1.00000000000000 ) );
#430 = DIRECTION( '', ( 1.00000000000000, 0.000000000000000, 0.000000000000000 ) );
#431 = CARTESIAN_POINT( '', ( 0.000000000000000, 0.000000000000000, 7.20000000000000 ) );
#432 = DIRECTION( '', ( 0.000000000000000, 0.000000000000000, 1.00000000000000 ) );
#433 = DIRECTION( '', ( 1.00000000000000, 0.000000000000000, 0.000000000000000 ) );
#434 = CARTESIAN_POINT( '', ( 0.000000000000000, 0.000000000000000, 7.50000000000000 ) );
#435 = DIRECTION( '', ( 0.000000000000000, 0.000000000000000, 1.00000000000000 ) );
#436 = DIRECTION( '', ( 1.00000000000000, 0.000000000000000, 0.000000000000000 ) );
#437 = CARTESIAN_POINT( '', ( 0.000000000000000, 0.000000000000000, 0.500000000000000 ) );
#438 = DIRECTION( '', ( 0.000000000000000, 0.000000000000000, 1.00000000000000 ) );
#439 = DIRECTION( '', ( 1.00000000000000, 0.000000000000000, 0.000000000000000 ) );
#440 = DIRECTION( '', ( 0.000000000000000, 1.00000000000000, 0.000000000000000 ) );
#441 = CARTESIAN_POINT( '', ( 0.000000000000000, 0.000000000000000, 0.500000000000000 ) );
#442 = DIRECTION( '', ( 0.000000000000000, 0.000000000000000, 1.00000000000000 ) );
#443 = DIRECTION( '', ( 1.00000000000000, 0.000000000000000, 0.000000000000000 ) );
#444 = DIRECTION( '', ( 0.000000000000000, 0.000000000000000, 1.00000000000000 ) );
#445 = DIRECTION( '', ( 0.000000000000000, 0.000000000000000, 1.00000000000000 ) );
#446 = DIRECTION( '', ( 0.000000000000000, 0.000000000000000, 1.00000000000000 ) );
#447 = DIRECTION( '', ( 0.000000000000000, 0.000000000000000, 1.00000000000000 ) );
ENDSEC;
END-ISO-10303-21;
