ISO-10303-21;
HEADER;
FILE_DESCRIPTION( ( 'Unknown' ), '1' );
FILE_NAME( '//SBS2003/HD_Usb/Disegni/08_LIB/Users_3D/PROD_GAMM_3D/APS-A/7747410_APS_9_A.stp', 'Unknown', ( 'Unknown' ), ( 'Unknown' ), 'PSStep 14.0', 'Unknown', '  ' );
FILE_SCHEMA( ( 'AUTOMOTIVE_DESIGN { 1 0 10303 214 1 1 1 1 }' ) );
ENDSEC;
DATA;
#1 = MECHANICAL_DESIGN_GEOMETRIC_PRESENTATION_REPRESENTATION( ' ', ( #10, #11, #12, #13, #14, #15, #16, #17, #18, #19, #20, #21 ), #6 );
#2 = PRODUCT_DEFINITION_CONTEXT( '', #22, 'design' );
#3 = APPLICATION_PROTOCOL_DEFINITION( 'international standard', 'automotive_design', 2001, #22 );
#4 = PRODUCT_CATEGORY_RELATIONSHIP( 'NONE', 'NONE', #23, #24 );
#5 = SHAPE_DEFINITION_REPRESENTATION( #25, #26 );
#6 =  ( GEOMETRIC_REPRESENTATION_CONTEXT( 3 )GLOBAL_UNCERTAINTY_ASSIGNED_CONTEXT( ( #29 ) )GLOBAL_UNIT_ASSIGNED_CONTEXT( ( #31, #32, #33 ) )REPRESENTATION_CONTEXT( 'NONE', 'WORKSPACE' ) );
#10 = STYLED_ITEM( '', ( #35 ), #36 );
#11 = STYLED_ITEM( '', ( #37 ), #38 );
#12 = STYLED_ITEM( '', ( #39 ), #40 );
#13 = STYLED_ITEM( '', ( #41 ), #42 );
#14 = STYLED_ITEM( '', ( #43 ), #44 );
#15 = STYLED_ITEM( '', ( #45 ), #46 );
#16 = STYLED_ITEM( '', ( #47 ), #48 );
#17 = STYLED_ITEM( '', ( #49 ), #50 );
#18 = STYLED_ITEM( '', ( #51 ), #52 );
#19 = STYLED_ITEM( '', ( #53 ), #54 );
#20 = STYLED_ITEM( '', ( #55 ), #56 );
#21 = STYLED_ITEM( '', ( #57 ), #58 );
#22 = APPLICATION_CONTEXT( 'core data for automotive mechanical design processes' );
#23 = PRODUCT_CATEGORY( 'part', 'NONE' );
#24 = PRODUCT_RELATED_PRODUCT_CATEGORY( 'detail', ' ', ( #59 ) );
#25 = PRODUCT_DEFINITION_SHAPE( 'NONE', 'NONE', #60 );
#26 = ADVANCED_BREP_SHAPE_REPRESENTATION( '1', ( #61, #62 ), #6 );
#29 = UNCERTAINTY_MEASURE_WITH_UNIT( LENGTH_MEASURE( 0.00100000000000000 ), #31, '', '' );
#31 =  ( CONVERSION_BASED_UNIT( 'MILLIMETRE', #65 )LENGTH_UNIT(  )NAMED_UNIT( #68 ) );
#32 =  ( NAMED_UNIT( #70 )PLANE_ANGLE_UNIT(  )SI_UNIT( $, .RADIAN. ) );
#33 =  ( NAMED_UNIT( #70 )SI_UNIT( $, .STERADIAN. )SOLID_ANGLE_UNIT(  ) );
#35 = PRESENTATION_STYLE_ASSIGNMENT( ( #76 ) );
#36 = ADVANCED_FACE( '', ( #77 ), #78, .T. );
#37 = PRESENTATION_STYLE_ASSIGNMENT( ( #79 ) );
#38 = ADVANCED_FACE( '', ( #80 ), #81, .T. );
#39 = PRESENTATION_STYLE_ASSIGNMENT( ( #82 ) );
#40 = ADVANCED_FACE( '', ( #83, #84 ), #85, .T. );
#41 = PRESENTATION_STYLE_ASSIGNMENT( ( #86 ) );
#42 = ADVANCED_FACE( '', ( #87 ), #88, .T. );
#43 = PRESENTATION_STYLE_ASSIGNMENT( ( #89 ) );
#44 = ADVANCED_FACE( '', ( #90 ), #91, .T. );
#45 = PRESENTATION_STYLE_ASSIGNMENT( ( #92 ) );
#46 = ADVANCED_FACE( '', ( #93 ), #94, .T. );
#47 = PRESENTATION_STYLE_ASSIGNMENT( ( #95 ) );
#48 = ADVANCED_FACE( '', ( #96 ), #97, .T. );
#49 = PRESENTATION_STYLE_ASSIGNMENT( ( #98 ) );
#50 = ADVANCED_FACE( '', ( #99 ), #100, .T. );
#51 = PRESENTATION_STYLE_ASSIGNMENT( ( #101 ) );
#52 = ADVANCED_FACE( '', ( #102, #103 ), #104, .T. );
#53 = PRESENTATION_STYLE_ASSIGNMENT( ( #105 ) );
#54 = ADVANCED_FACE( '', ( #106, #107 ), #108, .T. );
#55 = PRESENTATION_STYLE_ASSIGNMENT( ( #109 ) );
#56 = ADVANCED_FACE( '', ( #110 ), #111, .T. );
#57 = PRESENTATION_STYLE_ASSIGNMENT( ( #112 ) );
#58 = ADVANCED_FACE( '', ( #113, #114 ), #115, .T. );
#59 = PRODUCT( '1', '1', 'PART-1-DESC', ( #116 ) );
#60 = PRODUCT_DEFINITION( 'NONE', 'NONE', #117, #2 );
#61 = MANIFOLD_SOLID_BREP( '1', #118 );
#62 = AXIS2_PLACEMENT_3D( '', #119, #120, #121 );
#65 = LENGTH_MEASURE_WITH_UNIT( LENGTH_MEASURE( 1.00000000000000 ), #122 );
#68 = DIMENSIONAL_EXPONENTS( 1.00000000000000, 0.000000000000000, 0.000000000000000, 0.000000000000000, 0.000000000000000, 0.000000000000000, 0.000000000000000 );
#70 = DIMENSIONAL_EXPONENTS( 0.000000000000000, 0.000000000000000, 0.000000000000000, 0.000000000000000, 0.000000000000000, 0.000000000000000, 0.000000000000000 );
#76 = SURFACE_STYLE_USAGE( .BOTH., #123 );
#77 = FACE_OUTER_BOUND( '', #124, .T. );
#78 = PLANE( '', #125 );
#79 = SURFACE_STYLE_USAGE( .BOTH., #126 );
#80 = FACE_OUTER_BOUND( '', #127, .T. );
#81 = CONICAL_SURFACE( '', #128, 1.70000000000000, 0.785398163397446 );
#82 = SURFACE_STYLE_USAGE( .BOTH., #129 );
#83 = FACE_OUTER_BOUND( '', #130, .T. );
#84 = FACE_OUTER_BOUND( '', #131, .T. );
#85 = CYLINDRICAL_SURFACE( '', #132, 1.50000000000000 );
#86 = SURFACE_STYLE_USAGE( .BOTH., #133 );
#87 = FACE_OUTER_BOUND( '', #134, .T. );
#88 = SPHERICAL_SURFACE( '', #135, 1.25000000000000 );
#89 = SURFACE_STYLE_USAGE( .BOTH., #136 );
#90 = FACE_OUTER_BOUND( '', #137, .T. );
#91 = PLANE( '', #138 );
#92 = SURFACE_STYLE_USAGE( .BOTH., #139 );
#93 = FACE_OUTER_BOUND( '', #140, .T. );
#94 = PLANE( '', #141 );
#95 = SURFACE_STYLE_USAGE( .BOTH., #142 );
#96 = FACE_OUTER_BOUND( '', #143, .T. );
#97 = CONICAL_SURFACE( '', #144, 1.70000000000000, 0.785398163397446 );
#98 = SURFACE_STYLE_USAGE( .BOTH., #145 );
#99 = FACE_OUTER_BOUND( '', #146, .T. );
#100 = PLANE( '', #147 );
#101 = SURFACE_STYLE_USAGE( .BOTH., #148 );
#102 = FACE_OUTER_BOUND( '', #149, .T. );
#103 = FACE_OUTER_BOUND( '', #150, .T. );
#104 = CYLINDRICAL_SURFACE( '', #151, 2.00000000000000 );
#105 = SURFACE_STYLE_USAGE( .BOTH., #152 );
#106 = FACE_BOUND( '', #153, .T. );
#107 = FACE_OUTER_BOUND( '', #154, .T. );
#108 = CONICAL_SURFACE( '', #155, 2.00000000000000, 0.785398163397449 );
#109 = SURFACE_STYLE_USAGE( .BOTH., #156 );
#110 = FACE_OUTER_BOUND( '', #157, .T. );
#111 = PLANE( '', #158 );
#112 = SURFACE_STYLE_USAGE( .BOTH., #159 );
#113 = FACE_BOUND( '', #160, .T. );
#114 = FACE_OUTER_BOUND( '', #161, .T. );
#115 = PLANE( '', #162 );
#116 = PRODUCT_CONTEXT( '', #22, 'mechanical' );
#117 = PRODUCT_DEFINITION_FORMATION_WITH_SPECIFIED_SOURCE( ' ', 'NONE', #59, .NOT_KNOWN. );
#118 = CLOSED_SHELL( '', ( #36, #48, #52, #44, #50, #46, #38, #56, #54, #40, #58, #42 ) );
#119 = CARTESIAN_POINT( '', ( 0.000000000000000, 0.000000000000000, 0.000000000000000 ) );
#120 = DIRECTION( '', ( 0.000000000000000, 0.000000000000000, 1.00000000000000 ) );
#121 = DIRECTION( '', ( 1.00000000000000, 0.000000000000000, 0.000000000000000 ) );
#122 =  ( LENGTH_UNIT(  )NAMED_UNIT( #68 )SI_UNIT( .MILLI., .METRE. ) );
#123 = SURFACE_SIDE_STYLE( '', ( #164 ) );
#124 = EDGE_LOOP( '', ( #165, #166 ) );
#125 = AXIS2_PLACEMENT_3D( '', #167, #168, #169 );
#126 = SURFACE_SIDE_STYLE( '', ( #170 ) );
#127 = EDGE_LOOP( '', ( #171, #172, #173, #174 ) );
#128 = AXIS2_PLACEMENT_3D( '', #175, #176, #177 );
#129 = SURFACE_SIDE_STYLE( '', ( #178 ) );
#130 = EDGE_LOOP( '', ( #179 ) );
#131 = EDGE_LOOP( '', ( #180 ) );
#132 = AXIS2_PLACEMENT_3D( '', #181, #182, #183 );
#133 = SURFACE_SIDE_STYLE( '', ( #184 ) );
#134 = EDGE_LOOP( '', ( #185 ) );
#135 = AXIS2_PLACEMENT_3D( '', #186, #187, #188 );
#136 = SURFACE_SIDE_STYLE( '', ( #189 ) );
#137 = EDGE_LOOP( '', ( #190, #191, #192, #193 ) );
#138 = AXIS2_PLACEMENT_3D( '', #194, #195, #196 );
#139 = SURFACE_SIDE_STYLE( '', ( #197 ) );
#140 = EDGE_LOOP( '', ( #198, #199, #200, #201, #202, #203 ) );
#141 = AXIS2_PLACEMENT_3D( '', #204, #205, #206 );
#142 = SURFACE_SIDE_STYLE( '', ( #207 ) );
#143 = EDGE_LOOP( '', ( #208, #209, #210, #211 ) );
#144 = AXIS2_PLACEMENT_3D( '', #212, #213, #214 );
#145 = SURFACE_SIDE_STYLE( '', ( #215 ) );
#146 = EDGE_LOOP( '', ( #216, #217, #218, #219, #220, #221 ) );
#147 = AXIS2_PLACEMENT_3D( '', #222, #223, #224 );
#148 = SURFACE_SIDE_STYLE( '', ( #225 ) );
#149 = EDGE_LOOP( '', ( #226 ) );
#150 = EDGE_LOOP( '', ( #227, #228, #229, #230, #231, #232, #233, #234 ) );
#151 = AXIS2_PLACEMENT_3D( '', #235, #236, #237 );
#152 = SURFACE_SIDE_STYLE( '', ( #238 ) );
#153 = EDGE_LOOP( '', ( #239 ) );
#154 = EDGE_LOOP( '', ( #240 ) );
#155 = AXIS2_PLACEMENT_3D( '', #241, #242, #243 );
#156 = SURFACE_SIDE_STYLE( '', ( #244 ) );
#157 = EDGE_LOOP( '', ( #245, #246 ) );
#158 = AXIS2_PLACEMENT_3D( '', #247, #248, #249 );
#159 = SURFACE_SIDE_STYLE( '', ( #250 ) );
#160 = EDGE_LOOP( '', ( #251 ) );
#161 = EDGE_LOOP( '', ( #252 ) );
#162 = AXIS2_PLACEMENT_3D( '', #253, #254, #255 );
#164 = SURFACE_STYLE_FILL_AREA( #256 );
#165 = ORIENTED_EDGE( '', *, *, #257, .T. );
#166 = ORIENTED_EDGE( '', *, *, #258, .T. );
#167 = CARTESIAN_POINT( '', ( 0.000000000000000, 0.000000000000000, 9.80000000000000 ) );
#168 = DIRECTION( '', ( 0.000000000000000, 0.000000000000000, 1.00000000000000 ) );
#169 = DIRECTION( '', ( 1.00000000000000, 0.000000000000000, 0.000000000000000 ) );
#170 = SURFACE_STYLE_FILL_AREA( #259 );
#171 = ORIENTED_EDGE( '', *, *, #260, .F. );
#172 = ORIENTED_EDGE( '', *, *, #261, .F. );
#173 = ORIENTED_EDGE( '', *, *, #262, .F. );
#174 = ORIENTED_EDGE( '', *, *, #258, .F. );
#175 = CARTESIAN_POINT( '', ( 0.000000000000000, 0.000000000000000, 9.80000000000000 ) );
#176 = DIRECTION( '', ( -0.000000000000000, 0.000000000000000, -1.00000000000000 ) );
#177 = DIRECTION( '', ( -1.00000000000000, 0.000000000000000, 0.000000000000000 ) );
#178 = SURFACE_STYLE_FILL_AREA( #263 );
#179 = ORIENTED_EDGE( '', *, *, #264, .T. );
#180 = ORIENTED_EDGE( '', *, *, #265, .F. );
#181 = CARTESIAN_POINT( '', ( 0.000000000000000, 0.000000000000000, 57.1500000000000 ) );
#182 = DIRECTION( '', ( -0.000000000000000, -0.000000000000000, -1.00000000000000 ) );
#183 = DIRECTION( '', ( 1.00000000000000, 0.000000000000000, 0.000000000000000 ) );
#184 = SURFACE_STYLE_FILL_AREA( #266 );
#185 = ORIENTED_EDGE( '', *, *, #267, .F. );
#186 = CARTESIAN_POINT( '', ( 0.000000000000000, 0.000000000000000, 1.25000000000000 ) );
#187 = DIRECTION( '', ( 0.000000000000000, 0.000000000000000, 1.00000000000000 ) );
#188 = DIRECTION( '', ( 1.00000000000000, 0.000000000000000, 0.000000000000000 ) );
#189 = SURFACE_STYLE_FILL_AREA( #268 );
#190 = ORIENTED_EDGE( '', *, *, #269, .T. );
#191 = ORIENTED_EDGE( '', *, *, #270, .F. );
#192 = ORIENTED_EDGE( '', *, *, #271, .F. );
#193 = ORIENTED_EDGE( '', *, *, #272, .F. );
#194 = CARTESIAN_POINT( '', ( -0.250000000000000, -10.0000000000000, 9.30000000000000 ) );
#195 = DIRECTION( '', ( 0.000000000000000, 0.000000000000000, 1.00000000000000 ) );
#196 = DIRECTION( '', ( 1.00000000000000, 0.000000000000000, 0.000000000000000 ) );
#197 = SURFACE_STYLE_FILL_AREA( #273 );
#198 = ORIENTED_EDGE( '', *, *, #257, .F. );
#199 = ORIENTED_EDGE( '', *, *, #262, .T. );
#200 = ORIENTED_EDGE( '', *, *, #274, .F. );
#201 = ORIENTED_EDGE( '', *, *, #271, .T. );
#202 = ORIENTED_EDGE( '', *, *, #275, .F. );
#203 = ORIENTED_EDGE( '', *, *, #260, .T. );
#204 = CARTESIAN_POINT( '', ( -0.250000000000000, -10.0000000000000, 9.80000000000000 ) );
#205 = DIRECTION( '', ( 1.00000000000000, 0.000000000000000, 1.08420217248550E-016 ) );
#206 = DIRECTION( '', ( 1.08420217248550E-016, 0.000000000000000, -1.00000000000000 ) );
#207 = SURFACE_STYLE_FILL_AREA( #276 );
#208 = ORIENTED_EDGE( '', *, *, #277, .F. );
#209 = ORIENTED_EDGE( '', *, *, #278, .F. );
#210 = ORIENTED_EDGE( '', *, *, #279, .F. );
#211 = ORIENTED_EDGE( '', *, *, #280, .F. );
#212 = CARTESIAN_POINT( '', ( 0.000000000000000, 0.000000000000000, 9.80000000000000 ) );
#213 = DIRECTION( '', ( -0.000000000000000, 0.000000000000000, -1.00000000000000 ) );
#214 = DIRECTION( '', ( -1.00000000000000, 0.000000000000000, 0.000000000000000 ) );
#215 = SURFACE_STYLE_FILL_AREA( #281 );
#216 = ORIENTED_EDGE( '', *, *, #282, .T. );
#217 = ORIENTED_EDGE( '', *, *, #279, .T. );
#218 = ORIENTED_EDGE( '', *, *, #283, .F. );
#219 = ORIENTED_EDGE( '', *, *, #269, .F. );
#220 = ORIENTED_EDGE( '', *, *, #284, .F. );
#221 = ORIENTED_EDGE( '', *, *, #277, .T. );
#222 = CARTESIAN_POINT( '', ( 0.250000000000000, -10.0000000000000, 9.30000000000000 ) );
#223 = DIRECTION( '', ( -1.00000000000000, 0.000000000000000, 1.08420217248550E-016 ) );
#224 = DIRECTION( '', ( 1.08420217248550E-016, 0.000000000000000, 1.00000000000000 ) );
#225 = SURFACE_STYLE_FILL_AREA( #285 );
#226 = ORIENTED_EDGE( '', *, *, #286, .T. );
#227 = ORIENTED_EDGE( '', *, *, #274, .T. );
#228 = ORIENTED_EDGE( '', *, *, #261, .T. );
#229 = ORIENTED_EDGE( '', *, *, #275, .T. );
#230 = ORIENTED_EDGE( '', *, *, #270, .T. );
#231 = ORIENTED_EDGE( '', *, *, #283, .T. );
#232 = ORIENTED_EDGE( '', *, *, #278, .T. );
#233 = ORIENTED_EDGE( '', *, *, #284, .T. );
#234 = ORIENTED_EDGE( '', *, *, #272, .T. );
#235 = CARTESIAN_POINT( '', ( 0.000000000000000, 0.000000000000000, 57.1500000000000 ) );
#236 = DIRECTION( '', ( -0.000000000000000, -0.000000000000000, -1.00000000000000 ) );
#237 = DIRECTION( '', ( 1.00000000000000, 0.000000000000000, 0.000000000000000 ) );
#238 = SURFACE_STYLE_FILL_AREA( #287 );
#239 = ORIENTED_EDGE( '', *, *, #265, .T. );
#240 = ORIENTED_EDGE( '', *, *, #286, .F. );
#241 = CARTESIAN_POINT( '', ( 0.000000000000000, 0.000000000000000, 1.80000000000000 ) );
#242 = DIRECTION( '', ( -0.000000000000000, -0.000000000000000, 1.00000000000000 ) );
#243 = DIRECTION( '', ( 1.00000000000000, 0.000000000000000, 0.000000000000000 ) );
#244 = SURFACE_STYLE_FILL_AREA( #288 );
#245 = ORIENTED_EDGE( '', *, *, #282, .F. );
#246 = ORIENTED_EDGE( '', *, *, #280, .T. );
#247 = CARTESIAN_POINT( '', ( 0.000000000000000, 0.000000000000000, 9.80000000000000 ) );
#248 = DIRECTION( '', ( 0.000000000000000, 0.000000000000000, 1.00000000000000 ) );
#249 = DIRECTION( '', ( 1.00000000000000, 0.000000000000000, 0.000000000000000 ) );
#250 = SURFACE_STYLE_FILL_AREA( #289 );
#251 = ORIENTED_EDGE( '', *, *, #267, .T. );
#252 = ORIENTED_EDGE( '', *, *, #264, .F. );
#253 = CARTESIAN_POINT( '', ( 1.16619037896906, 0.000000000000000, 0.800000000000000 ) );
#254 = DIRECTION( '', ( 0.000000000000000, 0.000000000000000, -1.00000000000000 ) );
#255 = DIRECTION( '', ( -1.00000000000000, 0.000000000000000, 0.000000000000000 ) );
#256 = FILL_AREA_STYLE( '', ( #290 ) );
#257 = EDGE_CURVE( '', #291, #292, #293, .T. );
#258 = EDGE_CURVE( '', #292, #291, #294, .T. );
#259 = FILL_AREA_STYLE( '', ( #295 ) );
#260 = EDGE_CURVE( '', #296, #292, #297, .T. );
#261 = EDGE_CURVE( '', #298, #296, #299, .F. );
#262 = EDGE_CURVE( '', #291, #298, #300, .T. );
#263 = FILL_AREA_STYLE( '', ( #301 ) );
#264 = EDGE_CURVE( '', #302, #302, #303, .T. );
#265 = EDGE_CURVE( '', #304, #304, #305, .T. );
#266 = FILL_AREA_STYLE( '', ( #306 ) );
#267 = EDGE_CURVE( '', #307, #307, #308, .T. );
#268 = FILL_AREA_STYLE( '', ( #309 ) );
#269 = EDGE_CURVE( '', #310, #311, #312, .T. );
#270 = EDGE_CURVE( '', #313, #311, #314, .F. );
#271 = EDGE_CURVE( '', #315, #313, #316, .T. );
#272 = EDGE_CURVE( '', #310, #315, #317, .F. );
#273 = FILL_AREA_STYLE( '', ( #318 ) );
#274 = EDGE_CURVE( '', #315, #298, #319, .T. );
#275 = EDGE_CURVE( '', #296, #313, #320, .F. );
#276 = FILL_AREA_STYLE( '', ( #321 ) );
#277 = EDGE_CURVE( '', #322, #323, #324, .T. );
#278 = EDGE_CURVE( '', #325, #322, #326, .F. );
#279 = EDGE_CURVE( '', #327, #325, #328, .T. );
#280 = EDGE_CURVE( '', #323, #327, #329, .T. );
#281 = FILL_AREA_STYLE( '', ( #330 ) );
#282 = EDGE_CURVE( '', #323, #327, #331, .T. );
#283 = EDGE_CURVE( '', #311, #325, #332, .T. );
#284 = EDGE_CURVE( '', #322, #310, #333, .F. );
#285 = FILL_AREA_STYLE( '', ( #334 ) );
#286 = EDGE_CURVE( '', #335, #335, #336, .T. );
#287 = FILL_AREA_STYLE( '', ( #337 ) );
#288 = FILL_AREA_STYLE( '', ( #338 ) );
#289 = FILL_AREA_STYLE( '', ( #339 ) );
#290 = FILL_AREA_STYLE_COLOUR( '', #340 );
#291 = VERTEX_POINT( '', #341 );
#292 = VERTEX_POINT( '', #342 );
#293 = LINE( '', #343, #344 );
#294 = CIRCLE( '', #345, 1.70000000000000 );
#295 = FILL_AREA_STYLE_COLOUR( '', #346 );
#296 = VERTEX_POINT( '', #347 );
#297 = B_SPLINE_CURVE_WITH_KNOTS( '', 3, ( #348, #349, #350, #351 ), .UNSPECIFIED., .F., .F., ( 4, 4 ), ( 0.000000000000000, 0.000426245945537881 ), .UNSPECIFIED. );
#298 = VERTEX_POINT( '', #352 );
#299 = CIRCLE( '', #353, 2.00000000000000 );
#300 = B_SPLINE_CURVE_WITH_KNOTS( '', 3, ( #354, #355, #356, #357 ), .UNSPECIFIED., .F., .F., ( 4, 4 ), ( 0.000000000000000, 0.000426245945537881 ), .UNSPECIFIED. );
#301 = FILL_AREA_STYLE_COLOUR( '', #358 );
#302 = VERTEX_POINT( '', #359 );
#303 = CIRCLE( '', #360, 1.50000000000000 );
#304 = VERTEX_POINT( '', #361 );
#305 = CIRCLE( '', #362, 1.50000000000000 );
#306 = FILL_AREA_STYLE_COLOUR( '', #363 );
#307 = VERTEX_POINT( '', #364 );
#308 = CIRCLE( '', #365, 1.16619037896906 );
#309 = FILL_AREA_STYLE_COLOUR( '', #366 );
#310 = VERTEX_POINT( '', #367 );
#311 = VERTEX_POINT( '', #368 );
#312 = LINE( '', #369, #370 );
#313 = VERTEX_POINT( '', #371 );
#314 = CIRCLE( '', #372, 2.00000000000000 );
#315 = VERTEX_POINT( '', #373 );
#316 = LINE( '', #374, #375 );
#317 = CIRCLE( '', #376, 2.00000000000000 );
#318 = FILL_AREA_STYLE_COLOUR( '', #377 );
#319 = LINE( '', #378, #379 );
#320 = LINE( '', #380, #381 );
#321 = FILL_AREA_STYLE_COLOUR( '', #382 );
#322 = VERTEX_POINT( '', #383 );
#323 = VERTEX_POINT( '', #384 );
#324 = B_SPLINE_CURVE_WITH_KNOTS( '', 3, ( #385, #386, #387, #388 ), .UNSPECIFIED., .F., .F., ( 4, 4 ), ( 0.000000000000000, 0.000426245945537881 ), .UNSPECIFIED. );
#325 = VERTEX_POINT( '', #389 );
#326 = CIRCLE( '', #390, 2.00000000000000 );
#327 = VERTEX_POINT( '', #391 );
#328 = B_SPLINE_CURVE_WITH_KNOTS( '', 3, ( #392, #393, #394, #395 ), .UNSPECIFIED., .F., .F., ( 4, 4 ), ( 0.000000000000000, 0.000426245945537881 ), .UNSPECIFIED. );
#329 = CIRCLE( '', #396, 1.70000000000000 );
#330 = FILL_AREA_STYLE_COLOUR( '', #397 );
#331 = LINE( '', #398, #399 );
#332 = LINE( '', #400, #401 );
#333 = LINE( '', #402, #403 );
#334 = FILL_AREA_STYLE_COLOUR( '', #404 );
#335 = VERTEX_POINT( '', #405 );
#336 = CIRCLE( '', #406, 2.00000000000000 );
#337 = FILL_AREA_STYLE_COLOUR( '', #407 );
#338 = FILL_AREA_STYLE_COLOUR( '', #408 );
#339 = FILL_AREA_STYLE_COLOUR( '', #409 );
#340 = COLOUR_RGB( '', 0.200000002980232, 0.200000002980232, 0.200000002980232 );
#341 = CARTESIAN_POINT( '', ( -0.250000000000000, -1.68151717208002, 9.80000000000000 ) );
#342 = CARTESIAN_POINT( '', ( -0.250000000000000, 1.68151717208002, 9.80000000000000 ) );
#343 = CARTESIAN_POINT( '', ( -0.250000000000000, -10.0000000000000, 9.80000000000000 ) );
#344 = VECTOR( '', #410, 1000.00000000000 );
#345 = AXIS2_PLACEMENT_3D( '', #411, #412, #413 );
#346 = COLOUR_RGB( '', 0.200000002980232, 0.200000002980232, 0.200000002980232 );
#347 = CARTESIAN_POINT( '', ( -0.250000000000006, 1.98431348329844, 9.50000000000000 ) );
#348 = CARTESIAN_POINT( '', ( -0.250000000000006, 1.98431348329844, 9.50000000000000 ) );
#349 = CARTESIAN_POINT( '', ( -0.250000000000006, 1.88345158612904, 9.60007081125215 ) );
#350 = CARTESIAN_POINT( '', ( -0.250000000000000, 1.78253193316862, 9.70008349682115 ) );
#351 = CARTESIAN_POINT( '', ( -0.250000000000000, 1.68151717208002, 9.80000000000000 ) );
#352 = CARTESIAN_POINT( '', ( -0.250000000000006, -1.98431348329844, 9.50000000000000 ) );
#353 = AXIS2_PLACEMENT_3D( '', #414, #415, #416 );
#354 = CARTESIAN_POINT( '', ( -0.250000000000000, -1.68151717208002, 9.80000000000000 ) );
#355 = CARTESIAN_POINT( '', ( -0.250000000000000, -1.78253193316862, 9.70008349682115 ) );
#356 = CARTESIAN_POINT( '', ( -0.250000000000000, -1.88345158612904, 9.60007081125215 ) );
#357 = CARTESIAN_POINT( '', ( -0.250000000000000, -1.98431348329844, 9.50000000000000 ) );
#358 = COLOUR_RGB( '', 0.200000002980232, 0.200000002980232, 0.200000002980232 );
#359 = CARTESIAN_POINT( '', ( 1.50000000000000, 0.000000000000000, 0.800000000000000 ) );
#360 = AXIS2_PLACEMENT_3D( '', #417, #418, #419 );
#361 = CARTESIAN_POINT( '', ( 1.50000000000000, 0.000000000000000, 1.30000000000000 ) );
#362 = AXIS2_PLACEMENT_3D( '', #420, #421, #422 );
#363 = COLOUR_RGB( '', 0.200000002980232, 0.200000002980232, 0.200000002980232 );
#364 = CARTESIAN_POINT( '', ( 1.16619037896906, 0.000000000000000, 0.800000000000000 ) );
#365 = AXIS2_PLACEMENT_3D( '', #423, #424, #425 );
#366 = COLOUR_RGB( '', 0.200000002980232, 0.200000002980232, 0.200000002980232 );
#367 = CARTESIAN_POINT( '', ( 0.250000000000000, -1.98431348329844, 9.30000000000000 ) );
#368 = CARTESIAN_POINT( '', ( 0.250000000000000, 1.98431348329844, 9.30000000000000 ) );
#369 = CARTESIAN_POINT( '', ( 0.250000000000000, -10.0000000000000, 9.30000000000000 ) );
#370 = VECTOR( '', #426, 1000.00000000000 );
#371 = CARTESIAN_POINT( '', ( -0.250000000000000, 1.98431348329844, 9.30000000000000 ) );
#372 = AXIS2_PLACEMENT_3D( '', #427, #428, #429 );
#373 = CARTESIAN_POINT( '', ( -0.250000000000000, -1.98431348329844, 9.30000000000000 ) );
#374 = CARTESIAN_POINT( '', ( -0.250000000000000, -10.0000000000000, 9.30000000000000 ) );
#375 = VECTOR( '', #430, 1000.00000000000 );
#376 = AXIS2_PLACEMENT_3D( '', #431, #432, #433 );
#377 = COLOUR_RGB( '', 0.200000002980232, 0.200000002980232, 0.200000002980232 );
#378 = CARTESIAN_POINT( '', ( -0.250000000000006, -1.98431348329844, 57.1500000000000 ) );
#379 = VECTOR( '', #434, 1000.00000000000 );
#380 = CARTESIAN_POINT( '', ( -0.250000000000006, 1.98431348329844, 57.1500000000000 ) );
#381 = VECTOR( '', #435, 1000.00000000000 );
#382 = COLOUR_RGB( '', 0.200000002980232, 0.200000002980232, 0.200000002980232 );
#383 = CARTESIAN_POINT( '', ( 0.250000000000005, -1.98431348329844, 9.50000000000000 ) );
#384 = CARTESIAN_POINT( '', ( 0.250000000000000, -1.68151717208002, 9.80000000000000 ) );
#385 = CARTESIAN_POINT( '', ( 0.250000000000005, -1.98431348329844, 9.50000000000000 ) );
#386 = CARTESIAN_POINT( '', ( 0.250000000000005, -1.88345158612904, 9.60007081125215 ) );
#387 = CARTESIAN_POINT( '', ( 0.250000000000000, -1.78253193316862, 9.70008349682115 ) );
#388 = CARTESIAN_POINT( '', ( 0.250000000000000, -1.68151717208002, 9.80000000000000 ) );
#389 = CARTESIAN_POINT( '', ( 0.250000000000005, 1.98431348329844, 9.50000000000000 ) );
#390 = AXIS2_PLACEMENT_3D( '', #436, #437, #438 );
#391 = CARTESIAN_POINT( '', ( 0.250000000000000, 1.68151717208002, 9.80000000000000 ) );
#392 = CARTESIAN_POINT( '', ( 0.250000000000000, 1.68151717208002, 9.80000000000000 ) );
#393 = CARTESIAN_POINT( '', ( 0.250000000000000, 1.78253193316862, 9.70008349682115 ) );
#394 = CARTESIAN_POINT( '', ( 0.250000000000000, 1.88345158612904, 9.60007081125215 ) );
#395 = CARTESIAN_POINT( '', ( 0.250000000000000, 1.98431348329844, 9.50000000000000 ) );
#396 = AXIS2_PLACEMENT_3D( '', #439, #440, #441 );
#397 = COLOUR_RGB( '', 0.200000002980232, 0.200000002980232, 0.200000002980232 );
#398 = CARTESIAN_POINT( '', ( 0.250000000000000, -10.0000000000000, 9.80000000000000 ) );
#399 = VECTOR( '', #442, 1000.00000000000 );
#400 = CARTESIAN_POINT( '', ( 0.250000000000005, 1.98431348329844, 57.1500000000000 ) );
#401 = VECTOR( '', #443, 1000.00000000000 );
#402 = CARTESIAN_POINT( '', ( 0.250000000000005, -1.98431348329844, 57.1500000000000 ) );
#403 = VECTOR( '', #444, 1000.00000000000 );
#404 = COLOUR_RGB( '', 0.752941191196442, 0.752941191196442, 0.752941191196442 );
#405 = CARTESIAN_POINT( '', ( 2.00000000000000, 0.000000000000000, 1.80000000000000 ) );
#406 = AXIS2_PLACEMENT_3D( '', #445, #446, #447 );
#407 = COLOUR_RGB( '', 0.200000002980232, 0.200000002980232, 0.200000002980232 );
#408 = COLOUR_RGB( '', 0.200000002980232, 0.200000002980232, 0.200000002980232 );
#409 = COLOUR_RGB( '', 0.200000002980232, 0.200000002980232, 0.200000002980232 );
#410 = DIRECTION( '', ( 0.000000000000000, 1.00000000000000, 0.000000000000000 ) );
#411 = CARTESIAN_POINT( '', ( 0.000000000000000, 0.000000000000000, 9.80000000000000 ) );
#412 = DIRECTION( '', ( 0.000000000000000, 0.000000000000000, 1.00000000000000 ) );
#413 = DIRECTION( '', ( 1.00000000000000, 0.000000000000000, 0.000000000000000 ) );
#414 = CARTESIAN_POINT( '', ( 0.000000000000000, 0.000000000000000, 9.50000000000000 ) );
#415 = DIRECTION( '', ( 0.000000000000000, 0.000000000000000, 1.00000000000000 ) );
#416 = DIRECTION( '', ( 1.00000000000000, 0.000000000000000, 0.000000000000000 ) );
#417 = CARTESIAN_POINT( '', ( 0.000000000000000, 0.000000000000000, 0.800000000000000 ) );
#418 = DIRECTION( '', ( 0.000000000000000, 0.000000000000000, 1.00000000000000 ) );
#419 = DIRECTION( '', ( 1.00000000000000, 0.000000000000000, 0.000000000000000 ) );
#420 = CARTESIAN_POINT( '', ( 0.000000000000000, 0.000000000000000, 1.30000000000000 ) );
#421 = DIRECTION( '', ( 0.000000000000000, 0.000000000000000, 1.00000000000000 ) );
#422 = DIRECTION( '', ( 1.00000000000000, 0.000000000000000, 0.000000000000000 ) );
#423 = CARTESIAN_POINT( '', ( 0.000000000000000, 0.000000000000000, 0.800000000000000 ) );
#424 = DIRECTION( '', ( 0.000000000000000, 0.000000000000000, 1.00000000000000 ) );
#425 = DIRECTION( '', ( 1.00000000000000, 0.000000000000000, 0.000000000000000 ) );
#426 = DIRECTION( '', ( 0.000000000000000, 1.00000000000000, 0.000000000000000 ) );
#427 = CARTESIAN_POINT( '', ( 0.000000000000000, 0.000000000000000, 9.30000000000000 ) );
#428 = DIRECTION( '', ( 0.000000000000000, 0.000000000000000, 1.00000000000000 ) );
#429 = DIRECTION( '', ( 1.00000000000000, 0.000000000000000, 0.000000000000000 ) );
#430 = DIRECTION( '', ( 0.000000000000000, 1.00000000000000, 0.000000000000000 ) );
#431 = CARTESIAN_POINT( '', ( 0.000000000000000, 0.000000000000000, 9.30000000000000 ) );
#432 = DIRECTION( '', ( 0.000000000000000, 0.000000000000000, 1.00000000000000 ) );
#433 = DIRECTION( '', ( 1.00000000000000, 0.000000000000000, 0.000000000000000 ) );
#434 = DIRECTION( '', ( 0.000000000000000, 0.000000000000000, 1.00000000000000 ) );
#435 = DIRECTION( '', ( 0.000000000000000, 0.000000000000000, 1.00000000000000 ) );
#436 = CARTESIAN_POINT( '', ( 0.000000000000000, 0.000000000000000, 9.50000000000000 ) );
#437 = DIRECTION( '', ( 0.000000000000000, 0.000000000000000, 1.00000000000000 ) );
#438 = DIRECTION( '', ( 1.00000000000000, 0.000000000000000, 0.000000000000000 ) );
#439 = CARTESIAN_POINT( '', ( 0.000000000000000, 0.000000000000000, 9.80000000000000 ) );
#440 = DIRECTION( '', ( 0.000000000000000, 0.000000000000000, 1.00000000000000 ) );
#441 = DIRECTION( '', ( 1.00000000000000, 0.000000000000000, 0.000000000000000 ) );
#442 = DIRECTION( '', ( 0.000000000000000, 1.00000000000000, 0.000000000000000 ) );
#443 = DIRECTION( '', ( 0.000000000000000, 0.000000000000000, 1.00000000000000 ) );
#444 = DIRECTION( '', ( 0.000000000000000, 0.000000000000000, 1.00000000000000 ) );
#445 = CARTESIAN_POINT( '', ( 0.000000000000000, 0.000000000000000, 1.80000000000000 ) );
#446 = DIRECTION( '', ( 0.000000000000000, 0.000000000000000, 1.00000000000000 ) );
#447 = DIRECTION( '', ( 1.00000000000000, 0.000000000000000, 0.000000000000000 ) );
ENDSEC;
END-ISO-10303-21;
