ISO-10303-21;
HEADER;
FILE_DESCRIPTION( ( 'Unknown' ), '1' );
FILE_NAME( '//SBS2003/HD_Usb/Disegni/08_LIB/Users_3D/PROD_GAMM_3D/APS-A/7747411_APS_9_AR.stp', 'Unknown', ( 'Unknown' ), ( 'Unknown' ), 'PSStep 14.0', 'Unknown', '  ' );
FILE_SCHEMA( ( 'AUTOMOTIVE_DESIGN { 1 0 10303 214 1 1 1 1 }' ) );
ENDSEC;
DATA;
#1 = MECHANICAL_DESIGN_GEOMETRIC_PRESENTATION_REPRESENTATION( ' ', ( #10, #11, #12, #13, #14, #15, #16, #17, #18, #19, #20, #21 ), #6 );
#2 = PRODUCT_DEFINITION_CONTEXT( '', #22, 'design' );
#3 = APPLICATION_PROTOCOL_DEFINITION( 'international standard', 'automotive_design', 2001, #22 );
#4 = PRODUCT_CATEGORY_RELATIONSHIP( 'NONE', 'NONE', #23, #24 );
#5 = SHAPE_DEFINITION_REPRESENTATION( #25, #26 );
#6 =  ( GEOMETRIC_REPRESENTATION_CONTEXT( 3 )GLOBAL_UNCERTAINTY_ASSIGNED_CONTEXT( ( #29 ) )GLOBAL_UNIT_ASSIGNED_CONTEXT( ( #31, #32, #33 ) )REPRESENTATION_CONTEXT( 'NONE', 'WORKSPACE' ) );
#10 = STYLED_ITEM( '', ( #35 ), #36 );
#11 = STYLED_ITEM( '', ( #37 ), #38 );
#12 = STYLED_ITEM( '', ( #39 ), #40 );
#13 = STYLED_ITEM( '', ( #41 ), #42 );
#14 = STYLED_ITEM( '', ( #43 ), #44 );
#15 = STYLED_ITEM( '', ( #45 ), #46 );
#16 = STYLED_ITEM( '', ( #47 ), #48 );
#17 = STYLED_ITEM( '', ( #49 ), #50 );
#18 = STYLED_ITEM( '', ( #51 ), #52 );
#19 = STYLED_ITEM( '', ( #53 ), #54 );
#20 = STYLED_ITEM( '', ( #55 ), #56 );
#21 = STYLED_ITEM( '', ( #57 ), #58 );
#22 = APPLICATION_CONTEXT( 'core data for automotive mechanical design processes' );
#23 = PRODUCT_CATEGORY( 'part', 'NONE' );
#24 = PRODUCT_RELATED_PRODUCT_CATEGORY( 'detail', ' ', ( #59 ) );
#25 = PRODUCT_DEFINITION_SHAPE( 'NONE', 'NONE', #60 );
#26 = ADVANCED_BREP_SHAPE_REPRESENTATION( '1', ( #61, #62 ), #6 );
#29 = UNCERTAINTY_MEASURE_WITH_UNIT( LENGTH_MEASURE( 0.00100000000000000 ), #31, '', '' );
#31 =  ( CONVERSION_BASED_UNIT( 'MILLIMETRE', #65 )LENGTH_UNIT(  )NAMED_UNIT( #68 ) );
#32 =  ( NAMED_UNIT( #70 )PLANE_ANGLE_UNIT(  )SI_UNIT( $, .RADIAN. ) );
#33 =  ( NAMED_UNIT( #70 )SI_UNIT( $, .STERADIAN. )SOLID_ANGLE_UNIT(  ) );
#35 = PRESENTATION_STYLE_ASSIGNMENT( ( #76 ) );
#36 = ADVANCED_FACE( '', ( #77, #78 ), #79, .T. );
#37 = PRESENTATION_STYLE_ASSIGNMENT( ( #80 ) );
#38 = ADVANCED_FACE( '', ( #81 ), #82, .T. );
#39 = PRESENTATION_STYLE_ASSIGNMENT( ( #83 ) );
#40 = ADVANCED_FACE( '', ( #84 ), #85, .T. );
#41 = PRESENTATION_STYLE_ASSIGNMENT( ( #86 ) );
#42 = ADVANCED_FACE( '', ( #87 ), #88, .T. );
#43 = PRESENTATION_STYLE_ASSIGNMENT( ( #89 ) );
#44 = ADVANCED_FACE( '', ( #90, #91 ), #92, .T. );
#45 = PRESENTATION_STYLE_ASSIGNMENT( ( #93 ) );
#46 = ADVANCED_FACE( '', ( #94 ), #95, .T. );
#47 = PRESENTATION_STYLE_ASSIGNMENT( ( #96 ) );
#48 = ADVANCED_FACE( '', ( #97 ), #98, .T. );
#49 = PRESENTATION_STYLE_ASSIGNMENT( ( #99 ) );
#50 = ADVANCED_FACE( '', ( #100 ), #101, .T. );
#51 = PRESENTATION_STYLE_ASSIGNMENT( ( #102 ) );
#52 = ADVANCED_FACE( '', ( #103 ), #104, .T. );
#53 = PRESENTATION_STYLE_ASSIGNMENT( ( #105 ) );
#54 = ADVANCED_FACE( '', ( #106, #107 ), #108, .T. );
#55 = PRESENTATION_STYLE_ASSIGNMENT( ( #109 ) );
#56 = ADVANCED_FACE( '', ( #110 ), #111, .T. );
#57 = PRESENTATION_STYLE_ASSIGNMENT( ( #112 ) );
#58 = ADVANCED_FACE( '', ( #113, #114 ), #115, .T. );
#59 = PRODUCT( '1', '1', 'PART-1-DESC', ( #116 ) );
#60 = PRODUCT_DEFINITION( 'NONE', 'NONE', #117, #2 );
#61 = MANIFOLD_SOLID_BREP( '1', #118 );
#62 = AXIS2_PLACEMENT_3D( '', #119, #120, #121 );
#65 = LENGTH_MEASURE_WITH_UNIT( LENGTH_MEASURE( 1.00000000000000 ), #122 );
#68 = DIMENSIONAL_EXPONENTS( 1.00000000000000, 0.000000000000000, 0.000000000000000, 0.000000000000000, 0.000000000000000, 0.000000000000000, 0.000000000000000 );
#70 = DIMENSIONAL_EXPONENTS( 0.000000000000000, 0.000000000000000, 0.000000000000000, 0.000000000000000, 0.000000000000000, 0.000000000000000, 0.000000000000000 );
#76 = SURFACE_STYLE_USAGE( .BOTH., #123 );
#77 = FACE_OUTER_BOUND( '', #124, .T. );
#78 = FACE_OUTER_BOUND( '', #125, .T. );
#79 = CYLINDRICAL_SURFACE( '', #126, 1.50000000000000 );
#80 = SURFACE_STYLE_USAGE( .BOTH., #127 );
#81 = FACE_OUTER_BOUND( '', #128, .T. );
#82 = PLANE( '', #129 );
#83 = SURFACE_STYLE_USAGE( .BOTH., #130 );
#84 = FACE_OUTER_BOUND( '', #131, .T. );
#85 = PLANE( '', #132 );
#86 = SURFACE_STYLE_USAGE( .BOTH., #133 );
#87 = FACE_OUTER_BOUND( '', #134, .T. );
#88 = CONICAL_SURFACE( '', #135, 1.70000000000000, 0.785398163397446 );
#89 = SURFACE_STYLE_USAGE( .BOTH., #136 );
#90 = FACE_BOUND( '', #137, .T. );
#91 = FACE_OUTER_BOUND( '', #138, .T. );
#92 = PLANE( '', #139 );
#93 = SURFACE_STYLE_USAGE( .BOTH., #140 );
#94 = FACE_OUTER_BOUND( '', #141, .T. );
#95 = CONICAL_SURFACE( '', #142, 1.70000000000000, 0.785398163397446 );
#96 = SURFACE_STYLE_USAGE( .BOTH., #143 );
#97 = FACE_OUTER_BOUND( '', #144, .T. );
#98 = SPHERICAL_SURFACE( '', #145, 1.25000000000000 );
#99 = SURFACE_STYLE_USAGE( .BOTH., #146 );
#100 = FACE_OUTER_BOUND( '', #147, .T. );
#101 = PLANE( '', #148 );
#102 = SURFACE_STYLE_USAGE( .BOTH., #149 );
#103 = FACE_OUTER_BOUND( '', #150, .T. );
#104 = PLANE( '', #151 );
#105 = SURFACE_STYLE_USAGE( .BOTH., #152 );
#106 = FACE_OUTER_BOUND( '', #153, .T. );
#107 = FACE_OUTER_BOUND( '', #154, .T. );
#108 = CYLINDRICAL_SURFACE( '', #155, 2.00000000000000 );
#109 = SURFACE_STYLE_USAGE( .BOTH., #156 );
#110 = FACE_OUTER_BOUND( '', #157, .T. );
#111 = PLANE( '', #158 );
#112 = SURFACE_STYLE_USAGE( .BOTH., #159 );
#113 = FACE_BOUND( '', #160, .T. );
#114 = FACE_OUTER_BOUND( '', #161, .T. );
#115 = CONICAL_SURFACE( '', #162, 2.00000000000000, 0.785398163397449 );
#116 = PRODUCT_CONTEXT( '', #22, 'mechanical' );
#117 = PRODUCT_DEFINITION_FORMATION_WITH_SPECIFIED_SOURCE( ' ', 'NONE', #59, .NOT_KNOWN. );
#118 = CLOSED_SHELL( '', ( #38, #46, #54, #40, #56, #52, #42, #50, #58, #36, #44, #48 ) );
#119 = CARTESIAN_POINT( '', ( 0.000000000000000, 0.000000000000000, 0.000000000000000 ) );
#120 = DIRECTION( '', ( 0.000000000000000, 0.000000000000000, 1.00000000000000 ) );
#121 = DIRECTION( '', ( 1.00000000000000, 0.000000000000000, 0.000000000000000 ) );
#122 =  ( LENGTH_UNIT(  )NAMED_UNIT( #68 )SI_UNIT( .MILLI., .METRE. ) );
#123 = SURFACE_SIDE_STYLE( '', ( #164 ) );
#124 = EDGE_LOOP( '', ( #165 ) );
#125 = EDGE_LOOP( '', ( #166 ) );
#126 = AXIS2_PLACEMENT_3D( '', #167, #168, #169 );
#127 = SURFACE_SIDE_STYLE( '', ( #170 ) );
#128 = EDGE_LOOP( '', ( #171, #172 ) );
#129 = AXIS2_PLACEMENT_3D( '', #173, #174, #175 );
#130 = SURFACE_SIDE_STYLE( '', ( #176 ) );
#131 = EDGE_LOOP( '', ( #177, #178, #179, #180 ) );
#132 = AXIS2_PLACEMENT_3D( '', #181, #182, #183 );
#133 = SURFACE_SIDE_STYLE( '', ( #184 ) );
#134 = EDGE_LOOP( '', ( #185, #186, #187, #188 ) );
#135 = AXIS2_PLACEMENT_3D( '', #189, #190, #191 );
#136 = SURFACE_SIDE_STYLE( '', ( #192 ) );
#137 = EDGE_LOOP( '', ( #193 ) );
#138 = EDGE_LOOP( '', ( #194 ) );
#139 = AXIS2_PLACEMENT_3D( '', #195, #196, #197 );
#140 = SURFACE_SIDE_STYLE( '', ( #198 ) );
#141 = EDGE_LOOP( '', ( #199, #200, #201, #202 ) );
#142 = AXIS2_PLACEMENT_3D( '', #203, #204, #205 );
#143 = SURFACE_SIDE_STYLE( '', ( #206 ) );
#144 = EDGE_LOOP( '', ( #207 ) );
#145 = AXIS2_PLACEMENT_3D( '', #208, #209, #210 );
#146 = SURFACE_SIDE_STYLE( '', ( #211 ) );
#147 = EDGE_LOOP( '', ( #212, #213 ) );
#148 = AXIS2_PLACEMENT_3D( '', #214, #215, #216 );
#149 = SURFACE_SIDE_STYLE( '', ( #217 ) );
#150 = EDGE_LOOP( '', ( #218, #219, #220, #221, #222, #223 ) );
#151 = AXIS2_PLACEMENT_3D( '', #224, #225, #226 );
#152 = SURFACE_SIDE_STYLE( '', ( #227 ) );
#153 = EDGE_LOOP( '', ( #228 ) );
#154 = EDGE_LOOP( '', ( #229, #230, #231, #232, #233, #234, #235, #236 ) );
#155 = AXIS2_PLACEMENT_3D( '', #237, #238, #239 );
#156 = SURFACE_SIDE_STYLE( '', ( #240 ) );
#157 = EDGE_LOOP( '', ( #241, #242, #243, #244, #245, #246 ) );
#158 = AXIS2_PLACEMENT_3D( '', #247, #248, #249 );
#159 = SURFACE_SIDE_STYLE( '', ( #250 ) );
#160 = EDGE_LOOP( '', ( #251 ) );
#161 = EDGE_LOOP( '', ( #252 ) );
#162 = AXIS2_PLACEMENT_3D( '', #253, #254, #255 );
#164 = SURFACE_STYLE_FILL_AREA( #256 );
#165 = ORIENTED_EDGE( '', *, *, #257, .T. );
#166 = ORIENTED_EDGE( '', *, *, #258, .F. );
#167 = CARTESIAN_POINT( '', ( 0.000000000000000, 0.000000000000000, 57.1500000000000 ) );
#168 = DIRECTION( '', ( -0.000000000000000, -0.000000000000000, -1.00000000000000 ) );
#169 = DIRECTION( '', ( 1.00000000000000, 0.000000000000000, 0.000000000000000 ) );
#170 = SURFACE_STYLE_FILL_AREA( #259 );
#171 = ORIENTED_EDGE( '', *, *, #260, .T. );
#172 = ORIENTED_EDGE( '', *, *, #261, .T. );
#173 = CARTESIAN_POINT( '', ( 0.000000000000000, 0.000000000000000, 9.80000000000000 ) );
#174 = DIRECTION( '', ( 0.000000000000000, 0.000000000000000, 1.00000000000000 ) );
#175 = DIRECTION( '', ( 1.00000000000000, 0.000000000000000, 0.000000000000000 ) );
#176 = SURFACE_STYLE_FILL_AREA( #262 );
#177 = ORIENTED_EDGE( '', *, *, #263, .T. );
#178 = ORIENTED_EDGE( '', *, *, #264, .F. );
#179 = ORIENTED_EDGE( '', *, *, #265, .F. );
#180 = ORIENTED_EDGE( '', *, *, #266, .F. );
#181 = CARTESIAN_POINT( '', ( -0.250000000000000, -10.0000000000000, 9.30000000000000 ) );
#182 = DIRECTION( '', ( 0.000000000000000, 0.000000000000000, 1.00000000000000 ) );
#183 = DIRECTION( '', ( 1.00000000000000, 0.000000000000000, 0.000000000000000 ) );
#184 = SURFACE_STYLE_FILL_AREA( #267 );
#185 = ORIENTED_EDGE( '', *, *, #268, .F. );
#186 = ORIENTED_EDGE( '', *, *, #269, .F. );
#187 = ORIENTED_EDGE( '', *, *, #270, .F. );
#188 = ORIENTED_EDGE( '', *, *, #261, .F. );
#189 = CARTESIAN_POINT( '', ( 0.000000000000000, 0.000000000000000, 9.80000000000000 ) );
#190 = DIRECTION( '', ( -0.000000000000000, 0.000000000000000, -1.00000000000000 ) );
#191 = DIRECTION( '', ( -1.00000000000000, 0.000000000000000, 0.000000000000000 ) );
#192 = SURFACE_STYLE_FILL_AREA( #271 );
#193 = ORIENTED_EDGE( '', *, *, #272, .T. );
#194 = ORIENTED_EDGE( '', *, *, #257, .F. );
#195 = CARTESIAN_POINT( '', ( 1.16619037896906, 0.000000000000000, 0.800000000000000 ) );
#196 = DIRECTION( '', ( 0.000000000000000, 0.000000000000000, -1.00000000000000 ) );
#197 = DIRECTION( '', ( -1.00000000000000, 0.000000000000000, 0.000000000000000 ) );
#198 = SURFACE_STYLE_FILL_AREA( #273 );
#199 = ORIENTED_EDGE( '', *, *, #274, .F. );
#200 = ORIENTED_EDGE( '', *, *, #275, .F. );
#201 = ORIENTED_EDGE( '', *, *, #276, .F. );
#202 = ORIENTED_EDGE( '', *, *, #277, .F. );
#203 = CARTESIAN_POINT( '', ( 0.000000000000000, 0.000000000000000, 9.80000000000000 ) );
#204 = DIRECTION( '', ( -0.000000000000000, 0.000000000000000, -1.00000000000000 ) );
#205 = DIRECTION( '', ( -1.00000000000000, 0.000000000000000, 0.000000000000000 ) );
#206 = SURFACE_STYLE_FILL_AREA( #278 );
#207 = ORIENTED_EDGE( '', *, *, #272, .F. );
#208 = CARTESIAN_POINT( '', ( 0.000000000000000, 0.000000000000000, 1.25000000000000 ) );
#209 = DIRECTION( '', ( 0.000000000000000, 0.000000000000000, 1.00000000000000 ) );
#210 = DIRECTION( '', ( 1.00000000000000, 0.000000000000000, 0.000000000000000 ) );
#211 = SURFACE_STYLE_FILL_AREA( #279 );
#212 = ORIENTED_EDGE( '', *, *, #280, .F. );
#213 = ORIENTED_EDGE( '', *, *, #277, .T. );
#214 = CARTESIAN_POINT( '', ( 0.000000000000000, 0.000000000000000, 9.80000000000000 ) );
#215 = DIRECTION( '', ( 0.000000000000000, 0.000000000000000, 1.00000000000000 ) );
#216 = DIRECTION( '', ( 1.00000000000000, 0.000000000000000, 0.000000000000000 ) );
#217 = SURFACE_STYLE_FILL_AREA( #281 );
#218 = ORIENTED_EDGE( '', *, *, #260, .F. );
#219 = ORIENTED_EDGE( '', *, *, #270, .T. );
#220 = ORIENTED_EDGE( '', *, *, #282, .F. );
#221 = ORIENTED_EDGE( '', *, *, #265, .T. );
#222 = ORIENTED_EDGE( '', *, *, #283, .F. );
#223 = ORIENTED_EDGE( '', *, *, #268, .T. );
#224 = CARTESIAN_POINT( '', ( -0.250000000000000, -10.0000000000000, 9.80000000000000 ) );
#225 = DIRECTION( '', ( 1.00000000000000, 0.000000000000000, 1.08420217248550E-016 ) );
#226 = DIRECTION( '', ( 1.08420217248550E-016, 0.000000000000000, -1.00000000000000 ) );
#227 = SURFACE_STYLE_FILL_AREA( #284 );
#228 = ORIENTED_EDGE( '', *, *, #285, .T. );
#229 = ORIENTED_EDGE( '', *, *, #282, .T. );
#230 = ORIENTED_EDGE( '', *, *, #269, .T. );
#231 = ORIENTED_EDGE( '', *, *, #283, .T. );
#232 = ORIENTED_EDGE( '', *, *, #264, .T. );
#233 = ORIENTED_EDGE( '', *, *, #286, .T. );
#234 = ORIENTED_EDGE( '', *, *, #275, .T. );
#235 = ORIENTED_EDGE( '', *, *, #287, .T. );
#236 = ORIENTED_EDGE( '', *, *, #266, .T. );
#237 = CARTESIAN_POINT( '', ( 0.000000000000000, 0.000000000000000, 57.1500000000000 ) );
#238 = DIRECTION( '', ( -0.000000000000000, -0.000000000000000, -1.00000000000000 ) );
#239 = DIRECTION( '', ( 1.00000000000000, 0.000000000000000, 0.000000000000000 ) );
#240 = SURFACE_STYLE_FILL_AREA( #288 );
#241 = ORIENTED_EDGE( '', *, *, #280, .T. );
#242 = ORIENTED_EDGE( '', *, *, #276, .T. );
#243 = ORIENTED_EDGE( '', *, *, #286, .F. );
#244 = ORIENTED_EDGE( '', *, *, #263, .F. );
#245 = ORIENTED_EDGE( '', *, *, #287, .F. );
#246 = ORIENTED_EDGE( '', *, *, #274, .T. );
#247 = CARTESIAN_POINT( '', ( 0.250000000000000, -10.0000000000000, 9.30000000000000 ) );
#248 = DIRECTION( '', ( -1.00000000000000, 0.000000000000000, 1.08420217248550E-016 ) );
#249 = DIRECTION( '', ( 1.08420217248550E-016, 0.000000000000000, 1.00000000000000 ) );
#250 = SURFACE_STYLE_FILL_AREA( #289 );
#251 = ORIENTED_EDGE( '', *, *, #258, .T. );
#252 = ORIENTED_EDGE( '', *, *, #285, .F. );
#253 = CARTESIAN_POINT( '', ( 0.000000000000000, 0.000000000000000, 1.80000000000000 ) );
#254 = DIRECTION( '', ( -0.000000000000000, -0.000000000000000, 1.00000000000000 ) );
#255 = DIRECTION( '', ( 1.00000000000000, 0.000000000000000, 0.000000000000000 ) );
#256 = FILL_AREA_STYLE( '', ( #290 ) );
#257 = EDGE_CURVE( '', #291, #291, #292, .T. );
#258 = EDGE_CURVE( '', #293, #293, #294, .T. );
#259 = FILL_AREA_STYLE( '', ( #295 ) );
#260 = EDGE_CURVE( '', #296, #297, #298, .T. );
#261 = EDGE_CURVE( '', #297, #296, #299, .T. );
#262 = FILL_AREA_STYLE( '', ( #300 ) );
#263 = EDGE_CURVE( '', #301, #302, #303, .T. );
#264 = EDGE_CURVE( '', #304, #302, #305, .F. );
#265 = EDGE_CURVE( '', #306, #304, #307, .T. );
#266 = EDGE_CURVE( '', #301, #306, #308, .F. );
#267 = FILL_AREA_STYLE( '', ( #309 ) );
#268 = EDGE_CURVE( '', #310, #297, #311, .T. );
#269 = EDGE_CURVE( '', #312, #310, #313, .F. );
#270 = EDGE_CURVE( '', #296, #312, #314, .T. );
#271 = FILL_AREA_STYLE( '', ( #315 ) );
#272 = EDGE_CURVE( '', #316, #316, #317, .T. );
#273 = FILL_AREA_STYLE( '', ( #318 ) );
#274 = EDGE_CURVE( '', #319, #320, #321, .T. );
#275 = EDGE_CURVE( '', #322, #319, #323, .F. );
#276 = EDGE_CURVE( '', #324, #322, #325, .T. );
#277 = EDGE_CURVE( '', #320, #324, #326, .T. );
#278 = FILL_AREA_STYLE( '', ( #327 ) );
#279 = FILL_AREA_STYLE( '', ( #328 ) );
#280 = EDGE_CURVE( '', #320, #324, #329, .T. );
#281 = FILL_AREA_STYLE( '', ( #330 ) );
#282 = EDGE_CURVE( '', #306, #312, #331, .T. );
#283 = EDGE_CURVE( '', #310, #304, #332, .F. );
#284 = FILL_AREA_STYLE( '', ( #333 ) );
#285 = EDGE_CURVE( '', #334, #334, #335, .T. );
#286 = EDGE_CURVE( '', #302, #322, #336, .T. );
#287 = EDGE_CURVE( '', #319, #301, #337, .F. );
#288 = FILL_AREA_STYLE( '', ( #338 ) );
#289 = FILL_AREA_STYLE( '', ( #339 ) );
#290 = FILL_AREA_STYLE_COLOUR( '', #340 );
#291 = VERTEX_POINT( '', #341 );
#292 = CIRCLE( '', #342, 1.50000000000000 );
#293 = VERTEX_POINT( '', #343 );
#294 = CIRCLE( '', #344, 1.50000000000000 );
#295 = FILL_AREA_STYLE_COLOUR( '', #345 );
#296 = VERTEX_POINT( '', #346 );
#297 = VERTEX_POINT( '', #347 );
#298 = LINE( '', #348, #349 );
#299 = CIRCLE( '', #350, 1.70000000000000 );
#300 = FILL_AREA_STYLE_COLOUR( '', #351 );
#301 = VERTEX_POINT( '', #352 );
#302 = VERTEX_POINT( '', #353 );
#303 = LINE( '', #354, #355 );
#304 = VERTEX_POINT( '', #356 );
#305 = CIRCLE( '', #357, 2.00000000000000 );
#306 = VERTEX_POINT( '', #358 );
#307 = LINE( '', #359, #360 );
#308 = CIRCLE( '', #361, 2.00000000000000 );
#309 = FILL_AREA_STYLE_COLOUR( '', #362 );
#310 = VERTEX_POINT( '', #363 );
#311 = B_SPLINE_CURVE_WITH_KNOTS( '', 3, ( #364, #365, #366, #367 ), .UNSPECIFIED., .F., .F., ( 4, 4 ), ( 0.000000000000000, 0.000426245945537881 ), .UNSPECIFIED. );
#312 = VERTEX_POINT( '', #368 );
#313 = CIRCLE( '', #369, 2.00000000000000 );
#314 = B_SPLINE_CURVE_WITH_KNOTS( '', 3, ( #370, #371, #372, #373 ), .UNSPECIFIED., .F., .F., ( 4, 4 ), ( 0.000000000000000, 0.000426245945537881 ), .UNSPECIFIED. );
#315 = FILL_AREA_STYLE_COLOUR( '', #374 );
#316 = VERTEX_POINT( '', #375 );
#317 = CIRCLE( '', #376, 1.16619037896906 );
#318 = FILL_AREA_STYLE_COLOUR( '', #377 );
#319 = VERTEX_POINT( '', #378 );
#320 = VERTEX_POINT( '', #379 );
#321 = B_SPLINE_CURVE_WITH_KNOTS( '', 3, ( #380, #381, #382, #383 ), .UNSPECIFIED., .F., .F., ( 4, 4 ), ( 0.000000000000000, 0.000426245945537881 ), .UNSPECIFIED. );
#322 = VERTEX_POINT( '', #384 );
#323 = CIRCLE( '', #385, 2.00000000000000 );
#324 = VERTEX_POINT( '', #386 );
#325 = B_SPLINE_CURVE_WITH_KNOTS( '', 3, ( #387, #388, #389, #390 ), .UNSPECIFIED., .F., .F., ( 4, 4 ), ( 0.000000000000000, 0.000426245945537881 ), .UNSPECIFIED. );
#326 = CIRCLE( '', #391, 1.70000000000000 );
#327 = FILL_AREA_STYLE_COLOUR( '', #392 );
#328 = FILL_AREA_STYLE_COLOUR( '', #393 );
#329 = LINE( '', #394, #395 );
#330 = FILL_AREA_STYLE_COLOUR( '', #396 );
#331 = LINE( '', #397, #398 );
#332 = LINE( '', #399, #400 );
#333 = FILL_AREA_STYLE_COLOUR( '', #401 );
#334 = VERTEX_POINT( '', #402 );
#335 = CIRCLE( '', #403, 2.00000000000000 );
#336 = LINE( '', #404, #405 );
#337 = LINE( '', #406, #407 );
#338 = FILL_AREA_STYLE_COLOUR( '', #408 );
#339 = FILL_AREA_STYLE_COLOUR( '', #409 );
#340 = COLOUR_RGB( '', 0.200000002980232, 0.200000002980232, 0.200000002980232 );
#341 = CARTESIAN_POINT( '', ( 1.50000000000000, 0.000000000000000, 0.800000000000000 ) );
#342 = AXIS2_PLACEMENT_3D( '', #410, #411, #412 );
#343 = CARTESIAN_POINT( '', ( 1.50000000000000, 0.000000000000000, 1.30000000000000 ) );
#344 = AXIS2_PLACEMENT_3D( '', #413, #414, #415 );
#345 = COLOUR_RGB( '', 0.200000002980232, 0.200000002980232, 0.200000002980232 );
#346 = CARTESIAN_POINT( '', ( -0.250000000000000, -1.68151717208002, 9.80000000000000 ) );
#347 = CARTESIAN_POINT( '', ( -0.250000000000000, 1.68151717208002, 9.80000000000000 ) );
#348 = CARTESIAN_POINT( '', ( -0.250000000000000, -10.0000000000000, 9.80000000000000 ) );
#349 = VECTOR( '', #416, 1000.00000000000 );
#350 = AXIS2_PLACEMENT_3D( '', #417, #418, #419 );
#351 = COLOUR_RGB( '', 0.200000002980232, 0.200000002980232, 0.200000002980232 );
#352 = CARTESIAN_POINT( '', ( 0.250000000000000, -1.98431348329844, 9.30000000000000 ) );
#353 = CARTESIAN_POINT( '', ( 0.250000000000000, 1.98431348329844, 9.30000000000000 ) );
#354 = CARTESIAN_POINT( '', ( 0.250000000000000, -10.0000000000000, 9.30000000000000 ) );
#355 = VECTOR( '', #420, 1000.00000000000 );
#356 = CARTESIAN_POINT( '', ( -0.250000000000000, 1.98431348329844, 9.30000000000000 ) );
#357 = AXIS2_PLACEMENT_3D( '', #421, #422, #423 );
#358 = CARTESIAN_POINT( '', ( -0.250000000000000, -1.98431348329844, 9.30000000000000 ) );
#359 = CARTESIAN_POINT( '', ( -0.250000000000000, -10.0000000000000, 9.30000000000000 ) );
#360 = VECTOR( '', #424, 1000.00000000000 );
#361 = AXIS2_PLACEMENT_3D( '', #425, #426, #427 );
#362 = COLOUR_RGB( '', 0.200000002980232, 0.200000002980232, 0.200000002980232 );
#363 = CARTESIAN_POINT( '', ( -0.250000000000006, 1.98431348329844, 9.50000000000000 ) );
#364 = CARTESIAN_POINT( '', ( -0.250000000000006, 1.98431348329844, 9.50000000000000 ) );
#365 = CARTESIAN_POINT( '', ( -0.250000000000006, 1.88345158612904, 9.60007081125215 ) );
#366 = CARTESIAN_POINT( '', ( -0.250000000000000, 1.78253193316862, 9.70008349682115 ) );
#367 = CARTESIAN_POINT( '', ( -0.250000000000000, 1.68151717208002, 9.80000000000000 ) );
#368 = CARTESIAN_POINT( '', ( -0.250000000000006, -1.98431348329844, 9.50000000000000 ) );
#369 = AXIS2_PLACEMENT_3D( '', #428, #429, #430 );
#370 = CARTESIAN_POINT( '', ( -0.250000000000000, -1.68151717208002, 9.80000000000000 ) );
#371 = CARTESIAN_POINT( '', ( -0.250000000000000, -1.78253193316862, 9.70008349682115 ) );
#372 = CARTESIAN_POINT( '', ( -0.250000000000000, -1.88345158612904, 9.60007081125215 ) );
#373 = CARTESIAN_POINT( '', ( -0.250000000000000, -1.98431348329844, 9.50000000000000 ) );
#374 = COLOUR_RGB( '', 0.200000002980232, 0.200000002980232, 0.200000002980232 );
#375 = CARTESIAN_POINT( '', ( 1.16619037896906, 0.000000000000000, 0.800000000000000 ) );
#376 = AXIS2_PLACEMENT_3D( '', #431, #432, #433 );
#377 = COLOUR_RGB( '', 0.200000002980232, 0.200000002980232, 0.200000002980232 );
#378 = CARTESIAN_POINT( '', ( 0.250000000000005, -1.98431348329844, 9.50000000000000 ) );
#379 = CARTESIAN_POINT( '', ( 0.250000000000000, -1.68151717208002, 9.80000000000000 ) );
#380 = CARTESIAN_POINT( '', ( 0.250000000000005, -1.98431348329844, 9.50000000000000 ) );
#381 = CARTESIAN_POINT( '', ( 0.250000000000005, -1.88345158612904, 9.60007081125215 ) );
#382 = CARTESIAN_POINT( '', ( 0.250000000000000, -1.78253193316862, 9.70008349682115 ) );
#383 = CARTESIAN_POINT( '', ( 0.250000000000000, -1.68151717208002, 9.80000000000000 ) );
#384 = CARTESIAN_POINT( '', ( 0.250000000000005, 1.98431348329844, 9.50000000000000 ) );
#385 = AXIS2_PLACEMENT_3D( '', #434, #435, #436 );
#386 = CARTESIAN_POINT( '', ( 0.250000000000000, 1.68151717208002, 9.80000000000000 ) );
#387 = CARTESIAN_POINT( '', ( 0.250000000000000, 1.68151717208002, 9.80000000000000 ) );
#388 = CARTESIAN_POINT( '', ( 0.250000000000000, 1.78253193316862, 9.70008349682115 ) );
#389 = CARTESIAN_POINT( '', ( 0.250000000000000, 1.88345158612904, 9.60007081125215 ) );
#390 = CARTESIAN_POINT( '', ( 0.250000000000000, 1.98431348329844, 9.50000000000000 ) );
#391 = AXIS2_PLACEMENT_3D( '', #437, #438, #439 );
#392 = COLOUR_RGB( '', 0.200000002980232, 0.200000002980232, 0.200000002980232 );
#393 = COLOUR_RGB( '', 0.200000002980232, 0.200000002980232, 0.200000002980232 );
#394 = CARTESIAN_POINT( '', ( 0.250000000000000, -10.0000000000000, 9.80000000000000 ) );
#395 = VECTOR( '', #440, 1000.00000000000 );
#396 = COLOUR_RGB( '', 0.200000002980232, 0.200000002980232, 0.200000002980232 );
#397 = CARTESIAN_POINT( '', ( -0.250000000000006, -1.98431348329844, 57.1500000000000 ) );
#398 = VECTOR( '', #441, 1000.00000000000 );
#399 = CARTESIAN_POINT( '', ( -0.250000000000006, 1.98431348329844, 57.1500000000000 ) );
#400 = VECTOR( '', #442, 1000.00000000000 );
#401 = COLOUR_RGB( '', 0.752941191196442, 0.752941191196442, 0.752941191196442 );
#402 = CARTESIAN_POINT( '', ( 2.00000000000000, 0.000000000000000, 1.80000000000000 ) );
#403 = AXIS2_PLACEMENT_3D( '', #443, #444, #445 );
#404 = CARTESIAN_POINT( '', ( 0.250000000000005, 1.98431348329844, 57.1500000000000 ) );
#405 = VECTOR( '', #446, 1000.00000000000 );
#406 = CARTESIAN_POINT( '', ( 0.250000000000005, -1.98431348329844, 57.1500000000000 ) );
#407 = VECTOR( '', #447, 1000.00000000000 );
#408 = COLOUR_RGB( '', 0.200000002980232, 0.200000002980232, 0.200000002980232 );
#409 = COLOUR_RGB( '', 0.200000002980232, 0.200000002980232, 0.200000002980232 );
#410 = CARTESIAN_POINT( '', ( 0.000000000000000, 0.000000000000000, 0.800000000000000 ) );
#411 = DIRECTION( '', ( 0.000000000000000, 0.000000000000000, 1.00000000000000 ) );
#412 = DIRECTION( '', ( 1.00000000000000, 0.000000000000000, 0.000000000000000 ) );
#413 = CARTESIAN_POINT( '', ( 0.000000000000000, 0.000000000000000, 1.30000000000000 ) );
#414 = DIRECTION( '', ( 0.000000000000000, 0.000000000000000, 1.00000000000000 ) );
#415 = DIRECTION( '', ( 1.00000000000000, 0.000000000000000, 0.000000000000000 ) );
#416 = DIRECTION( '', ( 0.000000000000000, 1.00000000000000, 0.000000000000000 ) );
#417 = CARTESIAN_POINT( '', ( 0.000000000000000, 0.000000000000000, 9.80000000000000 ) );
#418 = DIRECTION( '', ( 0.000000000000000, 0.000000000000000, 1.00000000000000 ) );
#419 = DIRECTION( '', ( 1.00000000000000, 0.000000000000000, 0.000000000000000 ) );
#420 = DIRECTION( '', ( 0.000000000000000, 1.00000000000000, 0.000000000000000 ) );
#421 = CARTESIAN_POINT( '', ( 0.000000000000000, 0.000000000000000, 9.30000000000000 ) );
#422 = DIRECTION( '', ( 0.000000000000000, 0.000000000000000, 1.00000000000000 ) );
#423 = DIRECTION( '', ( 1.00000000000000, 0.000000000000000, 0.000000000000000 ) );
#424 = DIRECTION( '', ( 0.000000000000000, 1.00000000000000, 0.000000000000000 ) );
#425 = CARTESIAN_POINT( '', ( 0.000000000000000, 0.000000000000000, 9.30000000000000 ) );
#426 = DIRECTION( '', ( 0.000000000000000, 0.000000000000000, 1.00000000000000 ) );
#427 = DIRECTION( '', ( 1.00000000000000, 0.000000000000000, 0.000000000000000 ) );
#428 = CARTESIAN_POINT( '', ( 0.000000000000000, 0.000000000000000, 9.50000000000000 ) );
#429 = DIRECTION( '', ( 0.000000000000000, 0.000000000000000, 1.00000000000000 ) );
#430 = DIRECTION( '', ( 1.00000000000000, 0.000000000000000, 0.000000000000000 ) );
#431 = CARTESIAN_POINT( '', ( 0.000000000000000, 0.000000000000000, 0.800000000000000 ) );
#432 = DIRECTION( '', ( 0.000000000000000, 0.000000000000000, 1.00000000000000 ) );
#433 = DIRECTION( '', ( 1.00000000000000, 0.000000000000000, 0.000000000000000 ) );
#434 = CARTESIAN_POINT( '', ( 0.000000000000000, 0.000000000000000, 9.50000000000000 ) );
#435 = DIRECTION( '', ( 0.000000000000000, 0.000000000000000, 1.00000000000000 ) );
#436 = DIRECTION( '', ( 1.00000000000000, 0.000000000000000, 0.000000000000000 ) );
#437 = CARTESIAN_POINT( '', ( 0.000000000000000, 0.000000000000000, 9.80000000000000 ) );
#438 = DIRECTION( '', ( 0.000000000000000, 0.000000000000000, 1.00000000000000 ) );
#439 = DIRECTION( '', ( 1.00000000000000, 0.000000000000000, 0.000000000000000 ) );
#440 = DIRECTION( '', ( 0.000000000000000, 1.00000000000000, 0.000000000000000 ) );
#441 = DIRECTION( '', ( 0.000000000000000, 0.000000000000000, 1.00000000000000 ) );
#442 = DIRECTION( '', ( 0.000000000000000, 0.000000000000000, 1.00000000000000 ) );
#443 = CARTESIAN_POINT( '', ( 0.000000000000000, 0.000000000000000, 1.80000000000000 ) );
#444 = DIRECTION( '', ( 0.000000000000000, 0.000000000000000, 1.00000000000000 ) );
#445 = DIRECTION( '', ( 1.00000000000000, 0.000000000000000, 0.000000000000000 ) );
#446 = DIRECTION( '', ( 0.000000000000000, 0.000000000000000, 1.00000000000000 ) );
#447 = DIRECTION( '', ( 0.000000000000000, 0.000000000000000, 1.00000000000000 ) );
ENDSEC;
END-ISO-10303-21;
