ISO-10303-21;
HEADER;
FILE_DESCRIPTION( ( 'Unknown' ), '1' );
FILE_NAME( '//SBS2003/HD_Usb/Disegni/08_LIB/Users_3D/PROD_GAMM_3D/APS-A/7747415_APS_12_A.stp', 'Unknown', ( 'Unknown' ), ( 'Unknown' ), 'PSStep 14.0', 'Unknown', '  ' );
FILE_SCHEMA( ( 'AUTOMOTIVE_DESIGN { 1 0 10303 214 1 1 1 1 }' ) );
ENDSEC;
DATA;
#1 = MECHANICAL_DESIGN_GEOMETRIC_PRESENTATION_REPRESENTATION( ' ', ( #10, #11, #12, #13, #14, #15, #16, #17, #18, #19, #20, #21 ), #6 );
#2 = PRODUCT_DEFINITION_CONTEXT( '', #22, 'design' );
#3 = APPLICATION_PROTOCOL_DEFINITION( 'international standard', 'automotive_design', 2001, #22 );
#4 = PRODUCT_CATEGORY_RELATIONSHIP( 'NONE', 'NONE', #23, #24 );
#5 = SHAPE_DEFINITION_REPRESENTATION( #25, #26 );
#6 =  ( GEOMETRIC_REPRESENTATION_CONTEXT( 3 )GLOBAL_UNCERTAINTY_ASSIGNED_CONTEXT( ( #29 ) )GLOBAL_UNIT_ASSIGNED_CONTEXT( ( #31, #32, #33 ) )REPRESENTATION_CONTEXT( 'NONE', 'WORKSPACE' ) );
#10 = STYLED_ITEM( '', ( #35 ), #36 );
#11 = STYLED_ITEM( '', ( #37 ), #38 );
#12 = STYLED_ITEM( '', ( #39 ), #40 );
#13 = STYLED_ITEM( '', ( #41 ), #42 );
#14 = STYLED_ITEM( '', ( #43 ), #44 );
#15 = STYLED_ITEM( '', ( #45 ), #46 );
#16 = STYLED_ITEM( '', ( #47 ), #48 );
#17 = STYLED_ITEM( '', ( #49 ), #50 );
#18 = STYLED_ITEM( '', ( #51 ), #52 );
#19 = STYLED_ITEM( '', ( #53 ), #54 );
#20 = STYLED_ITEM( '', ( #55 ), #56 );
#21 = STYLED_ITEM( '', ( #57 ), #58 );
#22 = APPLICATION_CONTEXT( 'core data for automotive mechanical design processes' );
#23 = PRODUCT_CATEGORY( 'part', 'NONE' );
#24 = PRODUCT_RELATED_PRODUCT_CATEGORY( 'detail', ' ', ( #59 ) );
#25 = PRODUCT_DEFINITION_SHAPE( 'NONE', 'NONE', #60 );
#26 = ADVANCED_BREP_SHAPE_REPRESENTATION( '1', ( #61, #62 ), #6 );
#29 = UNCERTAINTY_MEASURE_WITH_UNIT( LENGTH_MEASURE( 0.00100000000000000 ), #31, '', '' );
#31 =  ( CONVERSION_BASED_UNIT( 'MILLIMETRE', #65 )LENGTH_UNIT(  )NAMED_UNIT( #68 ) );
#32 =  ( NAMED_UNIT( #70 )PLANE_ANGLE_UNIT(  )SI_UNIT( $, .RADIAN. ) );
#33 =  ( NAMED_UNIT( #70 )SI_UNIT( $, .STERADIAN. )SOLID_ANGLE_UNIT(  ) );
#35 = PRESENTATION_STYLE_ASSIGNMENT( ( #76 ) );
#36 = ADVANCED_FACE( '', ( #77 ), #78, .T. );
#37 = PRESENTATION_STYLE_ASSIGNMENT( ( #79 ) );
#38 = ADVANCED_FACE( '', ( #80 ), #81, .T. );
#39 = PRESENTATION_STYLE_ASSIGNMENT( ( #82 ) );
#40 = ADVANCED_FACE( '', ( #83 ), #84, .T. );
#41 = PRESENTATION_STYLE_ASSIGNMENT( ( #85 ) );
#42 = ADVANCED_FACE( '', ( #86 ), #87, .T. );
#43 = PRESENTATION_STYLE_ASSIGNMENT( ( #88 ) );
#44 = ADVANCED_FACE( '', ( #89 ), #90, .T. );
#45 = PRESENTATION_STYLE_ASSIGNMENT( ( #91 ) );
#46 = ADVANCED_FACE( '', ( #92, #93 ), #94, .T. );
#47 = PRESENTATION_STYLE_ASSIGNMENT( ( #95 ) );
#48 = ADVANCED_FACE( '', ( #96, #97 ), #98, .T. );
#49 = PRESENTATION_STYLE_ASSIGNMENT( ( #99 ) );
#50 = ADVANCED_FACE( '', ( #100 ), #101, .T. );
#51 = PRESENTATION_STYLE_ASSIGNMENT( ( #102 ) );
#52 = ADVANCED_FACE( '', ( #103 ), #104, .T. );
#53 = PRESENTATION_STYLE_ASSIGNMENT( ( #105 ) );
#54 = ADVANCED_FACE( '', ( #106, #107 ), #108, .T. );
#55 = PRESENTATION_STYLE_ASSIGNMENT( ( #109 ) );
#56 = ADVANCED_FACE( '', ( #110 ), #111, .T. );
#57 = PRESENTATION_STYLE_ASSIGNMENT( ( #112 ) );
#58 = ADVANCED_FACE( '', ( #113, #114 ), #115, .T. );
#59 = PRODUCT( '1', '1', 'PART-1-DESC', ( #116 ) );
#60 = PRODUCT_DEFINITION( 'NONE', 'NONE', #117, #2 );
#61 = MANIFOLD_SOLID_BREP( '1', #118 );
#62 = AXIS2_PLACEMENT_3D( '', #119, #120, #121 );
#65 = LENGTH_MEASURE_WITH_UNIT( LENGTH_MEASURE( 1.00000000000000 ), #122 );
#68 = DIMENSIONAL_EXPONENTS( 1.00000000000000, 0.000000000000000, 0.000000000000000, 0.000000000000000, 0.000000000000000, 0.000000000000000, 0.000000000000000 );
#70 = DIMENSIONAL_EXPONENTS( 0.000000000000000, 0.000000000000000, 0.000000000000000, 0.000000000000000, 0.000000000000000, 0.000000000000000, 0.000000000000000 );
#76 = SURFACE_STYLE_USAGE( .BOTH., #123 );
#77 = FACE_OUTER_BOUND( '', #124, .T. );
#78 = CONICAL_SURFACE( '', #125, 2.00000000000000, 0.785398163397448 );
#79 = SURFACE_STYLE_USAGE( .BOTH., #126 );
#80 = FACE_OUTER_BOUND( '', #127, .T. );
#81 = PLANE( '', #128 );
#82 = SURFACE_STYLE_USAGE( .BOTH., #129 );
#83 = FACE_OUTER_BOUND( '', #130, .T. );
#84 = CONICAL_SURFACE( '', #131, 2.00000000000000, 0.785398163397448 );
#85 = SURFACE_STYLE_USAGE( .BOTH., #132 );
#86 = FACE_OUTER_BOUND( '', #133, .T. );
#87 = PLANE( '', #134 );
#88 = SURFACE_STYLE_USAGE( .BOTH., #135 );
#89 = FACE_OUTER_BOUND( '', #136, .T. );
#90 = PLANE( '', #137 );
#91 = SURFACE_STYLE_USAGE( .BOTH., #138 );
#92 = FACE_OUTER_BOUND( '', #139, .T. );
#93 = FACE_OUTER_BOUND( '', #140, .T. );
#94 = CYLINDRICAL_SURFACE( '', #141, 2.50000000000000 );
#95 = SURFACE_STYLE_USAGE( .BOTH., #142 );
#96 = FACE_OUTER_BOUND( '', #143, .T. );
#97 = FACE_OUTER_BOUND( '', #144, .T. );
#98 = CYLINDRICAL_SURFACE( '', #145, 2.00000000000000 );
#99 = SURFACE_STYLE_USAGE( .BOTH., #146 );
#100 = FACE_OUTER_BOUND( '', #147, .T. );
#101 = SPHERICAL_SURFACE( '', #148, 1.50000000000000 );
#102 = SURFACE_STYLE_USAGE( .BOTH., #149 );
#103 = FACE_OUTER_BOUND( '', #150, .T. );
#104 = PLANE( '', #151 );
#105 = SURFACE_STYLE_USAGE( .BOTH., #152 );
#106 = FACE_BOUND( '', #153, .T. );
#107 = FACE_OUTER_BOUND( '', #154, .T. );
#108 = PLANE( '', #155 );
#109 = SURFACE_STYLE_USAGE( .BOTH., #156 );
#110 = FACE_OUTER_BOUND( '', #157, .T. );
#111 = PLANE( '', #158 );
#112 = SURFACE_STYLE_USAGE( .BOTH., #159 );
#113 = FACE_BOUND( '', #160, .T. );
#114 = FACE_OUTER_BOUND( '', #161, .T. );
#115 = CONICAL_SURFACE( '', #162, 2.50000000000000, 0.785398163397442 );
#116 = PRODUCT_CONTEXT( '', #22, 'mechanical' );
#117 = PRODUCT_DEFINITION_FORMATION_WITH_SPECIFIED_SOURCE( ' ', 'NONE', #59, .NOT_KNOWN. );
#118 = CLOSED_SHELL( '', ( #38, #40, #46, #56, #52, #42, #36, #44, #58, #48, #54, #50 ) );
#119 = CARTESIAN_POINT( '', ( 0.000000000000000, 0.000000000000000, 0.000000000000000 ) );
#120 = DIRECTION( '', ( 0.000000000000000, 0.000000000000000, 1.00000000000000 ) );
#121 = DIRECTION( '', ( 1.00000000000000, 0.000000000000000, 0.000000000000000 ) );
#122 =  ( LENGTH_UNIT(  )NAMED_UNIT( #68 )SI_UNIT( .MILLI., .METRE. ) );
#123 = SURFACE_SIDE_STYLE( '', ( #164 ) );
#124 = EDGE_LOOP( '', ( #165, #166, #167, #168 ) );
#125 = AXIS2_PLACEMENT_3D( '', #169, #170, #171 );
#126 = SURFACE_SIDE_STYLE( '', ( #172 ) );
#127 = EDGE_LOOP( '', ( #173, #174 ) );
#128 = AXIS2_PLACEMENT_3D( '', #175, #176, #177 );
#129 = SURFACE_SIDE_STYLE( '', ( #178 ) );
#130 = EDGE_LOOP( '', ( #179, #180, #181, #182 ) );
#131 = AXIS2_PLACEMENT_3D( '', #183, #184, #185 );
#132 = SURFACE_SIDE_STYLE( '', ( #186 ) );
#133 = EDGE_LOOP( '', ( #187, #188, #189, #190, #191, #192 ) );
#134 = AXIS2_PLACEMENT_3D( '', #193, #194, #195 );
#135 = SURFACE_SIDE_STYLE( '', ( #196 ) );
#136 = EDGE_LOOP( '', ( #197, #198 ) );
#137 = AXIS2_PLACEMENT_3D( '', #199, #200, #201 );
#138 = SURFACE_SIDE_STYLE( '', ( #202 ) );
#139 = EDGE_LOOP( '', ( #203 ) );
#140 = EDGE_LOOP( '', ( #204, #205, #206, #207, #208, #209, #210, #211 ) );
#141 = AXIS2_PLACEMENT_3D( '', #212, #213, #214 );
#142 = SURFACE_SIDE_STYLE( '', ( #215 ) );
#143 = EDGE_LOOP( '', ( #216 ) );
#144 = EDGE_LOOP( '', ( #217 ) );
#145 = AXIS2_PLACEMENT_3D( '', #218, #219, #220 );
#146 = SURFACE_SIDE_STYLE( '', ( #221 ) );
#147 = EDGE_LOOP( '', ( #222 ) );
#148 = AXIS2_PLACEMENT_3D( '', #223, #224, #225 );
#149 = SURFACE_SIDE_STYLE( '', ( #226 ) );
#150 = EDGE_LOOP( '', ( #227, #228, #229, #230, #231, #232 ) );
#151 = AXIS2_PLACEMENT_3D( '', #233, #234, #235 );
#152 = SURFACE_SIDE_STYLE( '', ( #236 ) );
#153 = EDGE_LOOP( '', ( #237 ) );
#154 = EDGE_LOOP( '', ( #238 ) );
#155 = AXIS2_PLACEMENT_3D( '', #239, #240, #241 );
#156 = SURFACE_SIDE_STYLE( '', ( #242 ) );
#157 = EDGE_LOOP( '', ( #243, #244, #245, #246 ) );
#158 = AXIS2_PLACEMENT_3D( '', #247, #248, #249 );
#159 = SURFACE_SIDE_STYLE( '', ( #250 ) );
#160 = EDGE_LOOP( '', ( #251 ) );
#161 = EDGE_LOOP( '', ( #252 ) );
#162 = AXIS2_PLACEMENT_3D( '', #253, #254, #255 );
#164 = SURFACE_STYLE_FILL_AREA( #256 );
#165 = ORIENTED_EDGE( '', *, *, #257, .F. );
#166 = ORIENTED_EDGE( '', *, *, #258, .F. );
#167 = ORIENTED_EDGE( '', *, *, #259, .F. );
#168 = ORIENTED_EDGE( '', *, *, #260, .F. );
#169 = CARTESIAN_POINT( '', ( 0.000000000000000, 0.000000000000000, 12.9000000000000 ) );
#170 = DIRECTION( '', ( -0.000000000000000, 0.000000000000000, -1.00000000000000 ) );
#171 = DIRECTION( '', ( -1.00000000000000, 0.000000000000000, 0.000000000000000 ) );
#172 = SURFACE_STYLE_FILL_AREA( #261 );
#173 = ORIENTED_EDGE( '', *, *, #262, .T. );
#174 = ORIENTED_EDGE( '', *, *, #260, .T. );
#175 = CARTESIAN_POINT( '', ( 0.000000000000000, 0.000000000000000, 12.9000000000000 ) );
#176 = DIRECTION( '', ( 0.000000000000000, 0.000000000000000, 1.00000000000000 ) );
#177 = DIRECTION( '', ( 1.00000000000000, 0.000000000000000, 0.000000000000000 ) );
#178 = SURFACE_STYLE_FILL_AREA( #263 );
#179 = ORIENTED_EDGE( '', *, *, #264, .F. );
#180 = ORIENTED_EDGE( '', *, *, #265, .F. );
#181 = ORIENTED_EDGE( '', *, *, #266, .F. );
#182 = ORIENTED_EDGE( '', *, *, #267, .F. );
#183 = CARTESIAN_POINT( '', ( 0.000000000000000, 0.000000000000000, 12.9000000000000 ) );
#184 = DIRECTION( '', ( -0.000000000000000, 0.000000000000000, -1.00000000000000 ) );
#185 = DIRECTION( '', ( -1.00000000000000, 0.000000000000000, 0.000000000000000 ) );
#186 = SURFACE_STYLE_FILL_AREA( #268 );
#187 = ORIENTED_EDGE( '', *, *, #262, .F. );
#188 = ORIENTED_EDGE( '', *, *, #259, .T. );
#189 = ORIENTED_EDGE( '', *, *, #269, .F. );
#190 = ORIENTED_EDGE( '', *, *, #270, .T. );
#191 = ORIENTED_EDGE( '', *, *, #271, .F. );
#192 = ORIENTED_EDGE( '', *, *, #257, .T. );
#193 = CARTESIAN_POINT( '', ( -0.500000000000000, -10.0000000000000, 12.9000000000000 ) );
#194 = DIRECTION( '', ( 1.00000000000000, 0.000000000000000, 0.000000000000000 ) );
#195 = DIRECTION( '', ( 0.000000000000000, 0.000000000000000, -1.00000000000000 ) );
#196 = SURFACE_STYLE_FILL_AREA( #272 );
#197 = ORIENTED_EDGE( '', *, *, #273, .F. );
#198 = ORIENTED_EDGE( '', *, *, #267, .T. );
#199 = CARTESIAN_POINT( '', ( 0.000000000000000, 0.000000000000000, 12.9000000000000 ) );
#200 = DIRECTION( '', ( 0.000000000000000, 0.000000000000000, 1.00000000000000 ) );
#201 = DIRECTION( '', ( 1.00000000000000, 0.000000000000000, 0.000000000000000 ) );
#202 = SURFACE_STYLE_FILL_AREA( #274 );
#203 = ORIENTED_EDGE( '', *, *, #275, .T. );
#204 = ORIENTED_EDGE( '', *, *, #269, .T. );
#205 = ORIENTED_EDGE( '', *, *, #258, .T. );
#206 = ORIENTED_EDGE( '', *, *, #271, .T. );
#207 = ORIENTED_EDGE( '', *, *, #276, .T. );
#208 = ORIENTED_EDGE( '', *, *, #277, .T. );
#209 = ORIENTED_EDGE( '', *, *, #265, .T. );
#210 = ORIENTED_EDGE( '', *, *, #278, .T. );
#211 = ORIENTED_EDGE( '', *, *, #279, .T. );
#212 = CARTESIAN_POINT( '', ( 0.000000000000000, 0.000000000000000, 57.1500000000000 ) );
#213 = DIRECTION( '', ( -0.000000000000000, -0.000000000000000, -1.00000000000000 ) );
#214 = DIRECTION( '', ( 1.00000000000000, 0.000000000000000, 0.000000000000000 ) );
#215 = SURFACE_STYLE_FILL_AREA( #280 );
#216 = ORIENTED_EDGE( '', *, *, #281, .T. );
#217 = ORIENTED_EDGE( '', *, *, #282, .F. );
#218 = CARTESIAN_POINT( '', ( 0.000000000000000, 0.000000000000000, 57.1500000000000 ) );
#219 = DIRECTION( '', ( -0.000000000000000, -0.000000000000000, -1.00000000000000 ) );
#220 = DIRECTION( '', ( 1.00000000000000, 0.000000000000000, 0.000000000000000 ) );
#221 = SURFACE_STYLE_FILL_AREA( #283 );
#222 = ORIENTED_EDGE( '', *, *, #284, .F. );
#223 = CARTESIAN_POINT( '', ( 0.000000000000000, 0.000000000000000, 1.50000000000000 ) );
#224 = DIRECTION( '', ( 0.000000000000000, 0.000000000000000, 1.00000000000000 ) );
#225 = DIRECTION( '', ( 1.00000000000000, 0.000000000000000, 0.000000000000000 ) );
#226 = SURFACE_STYLE_FILL_AREA( #285 );
#227 = ORIENTED_EDGE( '', *, *, #273, .T. );
#228 = ORIENTED_EDGE( '', *, *, #266, .T. );
#229 = ORIENTED_EDGE( '', *, *, #277, .F. );
#230 = ORIENTED_EDGE( '', *, *, #286, .F. );
#231 = ORIENTED_EDGE( '', *, *, #278, .F. );
#232 = ORIENTED_EDGE( '', *, *, #264, .T. );
#233 = CARTESIAN_POINT( '', ( 0.500000000000000, -10.0000000000000, 11.9000000000000 ) );
#234 = DIRECTION( '', ( -1.00000000000000, 0.000000000000000, 0.000000000000000 ) );
#235 = DIRECTION( '', ( 0.000000000000000, 0.000000000000000, 1.00000000000000 ) );
#236 = SURFACE_STYLE_FILL_AREA( #287 );
#237 = ORIENTED_EDGE( '', *, *, #284, .T. );
#238 = ORIENTED_EDGE( '', *, *, #281, .F. );
#239 = CARTESIAN_POINT( '', ( 1.37477270848675, 0.000000000000000, 0.900000000000000 ) );
#240 = DIRECTION( '', ( 0.000000000000000, 0.000000000000000, -1.00000000000000 ) );
#241 = DIRECTION( '', ( -1.00000000000000, 0.000000000000000, 0.000000000000000 ) );
#242 = SURFACE_STYLE_FILL_AREA( #288 );
#243 = ORIENTED_EDGE( '', *, *, #286, .T. );
#244 = ORIENTED_EDGE( '', *, *, #276, .F. );
#245 = ORIENTED_EDGE( '', *, *, #270, .F. );
#246 = ORIENTED_EDGE( '', *, *, #279, .F. );
#247 = CARTESIAN_POINT( '', ( -0.500000000000000, -10.0000000000000, 11.9000000000000 ) );
#248 = DIRECTION( '', ( 0.000000000000000, 0.000000000000000, 1.00000000000000 ) );
#249 = DIRECTION( '', ( 1.00000000000000, 0.000000000000000, 0.000000000000000 ) );
#250 = SURFACE_STYLE_FILL_AREA( #289 );
#251 = ORIENTED_EDGE( '', *, *, #282, .T. );
#252 = ORIENTED_EDGE( '', *, *, #275, .F. );
#253 = CARTESIAN_POINT( '', ( 0.000000000000000, 0.000000000000000, 1.90000000000000 ) );
#254 = DIRECTION( '', ( -0.000000000000000, -0.000000000000000, 1.00000000000000 ) );
#255 = DIRECTION( '', ( 1.00000000000000, 0.000000000000000, 0.000000000000000 ) );
#256 = FILL_AREA_STYLE( '', ( #290 ) );
#257 = EDGE_CURVE( '', #291, #292, #293, .T. );
#258 = EDGE_CURVE( '', #294, #291, #295, .F. );
#259 = EDGE_CURVE( '', #296, #294, #297, .T. );
#260 = EDGE_CURVE( '', #292, #296, #298, .T. );
#261 = FILL_AREA_STYLE( '', ( #299 ) );
#262 = EDGE_CURVE( '', #296, #292, #300, .T. );
#263 = FILL_AREA_STYLE( '', ( #301 ) );
#264 = EDGE_CURVE( '', #302, #303, #304, .T. );
#265 = EDGE_CURVE( '', #305, #302, #306, .F. );
#266 = EDGE_CURVE( '', #307, #305, #308, .T. );
#267 = EDGE_CURVE( '', #303, #307, #309, .T. );
#268 = FILL_AREA_STYLE( '', ( #310 ) );
#269 = EDGE_CURVE( '', #311, #294, #312, .T. );
#270 = EDGE_CURVE( '', #311, #313, #314, .T. );
#271 = EDGE_CURVE( '', #291, #313, #315, .F. );
#272 = FILL_AREA_STYLE( '', ( #316 ) );
#273 = EDGE_CURVE( '', #303, #307, #317, .T. );
#274 = FILL_AREA_STYLE( '', ( #318 ) );
#275 = EDGE_CURVE( '', #319, #319, #320, .T. );
#276 = EDGE_CURVE( '', #313, #321, #322, .F. );
#277 = EDGE_CURVE( '', #321, #305, #323, .T. );
#278 = EDGE_CURVE( '', #302, #324, #325, .F. );
#279 = EDGE_CURVE( '', #324, #311, #326, .F. );
#280 = FILL_AREA_STYLE( '', ( #327 ) );
#281 = EDGE_CURVE( '', #328, #328, #329, .T. );
#282 = EDGE_CURVE( '', #330, #330, #331, .T. );
#283 = FILL_AREA_STYLE( '', ( #332 ) );
#284 = EDGE_CURVE( '', #333, #333, #334, .T. );
#285 = FILL_AREA_STYLE( '', ( #335 ) );
#286 = EDGE_CURVE( '', #324, #321, #336, .T. );
#287 = FILL_AREA_STYLE( '', ( #337 ) );
#288 = FILL_AREA_STYLE( '', ( #338 ) );
#289 = FILL_AREA_STYLE( '', ( #339 ) );
#290 = FILL_AREA_STYLE_COLOUR( '', #340 );
#291 = VERTEX_POINT( '', #341 );
#292 = VERTEX_POINT( '', #342 );
#293 = B_SPLINE_CURVE_WITH_KNOTS( '', 3, ( #343, #344, #345, #346 ), .UNSPECIFIED., .F., .F., ( 4, 4 ), ( 0.000000000000000, 0.000716356768303939 ), .UNSPECIFIED. );
#294 = VERTEX_POINT( '', #347 );
#295 = CIRCLE( '', #348, 2.50000000000000 );
#296 = VERTEX_POINT( '', #349 );
#297 = B_SPLINE_CURVE_WITH_KNOTS( '', 3, ( #350, #351, #352, #353 ), .UNSPECIFIED., .F., .F., ( 4, 4 ), ( 0.000000000000000, 0.000716356768303939 ), .UNSPECIFIED. );
#298 = CIRCLE( '', #354, 2.00000000000000 );
#299 = FILL_AREA_STYLE_COLOUR( '', #355 );
#300 = LINE( '', #356, #357 );
#301 = FILL_AREA_STYLE_COLOUR( '', #358 );
#302 = VERTEX_POINT( '', #359 );
#303 = VERTEX_POINT( '', #360 );
#304 = B_SPLINE_CURVE_WITH_KNOTS( '', 3, ( #361, #362, #363, #364 ), .UNSPECIFIED., .F., .F., ( 4, 4 ), ( 0.000000000000000, 0.000716356768303939 ), .UNSPECIFIED. );
#305 = VERTEX_POINT( '', #365 );
#306 = CIRCLE( '', #366, 2.50000000000000 );
#307 = VERTEX_POINT( '', #367 );
#308 = B_SPLINE_CURVE_WITH_KNOTS( '', 3, ( #368, #369, #370, #371 ), .UNSPECIFIED., .F., .F., ( 4, 4 ), ( 0.000000000000000, 0.000716356768303939 ), .UNSPECIFIED. );
#309 = CIRCLE( '', #372, 2.00000000000000 );
#310 = FILL_AREA_STYLE_COLOUR( '', #373 );
#311 = VERTEX_POINT( '', #374 );
#312 = LINE( '', #375, #376 );
#313 = VERTEX_POINT( '', #377 );
#314 = LINE( '', #378, #379 );
#315 = LINE( '', #380, #381 );
#316 = FILL_AREA_STYLE_COLOUR( '', #382 );
#317 = LINE( '', #383, #384 );
#318 = FILL_AREA_STYLE_COLOUR( '', #385 );
#319 = VERTEX_POINT( '', #386 );
#320 = CIRCLE( '', #387, 2.50000000000000 );
#321 = VERTEX_POINT( '', #388 );
#322 = CIRCLE( '', #389, 2.50000000000000 );
#323 = LINE( '', #390, #391 );
#324 = VERTEX_POINT( '', #392 );
#325 = LINE( '', #393, #394 );
#326 = CIRCLE( '', #395, 2.50000000000000 );
#327 = FILL_AREA_STYLE_COLOUR( '', #396 );
#328 = VERTEX_POINT( '', #397 );
#329 = CIRCLE( '', #398, 2.00000000000000 );
#330 = VERTEX_POINT( '', #399 );
#331 = CIRCLE( '', #400, 2.00000000000000 );
#332 = FILL_AREA_STYLE_COLOUR( '', #401 );
#333 = VERTEX_POINT( '', #402 );
#334 = CIRCLE( '', #403, 1.37477270848675 );
#335 = FILL_AREA_STYLE_COLOUR( '', #404 );
#336 = LINE( '', #405, #406 );
#337 = FILL_AREA_STYLE_COLOUR( '', #407 );
#338 = FILL_AREA_STYLE_COLOUR( '', #408 );
#339 = FILL_AREA_STYLE_COLOUR( '', #409 );
#340 = COLOUR_RGB( '', 0.200000002980232, 0.200000002980232, 0.200000002980232 );
#341 = CARTESIAN_POINT( '', ( -0.500000000000000, 2.44948974278318, 12.4000000000000 ) );
#342 = CARTESIAN_POINT( '', ( -0.500000000000000, 1.93649167310371, 12.9000000000000 ) );
#343 = CARTESIAN_POINT( '', ( -0.500000000000000, 2.44948974278318, 12.4000000000000 ) );
#344 = CARTESIAN_POINT( '', ( -0.500000000000000, 2.27892860747272, 12.5671151005842 ) );
#345 = CARTESIAN_POINT( '', ( -0.500000000000000, 2.10804030474391, 12.7338987516482 ) );
#346 = CARTESIAN_POINT( '', ( -0.500000000000000, 1.93649167310371, 12.9000000000000 ) );
#347 = CARTESIAN_POINT( '', ( -0.500000000000000, -2.44948974278318, 12.4000000000000 ) );
#348 = AXIS2_PLACEMENT_3D( '', #410, #411, #412 );
#349 = CARTESIAN_POINT( '', ( -0.500000000000000, -1.93649167310371, 12.9000000000000 ) );
#350 = CARTESIAN_POINT( '', ( -0.500000000000000, -1.93649167310371, 12.9000000000000 ) );
#351 = CARTESIAN_POINT( '', ( -0.500000000000000, -2.10804030474391, 12.7338987516482 ) );
#352 = CARTESIAN_POINT( '', ( -0.500000000000000, -2.27892860747272, 12.5671151005842 ) );
#353 = CARTESIAN_POINT( '', ( -0.500000000000000, -2.44948974278318, 12.4000000000000 ) );
#354 = AXIS2_PLACEMENT_3D( '', #413, #414, #415 );
#355 = COLOUR_RGB( '', 0.200000002980232, 0.200000002980232, 0.200000002980232 );
#356 = CARTESIAN_POINT( '', ( -0.500000000000000, -10.0000000000000, 12.9000000000000 ) );
#357 = VECTOR( '', #416, 1000.00000000000 );
#358 = COLOUR_RGB( '', 0.200000002980232, 0.200000002980232, 0.200000002980232 );
#359 = CARTESIAN_POINT( '', ( 0.500000000000000, -2.44948974278318, 12.4000000000000 ) );
#360 = CARTESIAN_POINT( '', ( 0.500000000000000, -1.93649167310371, 12.9000000000000 ) );
#361 = CARTESIAN_POINT( '', ( 0.500000000000000, -2.44948974278318, 12.4000000000000 ) );
#362 = CARTESIAN_POINT( '', ( 0.500000000000000, -2.27892860747272, 12.5671151005842 ) );
#363 = CARTESIAN_POINT( '', ( 0.500000000000000, -2.10804030474391, 12.7338987516482 ) );
#364 = CARTESIAN_POINT( '', ( 0.500000000000000, -1.93649167310371, 12.9000000000000 ) );
#365 = CARTESIAN_POINT( '', ( 0.500000000000000, 2.44948974278318, 12.4000000000000 ) );
#366 = AXIS2_PLACEMENT_3D( '', #417, #418, #419 );
#367 = CARTESIAN_POINT( '', ( 0.500000000000000, 1.93649167310371, 12.9000000000000 ) );
#368 = CARTESIAN_POINT( '', ( 0.500000000000000, 1.93649167310371, 12.9000000000000 ) );
#369 = CARTESIAN_POINT( '', ( 0.500000000000000, 2.10804030474391, 12.7338987516482 ) );
#370 = CARTESIAN_POINT( '', ( 0.500000000000000, 2.27892860747272, 12.5671151005842 ) );
#371 = CARTESIAN_POINT( '', ( 0.500000000000000, 2.44948974278318, 12.4000000000000 ) );
#372 = AXIS2_PLACEMENT_3D( '', #420, #421, #422 );
#373 = COLOUR_RGB( '', 0.200000002980232, 0.200000002980232, 0.200000002980232 );
#374 = CARTESIAN_POINT( '', ( -0.500000000000000, -2.44948974278318, 11.9000000000000 ) );
#375 = CARTESIAN_POINT( '', ( -0.500000000000000, -2.44948974278318, 57.1500000000000 ) );
#376 = VECTOR( '', #423, 1000.00000000000 );
#377 = CARTESIAN_POINT( '', ( -0.500000000000000, 2.44948974278318, 11.9000000000000 ) );
#378 = CARTESIAN_POINT( '', ( -0.500000000000000, -10.0000000000000, 11.9000000000000 ) );
#379 = VECTOR( '', #424, 1000.00000000000 );
#380 = CARTESIAN_POINT( '', ( -0.500000000000000, 2.44948974278318, 57.1500000000000 ) );
#381 = VECTOR( '', #425, 1000.00000000000 );
#382 = COLOUR_RGB( '', 0.200000002980232, 0.200000002980232, 0.200000002980232 );
#383 = CARTESIAN_POINT( '', ( 0.500000000000000, -10.0000000000000, 12.9000000000000 ) );
#384 = VECTOR( '', #426, 1000.00000000000 );
#385 = COLOUR_RGB( '', 0.752941191196442, 0.752941191196442, 0.752941191196442 );
#386 = CARTESIAN_POINT( '', ( 2.50000000000000, 0.000000000000000, 1.90000000000000 ) );
#387 = AXIS2_PLACEMENT_3D( '', #427, #428, #429 );
#388 = CARTESIAN_POINT( '', ( 0.500000000000000, 2.44948974278318, 11.9000000000000 ) );
#389 = AXIS2_PLACEMENT_3D( '', #430, #431, #432 );
#390 = CARTESIAN_POINT( '', ( 0.500000000000000, 2.44948974278318, 57.1500000000000 ) );
#391 = VECTOR( '', #433, 1000.00000000000 );
#392 = CARTESIAN_POINT( '', ( 0.500000000000000, -2.44948974278318, 11.9000000000000 ) );
#393 = CARTESIAN_POINT( '', ( 0.500000000000000, -2.44948974278318, 57.1500000000000 ) );
#394 = VECTOR( '', #434, 1000.00000000000 );
#395 = AXIS2_PLACEMENT_3D( '', #435, #436, #437 );
#396 = COLOUR_RGB( '', 0.200000002980232, 0.200000002980232, 0.200000002980232 );
#397 = CARTESIAN_POINT( '', ( 2.00000000000000, 0.000000000000000, 0.900000000000000 ) );
#398 = AXIS2_PLACEMENT_3D( '', #438, #439, #440 );
#399 = CARTESIAN_POINT( '', ( 2.00000000000000, 0.000000000000000, 1.40000000000000 ) );
#400 = AXIS2_PLACEMENT_3D( '', #441, #442, #443 );
#401 = COLOUR_RGB( '', 0.200000002980232, 0.200000002980232, 0.200000002980232 );
#402 = CARTESIAN_POINT( '', ( 1.37477270848675, 0.000000000000000, 0.900000000000000 ) );
#403 = AXIS2_PLACEMENT_3D( '', #444, #445, #446 );
#404 = COLOUR_RGB( '', 0.200000002980232, 0.200000002980232, 0.200000002980232 );
#405 = CARTESIAN_POINT( '', ( 0.500000000000000, -10.0000000000000, 11.9000000000000 ) );
#406 = VECTOR( '', #447, 1000.00000000000 );
#407 = COLOUR_RGB( '', 0.200000002980232, 0.200000002980232, 0.200000002980232 );
#408 = COLOUR_RGB( '', 0.200000002980232, 0.200000002980232, 0.200000002980232 );
#409 = COLOUR_RGB( '', 0.200000002980232, 0.200000002980232, 0.200000002980232 );
#410 = CARTESIAN_POINT( '', ( 0.000000000000000, 0.000000000000000, 12.4000000000000 ) );
#411 = DIRECTION( '', ( 0.000000000000000, 0.000000000000000, 1.00000000000000 ) );
#412 = DIRECTION( '', ( 1.00000000000000, 0.000000000000000, 0.000000000000000 ) );
#413 = CARTESIAN_POINT( '', ( 0.000000000000000, 0.000000000000000, 12.9000000000000 ) );
#414 = DIRECTION( '', ( 0.000000000000000, 0.000000000000000, 1.00000000000000 ) );
#415 = DIRECTION( '', ( 1.00000000000000, 0.000000000000000, 0.000000000000000 ) );
#416 = DIRECTION( '', ( 0.000000000000000, 1.00000000000000, 0.000000000000000 ) );
#417 = CARTESIAN_POINT( '', ( 0.000000000000000, 0.000000000000000, 12.4000000000000 ) );
#418 = DIRECTION( '', ( 0.000000000000000, 0.000000000000000, 1.00000000000000 ) );
#419 = DIRECTION( '', ( 1.00000000000000, 0.000000000000000, 0.000000000000000 ) );
#420 = CARTESIAN_POINT( '', ( 0.000000000000000, 0.000000000000000, 12.9000000000000 ) );
#421 = DIRECTION( '', ( 0.000000000000000, 0.000000000000000, 1.00000000000000 ) );
#422 = DIRECTION( '', ( 1.00000000000000, 0.000000000000000, 0.000000000000000 ) );
#423 = DIRECTION( '', ( 0.000000000000000, 0.000000000000000, 1.00000000000000 ) );
#424 = DIRECTION( '', ( 0.000000000000000, 1.00000000000000, 0.000000000000000 ) );
#425 = DIRECTION( '', ( 0.000000000000000, 0.000000000000000, 1.00000000000000 ) );
#426 = DIRECTION( '', ( 0.000000000000000, 1.00000000000000, 0.000000000000000 ) );
#427 = CARTESIAN_POINT( '', ( 0.000000000000000, 0.000000000000000, 1.90000000000000 ) );
#428 = DIRECTION( '', ( 0.000000000000000, 0.000000000000000, 1.00000000000000 ) );
#429 = DIRECTION( '', ( 1.00000000000000, 0.000000000000000, 0.000000000000000 ) );
#430 = CARTESIAN_POINT( '', ( 0.000000000000000, 0.000000000000000, 11.9000000000000 ) );
#431 = DIRECTION( '', ( 0.000000000000000, 0.000000000000000, 1.00000000000000 ) );
#432 = DIRECTION( '', ( 1.00000000000000, 0.000000000000000, 0.000000000000000 ) );
#433 = DIRECTION( '', ( 0.000000000000000, 0.000000000000000, 1.00000000000000 ) );
#434 = DIRECTION( '', ( 0.000000000000000, 0.000000000000000, 1.00000000000000 ) );
#435 = CARTESIAN_POINT( '', ( 0.000000000000000, 0.000000000000000, 11.9000000000000 ) );
#436 = DIRECTION( '', ( 0.000000000000000, 0.000000000000000, 1.00000000000000 ) );
#437 = DIRECTION( '', ( 1.00000000000000, 0.000000000000000, 0.000000000000000 ) );
#438 = CARTESIAN_POINT( '', ( 0.000000000000000, 0.000000000000000, 0.900000000000000 ) );
#439 = DIRECTION( '', ( 0.000000000000000, 0.000000000000000, 1.00000000000000 ) );
#440 = DIRECTION( '', ( 1.00000000000000, 0.000000000000000, 0.000000000000000 ) );
#441 = CARTESIAN_POINT( '', ( 0.000000000000000, 0.000000000000000, 1.40000000000000 ) );
#442 = DIRECTION( '', ( 0.000000000000000, 0.000000000000000, 1.00000000000000 ) );
#443 = DIRECTION( '', ( 1.00000000000000, 0.000000000000000, 0.000000000000000 ) );
#444 = CARTESIAN_POINT( '', ( 0.000000000000000, 0.000000000000000, 0.900000000000000 ) );
#445 = DIRECTION( '', ( 0.000000000000000, 0.000000000000000, 1.00000000000000 ) );
#446 = DIRECTION( '', ( 1.00000000000000, 0.000000000000000, 0.000000000000000 ) );
#447 = DIRECTION( '', ( 0.000000000000000, 1.00000000000000, 0.000000000000000 ) );
ENDSEC;
END-ISO-10303-21;
