ISO-10303-21;
HEADER;
FILE_DESCRIPTION( ( 'Unknown' ), '1' );
FILE_NAME( '//SBS2003/HD_Usb/Disegni/08_LIB/Users_3D/PROD_GAMM_3D/APS-A/7747416_APS_12_AR.stp', 'Unknown', ( 'Unknown' ), ( 'Unknown' ), 'PSStep 14.0', 'Unknown', '  ' );
FILE_SCHEMA( ( 'AUTOMOTIVE_DESIGN { 1 0 10303 214 1 1 1 1 }' ) );
ENDSEC;
DATA;
#1 = MECHANICAL_DESIGN_GEOMETRIC_PRESENTATION_REPRESENTATION( ' ', ( #10, #11, #12, #13, #14, #15, #16, #17, #18, #19, #20, #21 ), #6 );
#2 = PRODUCT_DEFINITION_CONTEXT( '', #22, 'design' );
#3 = APPLICATION_PROTOCOL_DEFINITION( 'international standard', 'automotive_design', 2001, #22 );
#4 = PRODUCT_CATEGORY_RELATIONSHIP( 'NONE', 'NONE', #23, #24 );
#5 = SHAPE_DEFINITION_REPRESENTATION( #25, #26 );
#6 =  ( GEOMETRIC_REPRESENTATION_CONTEXT( 3 )GLOBAL_UNCERTAINTY_ASSIGNED_CONTEXT( ( #29 ) )GLOBAL_UNIT_ASSIGNED_CONTEXT( ( #31, #32, #33 ) )REPRESENTATION_CONTEXT( 'NONE', 'WORKSPACE' ) );
#10 = STYLED_ITEM( '', ( #35 ), #36 );
#11 = STYLED_ITEM( '', ( #37 ), #38 );
#12 = STYLED_ITEM( '', ( #39 ), #40 );
#13 = STYLED_ITEM( '', ( #41 ), #42 );
#14 = STYLED_ITEM( '', ( #43 ), #44 );
#15 = STYLED_ITEM( '', ( #45 ), #46 );
#16 = STYLED_ITEM( '', ( #47 ), #48 );
#17 = STYLED_ITEM( '', ( #49 ), #50 );
#18 = STYLED_ITEM( '', ( #51 ), #52 );
#19 = STYLED_ITEM( '', ( #53 ), #54 );
#20 = STYLED_ITEM( '', ( #55 ), #56 );
#21 = STYLED_ITEM( '', ( #57 ), #58 );
#22 = APPLICATION_CONTEXT( 'core data for automotive mechanical design processes' );
#23 = PRODUCT_CATEGORY( 'part', 'NONE' );
#24 = PRODUCT_RELATED_PRODUCT_CATEGORY( 'detail', ' ', ( #59 ) );
#25 = PRODUCT_DEFINITION_SHAPE( 'NONE', 'NONE', #60 );
#26 = ADVANCED_BREP_SHAPE_REPRESENTATION( '1', ( #61, #62 ), #6 );
#29 = UNCERTAINTY_MEASURE_WITH_UNIT( LENGTH_MEASURE( 0.00100000000000000 ), #31, '', '' );
#31 =  ( CONVERSION_BASED_UNIT( 'MILLIMETRE', #65 )LENGTH_UNIT(  )NAMED_UNIT( #68 ) );
#32 =  ( NAMED_UNIT( #70 )PLANE_ANGLE_UNIT(  )SI_UNIT( $, .RADIAN. ) );
#33 =  ( NAMED_UNIT( #70 )SI_UNIT( $, .STERADIAN. )SOLID_ANGLE_UNIT(  ) );
#35 = PRESENTATION_STYLE_ASSIGNMENT( ( #76 ) );
#36 = ADVANCED_FACE( '', ( #77, #78 ), #79, .T. );
#37 = PRESENTATION_STYLE_ASSIGNMENT( ( #80 ) );
#38 = ADVANCED_FACE( '', ( #81, #82 ), #83, .T. );
#39 = PRESENTATION_STYLE_ASSIGNMENT( ( #84 ) );
#40 = ADVANCED_FACE( '', ( #85 ), #86, .T. );
#41 = PRESENTATION_STYLE_ASSIGNMENT( ( #87 ) );
#42 = ADVANCED_FACE( '', ( #88 ), #89, .T. );
#43 = PRESENTATION_STYLE_ASSIGNMENT( ( #90 ) );
#44 = ADVANCED_FACE( '', ( #91, #92 ), #93, .T. );
#45 = PRESENTATION_STYLE_ASSIGNMENT( ( #94 ) );
#46 = ADVANCED_FACE( '', ( #95, #96 ), #97, .T. );
#47 = PRESENTATION_STYLE_ASSIGNMENT( ( #98 ) );
#48 = ADVANCED_FACE( '', ( #99 ), #100, .T. );
#49 = PRESENTATION_STYLE_ASSIGNMENT( ( #101 ) );
#50 = ADVANCED_FACE( '', ( #102 ), #103, .T. );
#51 = PRESENTATION_STYLE_ASSIGNMENT( ( #104 ) );
#52 = ADVANCED_FACE( '', ( #105 ), #106, .T. );
#53 = PRESENTATION_STYLE_ASSIGNMENT( ( #107 ) );
#54 = ADVANCED_FACE( '', ( #108 ), #109, .T. );
#55 = PRESENTATION_STYLE_ASSIGNMENT( ( #110 ) );
#56 = ADVANCED_FACE( '', ( #111 ), #112, .T. );
#57 = PRESENTATION_STYLE_ASSIGNMENT( ( #113 ) );
#58 = ADVANCED_FACE( '', ( #114 ), #115, .T. );
#59 = PRODUCT( '1', '1', 'PART-1-DESC', ( #116 ) );
#60 = PRODUCT_DEFINITION( 'NONE', 'NONE', #117, #2 );
#61 = MANIFOLD_SOLID_BREP( '1', #118 );
#62 = AXIS2_PLACEMENT_3D( '', #119, #120, #121 );
#65 = LENGTH_MEASURE_WITH_UNIT( LENGTH_MEASURE( 1.00000000000000 ), #122 );
#68 = DIMENSIONAL_EXPONENTS( 1.00000000000000, 0.000000000000000, 0.000000000000000, 0.000000000000000, 0.000000000000000, 0.000000000000000, 0.000000000000000 );
#70 = DIMENSIONAL_EXPONENTS( 0.000000000000000, 0.000000000000000, 0.000000000000000, 0.000000000000000, 0.000000000000000, 0.000000000000000, 0.000000000000000 );
#76 = SURFACE_STYLE_USAGE( .BOTH., #123 );
#77 = FACE_OUTER_BOUND( '', #124, .T. );
#78 = FACE_OUTER_BOUND( '', #125, .T. );
#79 = CYLINDRICAL_SURFACE( '', #126, 2.00000000000000 );
#80 = SURFACE_STYLE_USAGE( .BOTH., #127 );
#81 = FACE_OUTER_BOUND( '', #128, .T. );
#82 = FACE_OUTER_BOUND( '', #129, .T. );
#83 = CYLINDRICAL_SURFACE( '', #130, 2.50000000000000 );
#84 = SURFACE_STYLE_USAGE( .BOTH., #131 );
#85 = FACE_OUTER_BOUND( '', #132, .T. );
#86 = CONICAL_SURFACE( '', #133, 2.00000000000000, 0.785398163397448 );
#87 = SURFACE_STYLE_USAGE( .BOTH., #134 );
#88 = FACE_OUTER_BOUND( '', #135, .T. );
#89 = PLANE( '', #136 );
#90 = SURFACE_STYLE_USAGE( .BOTH., #137 );
#91 = FACE_BOUND( '', #138, .T. );
#92 = FACE_OUTER_BOUND( '', #139, .T. );
#93 = CONICAL_SURFACE( '', #140, 2.50000000000000, 0.785398163397442 );
#94 = SURFACE_STYLE_USAGE( .BOTH., #141 );
#95 = FACE_BOUND( '', #142, .T. );
#96 = FACE_OUTER_BOUND( '', #143, .T. );
#97 = PLANE( '', #144 );
#98 = SURFACE_STYLE_USAGE( .BOTH., #145 );
#99 = FACE_OUTER_BOUND( '', #146, .T. );
#100 = PLANE( '', #147 );
#101 = SURFACE_STYLE_USAGE( .BOTH., #148 );
#102 = FACE_OUTER_BOUND( '', #149, .T. );
#103 = PLANE( '', #150 );
#104 = SURFACE_STYLE_USAGE( .BOTH., #151 );
#105 = FACE_OUTER_BOUND( '', #152, .T. );
#106 = CONICAL_SURFACE( '', #153, 2.00000000000000, 0.785398163397448 );
#107 = SURFACE_STYLE_USAGE( .BOTH., #154 );
#108 = FACE_OUTER_BOUND( '', #155, .T. );
#109 = SPHERICAL_SURFACE( '', #156, 1.50000000000000 );
#110 = SURFACE_STYLE_USAGE( .BOTH., #157 );
#111 = FACE_OUTER_BOUND( '', #158, .T. );
#112 = PLANE( '', #159 );
#113 = SURFACE_STYLE_USAGE( .BOTH., #160 );
#114 = FACE_OUTER_BOUND( '', #161, .T. );
#115 = PLANE( '', #162 );
#116 = PRODUCT_CONTEXT( '', #22, 'mechanical' );
#117 = PRODUCT_DEFINITION_FORMATION_WITH_SPECIFIED_SOURCE( ' ', 'NONE', #59, .NOT_KNOWN. );
#118 = CLOSED_SHELL( '', ( #50, #40, #38, #48, #58, #42, #52, #56, #44, #36, #46, #54 ) );
#119 = CARTESIAN_POINT( '', ( 0.000000000000000, 0.000000000000000, 0.000000000000000 ) );
#120 = DIRECTION( '', ( 0.000000000000000, 0.000000000000000, 1.00000000000000 ) );
#121 = DIRECTION( '', ( 1.00000000000000, 0.000000000000000, 0.000000000000000 ) );
#122 =  ( LENGTH_UNIT(  )NAMED_UNIT( #68 )SI_UNIT( .MILLI., .METRE. ) );
#123 = SURFACE_SIDE_STYLE( '', ( #164 ) );
#124 = EDGE_LOOP( '', ( #165 ) );
#125 = EDGE_LOOP( '', ( #166 ) );
#126 = AXIS2_PLACEMENT_3D( '', #167, #168, #169 );
#127 = SURFACE_SIDE_STYLE( '', ( #170 ) );
#128 = EDGE_LOOP( '', ( #171 ) );
#129 = EDGE_LOOP( '', ( #172, #173, #174, #175, #176, #177, #178, #179 ) );
#130 = AXIS2_PLACEMENT_3D( '', #180, #181, #182 );
#131 = SURFACE_SIDE_STYLE( '', ( #183 ) );
#132 = EDGE_LOOP( '', ( #184, #185, #186, #187 ) );
#133 = AXIS2_PLACEMENT_3D( '', #188, #189, #190 );
#134 = SURFACE_SIDE_STYLE( '', ( #191 ) );
#135 = EDGE_LOOP( '', ( #192, #193, #194, #195, #196, #197 ) );
#136 = AXIS2_PLACEMENT_3D( '', #198, #199, #200 );
#137 = SURFACE_SIDE_STYLE( '', ( #201 ) );
#138 = EDGE_LOOP( '', ( #202 ) );
#139 = EDGE_LOOP( '', ( #203 ) );
#140 = AXIS2_PLACEMENT_3D( '', #204, #205, #206 );
#141 = SURFACE_SIDE_STYLE( '', ( #207 ) );
#142 = EDGE_LOOP( '', ( #208 ) );
#143 = EDGE_LOOP( '', ( #209 ) );
#144 = AXIS2_PLACEMENT_3D( '', #210, #211, #212 );
#145 = SURFACE_SIDE_STYLE( '', ( #213 ) );
#146 = EDGE_LOOP( '', ( #214, #215, #216, #217 ) );
#147 = AXIS2_PLACEMENT_3D( '', #218, #219, #220 );
#148 = SURFACE_SIDE_STYLE( '', ( #221 ) );
#149 = EDGE_LOOP( '', ( #222, #223 ) );
#150 = AXIS2_PLACEMENT_3D( '', #224, #225, #226 );
#151 = SURFACE_SIDE_STYLE( '', ( #227 ) );
#152 = EDGE_LOOP( '', ( #228, #229, #230, #231 ) );
#153 = AXIS2_PLACEMENT_3D( '', #232, #233, #234 );
#154 = SURFACE_SIDE_STYLE( '', ( #235 ) );
#155 = EDGE_LOOP( '', ( #236 ) );
#156 = AXIS2_PLACEMENT_3D( '', #237, #238, #239 );
#157 = SURFACE_SIDE_STYLE( '', ( #240 ) );
#158 = EDGE_LOOP( '', ( #241, #242 ) );
#159 = AXIS2_PLACEMENT_3D( '', #243, #244, #245 );
#160 = SURFACE_SIDE_STYLE( '', ( #246 ) );
#161 = EDGE_LOOP( '', ( #247, #248, #249, #250, #251, #252 ) );
#162 = AXIS2_PLACEMENT_3D( '', #253, #254, #255 );
#164 = SURFACE_STYLE_FILL_AREA( #256 );
#165 = ORIENTED_EDGE( '', *, *, #257, .T. );
#166 = ORIENTED_EDGE( '', *, *, #258, .F. );
#167 = CARTESIAN_POINT( '', ( 0.000000000000000, 0.000000000000000, 57.1500000000000 ) );
#168 = DIRECTION( '', ( -0.000000000000000, -0.000000000000000, -1.00000000000000 ) );
#169 = DIRECTION( '', ( 1.00000000000000, 0.000000000000000, 0.000000000000000 ) );
#170 = SURFACE_STYLE_FILL_AREA( #259 );
#171 = ORIENTED_EDGE( '', *, *, #260, .T. );
#172 = ORIENTED_EDGE( '', *, *, #261, .T. );
#173 = ORIENTED_EDGE( '', *, *, #262, .T. );
#174 = ORIENTED_EDGE( '', *, *, #263, .T. );
#175 = ORIENTED_EDGE( '', *, *, #264, .T. );
#176 = ORIENTED_EDGE( '', *, *, #265, .T. );
#177 = ORIENTED_EDGE( '', *, *, #266, .T. );
#178 = ORIENTED_EDGE( '', *, *, #267, .T. );
#179 = ORIENTED_EDGE( '', *, *, #268, .T. );
#180 = CARTESIAN_POINT( '', ( 0.000000000000000, 0.000000000000000, 57.1500000000000 ) );
#181 = DIRECTION( '', ( -0.000000000000000, -0.000000000000000, -1.00000000000000 ) );
#182 = DIRECTION( '', ( 1.00000000000000, 0.000000000000000, 0.000000000000000 ) );
#183 = SURFACE_STYLE_FILL_AREA( #269 );
#184 = ORIENTED_EDGE( '', *, *, #270, .F. );
#185 = ORIENTED_EDGE( '', *, *, #266, .F. );
#186 = ORIENTED_EDGE( '', *, *, #271, .F. );
#187 = ORIENTED_EDGE( '', *, *, #272, .F. );
#188 = CARTESIAN_POINT( '', ( 0.000000000000000, 0.000000000000000, 12.9000000000000 ) );
#189 = DIRECTION( '', ( -0.000000000000000, 0.000000000000000, -1.00000000000000 ) );
#190 = DIRECTION( '', ( -1.00000000000000, 0.000000000000000, 0.000000000000000 ) );
#191 = SURFACE_STYLE_FILL_AREA( #273 );
#192 = ORIENTED_EDGE( '', *, *, #274, .F. );
#193 = ORIENTED_EDGE( '', *, *, #275, .T. );
#194 = ORIENTED_EDGE( '', *, *, #261, .F. );
#195 = ORIENTED_EDGE( '', *, *, #276, .T. );
#196 = ORIENTED_EDGE( '', *, *, #263, .F. );
#197 = ORIENTED_EDGE( '', *, *, #277, .T. );
#198 = CARTESIAN_POINT( '', ( -0.500000000000000, -10.0000000000000, 12.9000000000000 ) );
#199 = DIRECTION( '', ( 1.00000000000000, 0.000000000000000, 0.000000000000000 ) );
#200 = DIRECTION( '', ( 0.000000000000000, 0.000000000000000, -1.00000000000000 ) );
#201 = SURFACE_STYLE_FILL_AREA( #278 );
#202 = ORIENTED_EDGE( '', *, *, #258, .T. );
#203 = ORIENTED_EDGE( '', *, *, #260, .F. );
#204 = CARTESIAN_POINT( '', ( 0.000000000000000, 0.000000000000000, 1.90000000000000 ) );
#205 = DIRECTION( '', ( -0.000000000000000, -0.000000000000000, 1.00000000000000 ) );
#206 = DIRECTION( '', ( 1.00000000000000, 0.000000000000000, 0.000000000000000 ) );
#207 = SURFACE_STYLE_FILL_AREA( #279 );
#208 = ORIENTED_EDGE( '', *, *, #280, .T. );
#209 = ORIENTED_EDGE( '', *, *, #257, .F. );
#210 = CARTESIAN_POINT( '', ( 1.37477270848675, 0.000000000000000, 0.900000000000000 ) );
#211 = DIRECTION( '', ( 0.000000000000000, 0.000000000000000, -1.00000000000000 ) );
#212 = DIRECTION( '', ( -1.00000000000000, 0.000000000000000, 0.000000000000000 ) );
#213 = SURFACE_STYLE_FILL_AREA( #281 );
#214 = ORIENTED_EDGE( '', *, *, #282, .T. );
#215 = ORIENTED_EDGE( '', *, *, #264, .F. );
#216 = ORIENTED_EDGE( '', *, *, #276, .F. );
#217 = ORIENTED_EDGE( '', *, *, #268, .F. );
#218 = CARTESIAN_POINT( '', ( -0.500000000000000, -10.0000000000000, 11.9000000000000 ) );
#219 = DIRECTION( '', ( 0.000000000000000, 0.000000000000000, 1.00000000000000 ) );
#220 = DIRECTION( '', ( 1.00000000000000, 0.000000000000000, 0.000000000000000 ) );
#221 = SURFACE_STYLE_FILL_AREA( #283 );
#222 = ORIENTED_EDGE( '', *, *, #274, .T. );
#223 = ORIENTED_EDGE( '', *, *, #284, .T. );
#224 = CARTESIAN_POINT( '', ( 0.000000000000000, 0.000000000000000, 12.9000000000000 ) );
#225 = DIRECTION( '', ( 0.000000000000000, 0.000000000000000, 1.00000000000000 ) );
#226 = DIRECTION( '', ( 1.00000000000000, 0.000000000000000, 0.000000000000000 ) );
#227 = SURFACE_STYLE_FILL_AREA( #285 );
#228 = ORIENTED_EDGE( '', *, *, #277, .F. );
#229 = ORIENTED_EDGE( '', *, *, #262, .F. );
#230 = ORIENTED_EDGE( '', *, *, #275, .F. );
#231 = ORIENTED_EDGE( '', *, *, #284, .F. );
#232 = CARTESIAN_POINT( '', ( 0.000000000000000, 0.000000000000000, 12.9000000000000 ) );
#233 = DIRECTION( '', ( -0.000000000000000, 0.000000000000000, -1.00000000000000 ) );
#234 = DIRECTION( '', ( -1.00000000000000, 0.000000000000000, 0.000000000000000 ) );
#235 = SURFACE_STYLE_FILL_AREA( #286 );
#236 = ORIENTED_EDGE( '', *, *, #280, .F. );
#237 = CARTESIAN_POINT( '', ( 0.000000000000000, 0.000000000000000, 1.50000000000000 ) );
#238 = DIRECTION( '', ( 0.000000000000000, 0.000000000000000, 1.00000000000000 ) );
#239 = DIRECTION( '', ( 1.00000000000000, 0.000000000000000, 0.000000000000000 ) );
#240 = SURFACE_STYLE_FILL_AREA( #287 );
#241 = ORIENTED_EDGE( '', *, *, #288, .F. );
#242 = ORIENTED_EDGE( '', *, *, #272, .T. );
#243 = CARTESIAN_POINT( '', ( 0.000000000000000, 0.000000000000000, 12.9000000000000 ) );
#244 = DIRECTION( '', ( 0.000000000000000, 0.000000000000000, 1.00000000000000 ) );
#245 = DIRECTION( '', ( 1.00000000000000, 0.000000000000000, 0.000000000000000 ) );
#246 = SURFACE_STYLE_FILL_AREA( #289 );
#247 = ORIENTED_EDGE( '', *, *, #288, .T. );
#248 = ORIENTED_EDGE( '', *, *, #271, .T. );
#249 = ORIENTED_EDGE( '', *, *, #265, .F. );
#250 = ORIENTED_EDGE( '', *, *, #282, .F. );
#251 = ORIENTED_EDGE( '', *, *, #267, .F. );
#252 = ORIENTED_EDGE( '', *, *, #270, .T. );
#253 = CARTESIAN_POINT( '', ( 0.500000000000000, -10.0000000000000, 11.9000000000000 ) );
#254 = DIRECTION( '', ( -1.00000000000000, 0.000000000000000, 0.000000000000000 ) );
#255 = DIRECTION( '', ( 0.000000000000000, 0.000000000000000, 1.00000000000000 ) );
#256 = FILL_AREA_STYLE( '', ( #290 ) );
#257 = EDGE_CURVE( '', #291, #291, #292, .T. );
#258 = EDGE_CURVE( '', #293, #293, #294, .T. );
#259 = FILL_AREA_STYLE( '', ( #295 ) );
#260 = EDGE_CURVE( '', #296, #296, #297, .T. );
#261 = EDGE_CURVE( '', #298, #299, #300, .T. );
#262 = EDGE_CURVE( '', #299, #301, #302, .F. );
#263 = EDGE_CURVE( '', #301, #303, #304, .F. );
#264 = EDGE_CURVE( '', #303, #305, #306, .F. );
#265 = EDGE_CURVE( '', #305, #307, #308, .T. );
#266 = EDGE_CURVE( '', #307, #309, #310, .F. );
#267 = EDGE_CURVE( '', #309, #311, #312, .F. );
#268 = EDGE_CURVE( '', #311, #298, #313, .F. );
#269 = FILL_AREA_STYLE( '', ( #314 ) );
#270 = EDGE_CURVE( '', #309, #315, #316, .T. );
#271 = EDGE_CURVE( '', #317, #307, #318, .T. );
#272 = EDGE_CURVE( '', #315, #317, #319, .T. );
#273 = FILL_AREA_STYLE( '', ( #320 ) );
#274 = EDGE_CURVE( '', #321, #322, #323, .T. );
#275 = EDGE_CURVE( '', #321, #299, #324, .T. );
#276 = EDGE_CURVE( '', #298, #303, #325, .T. );
#277 = EDGE_CURVE( '', #301, #322, #326, .T. );
#278 = FILL_AREA_STYLE( '', ( #327 ) );
#279 = FILL_AREA_STYLE( '', ( #328 ) );
#280 = EDGE_CURVE( '', #329, #329, #330, .T. );
#281 = FILL_AREA_STYLE( '', ( #331 ) );
#282 = EDGE_CURVE( '', #311, #305, #332, .T. );
#283 = FILL_AREA_STYLE( '', ( #333 ) );
#284 = EDGE_CURVE( '', #322, #321, #334, .T. );
#285 = FILL_AREA_STYLE( '', ( #335 ) );
#286 = FILL_AREA_STYLE( '', ( #336 ) );
#287 = FILL_AREA_STYLE( '', ( #337 ) );
#288 = EDGE_CURVE( '', #315, #317, #338, .T. );
#289 = FILL_AREA_STYLE( '', ( #339 ) );
#290 = FILL_AREA_STYLE_COLOUR( '', #340 );
#291 = VERTEX_POINT( '', #341 );
#292 = CIRCLE( '', #342, 2.00000000000000 );
#293 = VERTEX_POINT( '', #343 );
#294 = CIRCLE( '', #344, 2.00000000000000 );
#295 = FILL_AREA_STYLE_COLOUR( '', #345 );
#296 = VERTEX_POINT( '', #346 );
#297 = CIRCLE( '', #347, 2.50000000000000 );
#298 = VERTEX_POINT( '', #348 );
#299 = VERTEX_POINT( '', #349 );
#300 = LINE( '', #350, #351 );
#301 = VERTEX_POINT( '', #352 );
#302 = CIRCLE( '', #353, 2.50000000000000 );
#303 = VERTEX_POINT( '', #354 );
#304 = LINE( '', #355, #356 );
#305 = VERTEX_POINT( '', #357 );
#306 = CIRCLE( '', #358, 2.50000000000000 );
#307 = VERTEX_POINT( '', #359 );
#308 = LINE( '', #360, #361 );
#309 = VERTEX_POINT( '', #362 );
#310 = CIRCLE( '', #363, 2.50000000000000 );
#311 = VERTEX_POINT( '', #364 );
#312 = LINE( '', #365, #366 );
#313 = CIRCLE( '', #367, 2.50000000000000 );
#314 = FILL_AREA_STYLE_COLOUR( '', #368 );
#315 = VERTEX_POINT( '', #369 );
#316 = B_SPLINE_CURVE_WITH_KNOTS( '', 3, ( #370, #371, #372, #373 ), .UNSPECIFIED., .F., .F., ( 4, 4 ), ( 0.000000000000000, 0.000716356768303939 ), .UNSPECIFIED. );
#317 = VERTEX_POINT( '', #374 );
#318 = B_SPLINE_CURVE_WITH_KNOTS( '', 3, ( #375, #376, #377, #378 ), .UNSPECIFIED., .F., .F., ( 4, 4 ), ( 0.000000000000000, 0.000716356768303939 ), .UNSPECIFIED. );
#319 = CIRCLE( '', #379, 2.00000000000000 );
#320 = FILL_AREA_STYLE_COLOUR( '', #380 );
#321 = VERTEX_POINT( '', #381 );
#322 = VERTEX_POINT( '', #382 );
#323 = LINE( '', #383, #384 );
#324 = B_SPLINE_CURVE_WITH_KNOTS( '', 3, ( #385, #386, #387, #388 ), .UNSPECIFIED., .F., .F., ( 4, 4 ), ( 0.000000000000000, 0.000716356768303939 ), .UNSPECIFIED. );
#325 = LINE( '', #389, #390 );
#326 = B_SPLINE_CURVE_WITH_KNOTS( '', 3, ( #391, #392, #393, #394 ), .UNSPECIFIED., .F., .F., ( 4, 4 ), ( 0.000000000000000, 0.000716356768303939 ), .UNSPECIFIED. );
#327 = FILL_AREA_STYLE_COLOUR( '', #395 );
#328 = FILL_AREA_STYLE_COLOUR( '', #396 );
#329 = VERTEX_POINT( '', #397 );
#330 = CIRCLE( '', #398, 1.37477270848675 );
#331 = FILL_AREA_STYLE_COLOUR( '', #399 );
#332 = LINE( '', #400, #401 );
#333 = FILL_AREA_STYLE_COLOUR( '', #402 );
#334 = CIRCLE( '', #403, 2.00000000000000 );
#335 = FILL_AREA_STYLE_COLOUR( '', #404 );
#336 = FILL_AREA_STYLE_COLOUR( '', #405 );
#337 = FILL_AREA_STYLE_COLOUR( '', #406 );
#338 = LINE( '', #407, #408 );
#339 = FILL_AREA_STYLE_COLOUR( '', #409 );
#340 = COLOUR_RGB( '', 0.200000002980232, 0.200000002980232, 0.200000002980232 );
#341 = CARTESIAN_POINT( '', ( 2.00000000000000, 0.000000000000000, 0.900000000000000 ) );
#342 = AXIS2_PLACEMENT_3D( '', #410, #411, #412 );
#343 = CARTESIAN_POINT( '', ( 2.00000000000000, 0.000000000000000, 1.40000000000000 ) );
#344 = AXIS2_PLACEMENT_3D( '', #413, #414, #415 );
#345 = COLOUR_RGB( '', 0.752941191196442, 0.752941191196442, 0.752941191196442 );
#346 = CARTESIAN_POINT( '', ( 2.50000000000000, 0.000000000000000, 1.90000000000000 ) );
#347 = AXIS2_PLACEMENT_3D( '', #416, #417, #418 );
#348 = CARTESIAN_POINT( '', ( -0.500000000000000, -2.44948974278318, 11.9000000000000 ) );
#349 = CARTESIAN_POINT( '', ( -0.500000000000000, -2.44948974278318, 12.4000000000000 ) );
#350 = CARTESIAN_POINT( '', ( -0.500000000000000, -2.44948974278318, 57.1500000000000 ) );
#351 = VECTOR( '', #419, 1000.00000000000 );
#352 = CARTESIAN_POINT( '', ( -0.500000000000000, 2.44948974278318, 12.4000000000000 ) );
#353 = AXIS2_PLACEMENT_3D( '', #420, #421, #422 );
#354 = CARTESIAN_POINT( '', ( -0.500000000000000, 2.44948974278318, 11.9000000000000 ) );
#355 = CARTESIAN_POINT( '', ( -0.500000000000000, 2.44948974278318, 57.1500000000000 ) );
#356 = VECTOR( '', #423, 1000.00000000000 );
#357 = CARTESIAN_POINT( '', ( 0.500000000000000, 2.44948974278318, 11.9000000000000 ) );
#358 = AXIS2_PLACEMENT_3D( '', #424, #425, #426 );
#359 = CARTESIAN_POINT( '', ( 0.500000000000000, 2.44948974278318, 12.4000000000000 ) );
#360 = CARTESIAN_POINT( '', ( 0.500000000000000, 2.44948974278318, 57.1500000000000 ) );
#361 = VECTOR( '', #427, 1000.00000000000 );
#362 = CARTESIAN_POINT( '', ( 0.500000000000000, -2.44948974278318, 12.4000000000000 ) );
#363 = AXIS2_PLACEMENT_3D( '', #428, #429, #430 );
#364 = CARTESIAN_POINT( '', ( 0.500000000000000, -2.44948974278318, 11.9000000000000 ) );
#365 = CARTESIAN_POINT( '', ( 0.500000000000000, -2.44948974278318, 57.1500000000000 ) );
#366 = VECTOR( '', #431, 1000.00000000000 );
#367 = AXIS2_PLACEMENT_3D( '', #432, #433, #434 );
#368 = COLOUR_RGB( '', 0.200000002980232, 0.200000002980232, 0.200000002980232 );
#369 = CARTESIAN_POINT( '', ( 0.500000000000000, -1.93649167310371, 12.9000000000000 ) );
#370 = CARTESIAN_POINT( '', ( 0.500000000000000, -2.44948974278318, 12.4000000000000 ) );
#371 = CARTESIAN_POINT( '', ( 0.500000000000000, -2.27892860747272, 12.5671151005842 ) );
#372 = CARTESIAN_POINT( '', ( 0.500000000000000, -2.10804030474391, 12.7338987516482 ) );
#373 = CARTESIAN_POINT( '', ( 0.500000000000000, -1.93649167310371, 12.9000000000000 ) );
#374 = CARTESIAN_POINT( '', ( 0.500000000000000, 1.93649167310371, 12.9000000000000 ) );
#375 = CARTESIAN_POINT( '', ( 0.500000000000000, 1.93649167310371, 12.9000000000000 ) );
#376 = CARTESIAN_POINT( '', ( 0.500000000000000, 2.10804030474391, 12.7338987516482 ) );
#377 = CARTESIAN_POINT( '', ( 0.500000000000000, 2.27892860747272, 12.5671151005842 ) );
#378 = CARTESIAN_POINT( '', ( 0.500000000000000, 2.44948974278318, 12.4000000000000 ) );
#379 = AXIS2_PLACEMENT_3D( '', #435, #436, #437 );
#380 = COLOUR_RGB( '', 0.200000002980232, 0.200000002980232, 0.200000002980232 );
#381 = CARTESIAN_POINT( '', ( -0.500000000000000, -1.93649167310371, 12.9000000000000 ) );
#382 = CARTESIAN_POINT( '', ( -0.500000000000000, 1.93649167310371, 12.9000000000000 ) );
#383 = CARTESIAN_POINT( '', ( -0.500000000000000, -10.0000000000000, 12.9000000000000 ) );
#384 = VECTOR( '', #438, 1000.00000000000 );
#385 = CARTESIAN_POINT( '', ( -0.500000000000000, -1.93649167310371, 12.9000000000000 ) );
#386 = CARTESIAN_POINT( '', ( -0.500000000000000, -2.10804030474391, 12.7338987516482 ) );
#387 = CARTESIAN_POINT( '', ( -0.500000000000000, -2.27892860747272, 12.5671151005842 ) );
#388 = CARTESIAN_POINT( '', ( -0.500000000000000, -2.44948974278318, 12.4000000000000 ) );
#389 = CARTESIAN_POINT( '', ( -0.500000000000000, -10.0000000000000, 11.9000000000000 ) );
#390 = VECTOR( '', #439, 1000.00000000000 );
#391 = CARTESIAN_POINT( '', ( -0.500000000000000, 2.44948974278318, 12.4000000000000 ) );
#392 = CARTESIAN_POINT( '', ( -0.500000000000000, 2.27892860747272, 12.5671151005842 ) );
#393 = CARTESIAN_POINT( '', ( -0.500000000000000, 2.10804030474391, 12.7338987516482 ) );
#394 = CARTESIAN_POINT( '', ( -0.500000000000000, 1.93649167310371, 12.9000000000000 ) );
#395 = COLOUR_RGB( '', 0.200000002980232, 0.200000002980232, 0.200000002980232 );
#396 = COLOUR_RGB( '', 0.200000002980232, 0.200000002980232, 0.200000002980232 );
#397 = CARTESIAN_POINT( '', ( 1.37477270848675, 0.000000000000000, 0.900000000000000 ) );
#398 = AXIS2_PLACEMENT_3D( '', #440, #441, #442 );
#399 = COLOUR_RGB( '', 0.200000002980232, 0.200000002980232, 0.200000002980232 );
#400 = CARTESIAN_POINT( '', ( 0.500000000000000, -10.0000000000000, 11.9000000000000 ) );
#401 = VECTOR( '', #443, 1000.00000000000 );
#402 = COLOUR_RGB( '', 0.200000002980232, 0.200000002980232, 0.200000002980232 );
#403 = AXIS2_PLACEMENT_3D( '', #444, #445, #446 );
#404 = COLOUR_RGB( '', 0.200000002980232, 0.200000002980232, 0.200000002980232 );
#405 = COLOUR_RGB( '', 0.200000002980232, 0.200000002980232, 0.200000002980232 );
#406 = COLOUR_RGB( '', 0.200000002980232, 0.200000002980232, 0.200000002980232 );
#407 = CARTESIAN_POINT( '', ( 0.500000000000000, -10.0000000000000, 12.9000000000000 ) );
#408 = VECTOR( '', #447, 1000.00000000000 );
#409 = COLOUR_RGB( '', 0.200000002980232, 0.200000002980232, 0.200000002980232 );
#410 = CARTESIAN_POINT( '', ( 0.000000000000000, 0.000000000000000, 0.900000000000000 ) );
#411 = DIRECTION( '', ( 0.000000000000000, 0.000000000000000, 1.00000000000000 ) );
#412 = DIRECTION( '', ( 1.00000000000000, 0.000000000000000, 0.000000000000000 ) );
#413 = CARTESIAN_POINT( '', ( 0.000000000000000, 0.000000000000000, 1.40000000000000 ) );
#414 = DIRECTION( '', ( 0.000000000000000, 0.000000000000000, 1.00000000000000 ) );
#415 = DIRECTION( '', ( 1.00000000000000, 0.000000000000000, 0.000000000000000 ) );
#416 = CARTESIAN_POINT( '', ( 0.000000000000000, 0.000000000000000, 1.90000000000000 ) );
#417 = DIRECTION( '', ( 0.000000000000000, 0.000000000000000, 1.00000000000000 ) );
#418 = DIRECTION( '', ( 1.00000000000000, 0.000000000000000, 0.000000000000000 ) );
#419 = DIRECTION( '', ( 0.000000000000000, 0.000000000000000, 1.00000000000000 ) );
#420 = CARTESIAN_POINT( '', ( 0.000000000000000, 0.000000000000000, 12.4000000000000 ) );
#421 = DIRECTION( '', ( 0.000000000000000, 0.000000000000000, 1.00000000000000 ) );
#422 = DIRECTION( '', ( 1.00000000000000, 0.000000000000000, 0.000000000000000 ) );
#423 = DIRECTION( '', ( 0.000000000000000, 0.000000000000000, 1.00000000000000 ) );
#424 = CARTESIAN_POINT( '', ( 0.000000000000000, 0.000000000000000, 11.9000000000000 ) );
#425 = DIRECTION( '', ( 0.000000000000000, 0.000000000000000, 1.00000000000000 ) );
#426 = DIRECTION( '', ( 1.00000000000000, 0.000000000000000, 0.000000000000000 ) );
#427 = DIRECTION( '', ( 0.000000000000000, 0.000000000000000, 1.00000000000000 ) );
#428 = CARTESIAN_POINT( '', ( 0.000000000000000, 0.000000000000000, 12.4000000000000 ) );
#429 = DIRECTION( '', ( 0.000000000000000, 0.000000000000000, 1.00000000000000 ) );
#430 = DIRECTION( '', ( 1.00000000000000, 0.000000000000000, 0.000000000000000 ) );
#431 = DIRECTION( '', ( 0.000000000000000, 0.000000000000000, 1.00000000000000 ) );
#432 = CARTESIAN_POINT( '', ( 0.000000000000000, 0.000000000000000, 11.9000000000000 ) );
#433 = DIRECTION( '', ( 0.000000000000000, 0.000000000000000, 1.00000000000000 ) );
#434 = DIRECTION( '', ( 1.00000000000000, 0.000000000000000, 0.000000000000000 ) );
#435 = CARTESIAN_POINT( '', ( 0.000000000000000, 0.000000000000000, 12.9000000000000 ) );
#436 = DIRECTION( '', ( 0.000000000000000, 0.000000000000000, 1.00000000000000 ) );
#437 = DIRECTION( '', ( 1.00000000000000, 0.000000000000000, 0.000000000000000 ) );
#438 = DIRECTION( '', ( 0.000000000000000, 1.00000000000000, 0.000000000000000 ) );
#439 = DIRECTION( '', ( 0.000000000000000, 1.00000000000000, 0.000000000000000 ) );
#440 = CARTESIAN_POINT( '', ( 0.000000000000000, 0.000000000000000, 0.900000000000000 ) );
#441 = DIRECTION( '', ( 0.000000000000000, 0.000000000000000, 1.00000000000000 ) );
#442 = DIRECTION( '', ( 1.00000000000000, 0.000000000000000, 0.000000000000000 ) );
#443 = DIRECTION( '', ( 0.000000000000000, 1.00000000000000, 0.000000000000000 ) );
#444 = CARTESIAN_POINT( '', ( 0.000000000000000, 0.000000000000000, 12.9000000000000 ) );
#445 = DIRECTION( '', ( 0.000000000000000, 0.000000000000000, 1.00000000000000 ) );
#446 = DIRECTION( '', ( 1.00000000000000, 0.000000000000000, 0.000000000000000 ) );
#447 = DIRECTION( '', ( 0.000000000000000, 1.00000000000000, 0.000000000000000 ) );
ENDSEC;
END-ISO-10303-21;
