ISO-10303-21;
HEADER;
FILE_DESCRIPTION( ( 'Unknown' ), '1' );
FILE_NAME( '//SBS2003/HD_Usb/Disegni/08_LIB/Users_3D/PROD_GAMM_3D/APS-A/7747420_APS_14_A.stp', 'Unknown', ( 'Unknown' ), ( 'Unknown' ), 'PSStep 14.0', 'Unknown', '  ' );
FILE_SCHEMA( ( 'AUTOMOTIVE_DESIGN { 1 0 10303 214 1 1 1 1 }' ) );
ENDSEC;
DATA;
#1 = MECHANICAL_DESIGN_GEOMETRIC_PRESENTATION_REPRESENTATION( ' ', ( #10, #11, #12, #13, #14, #15, #16, #17, #18, #19, #20, #21 ), #6 );
#2 = PRODUCT_DEFINITION_CONTEXT( '', #22, 'design' );
#3 = APPLICATION_PROTOCOL_DEFINITION( 'international standard', 'automotive_design', 2001, #22 );
#4 = PRODUCT_CATEGORY_RELATIONSHIP( 'NONE', 'NONE', #23, #24 );
#5 = SHAPE_DEFINITION_REPRESENTATION( #25, #26 );
#6 =  ( GEOMETRIC_REPRESENTATION_CONTEXT( 3 )GLOBAL_UNCERTAINTY_ASSIGNED_CONTEXT( ( #29 ) )GLOBAL_UNIT_ASSIGNED_CONTEXT( ( #31, #32, #33 ) )REPRESENTATION_CONTEXT( 'NONE', 'WORKSPACE' ) );
#10 = STYLED_ITEM( '', ( #35 ), #36 );
#11 = STYLED_ITEM( '', ( #37 ), #38 );
#12 = STYLED_ITEM( '', ( #39 ), #40 );
#13 = STYLED_ITEM( '', ( #41 ), #42 );
#14 = STYLED_ITEM( '', ( #43 ), #44 );
#15 = STYLED_ITEM( '', ( #45 ), #46 );
#16 = STYLED_ITEM( '', ( #47 ), #48 );
#17 = STYLED_ITEM( '', ( #49 ), #50 );
#18 = STYLED_ITEM( '', ( #51 ), #52 );
#19 = STYLED_ITEM( '', ( #53 ), #54 );
#20 = STYLED_ITEM( '', ( #55 ), #56 );
#21 = STYLED_ITEM( '', ( #57 ), #58 );
#22 = APPLICATION_CONTEXT( 'core data for automotive mechanical design processes' );
#23 = PRODUCT_CATEGORY( 'part', 'NONE' );
#24 = PRODUCT_RELATED_PRODUCT_CATEGORY( 'detail', ' ', ( #59 ) );
#25 = PRODUCT_DEFINITION_SHAPE( 'NONE', 'NONE', #60 );
#26 = ADVANCED_BREP_SHAPE_REPRESENTATION( '1', ( #61, #62 ), #6 );
#29 = UNCERTAINTY_MEASURE_WITH_UNIT( LENGTH_MEASURE( 0.00100000000000000 ), #31, '', '' );
#31 =  ( CONVERSION_BASED_UNIT( 'MILLIMETRE', #65 )LENGTH_UNIT(  )NAMED_UNIT( #68 ) );
#32 =  ( NAMED_UNIT( #70 )PLANE_ANGLE_UNIT(  )SI_UNIT( $, .RADIAN. ) );
#33 =  ( NAMED_UNIT( #70 )SI_UNIT( $, .STERADIAN. )SOLID_ANGLE_UNIT(  ) );
#35 = PRESENTATION_STYLE_ASSIGNMENT( ( #76 ) );
#36 = ADVANCED_FACE( '', ( #77 ), #78, .T. );
#37 = PRESENTATION_STYLE_ASSIGNMENT( ( #79 ) );
#38 = ADVANCED_FACE( '', ( #80 ), #81, .T. );
#39 = PRESENTATION_STYLE_ASSIGNMENT( ( #82 ) );
#40 = ADVANCED_FACE( '', ( #83 ), #84, .T. );
#41 = PRESENTATION_STYLE_ASSIGNMENT( ( #85 ) );
#42 = ADVANCED_FACE( '', ( #86, #87 ), #88, .T. );
#43 = PRESENTATION_STYLE_ASSIGNMENT( ( #89 ) );
#44 = ADVANCED_FACE( '', ( #90, #91 ), #92, .T. );
#45 = PRESENTATION_STYLE_ASSIGNMENT( ( #93 ) );
#46 = ADVANCED_FACE( '', ( #94, #95 ), #96, .T. );
#47 = PRESENTATION_STYLE_ASSIGNMENT( ( #97 ) );
#48 = ADVANCED_FACE( '', ( #98 ), #99, .T. );
#49 = PRESENTATION_STYLE_ASSIGNMENT( ( #100 ) );
#50 = ADVANCED_FACE( '', ( #101 ), #102, .T. );
#51 = PRESENTATION_STYLE_ASSIGNMENT( ( #103 ) );
#52 = ADVANCED_FACE( '', ( #104 ), #105, .T. );
#53 = PRESENTATION_STYLE_ASSIGNMENT( ( #106 ) );
#54 = ADVANCED_FACE( '', ( #107 ), #108, .T. );
#55 = PRESENTATION_STYLE_ASSIGNMENT( ( #109 ) );
#56 = ADVANCED_FACE( '', ( #110, #111 ), #112, .T. );
#57 = PRESENTATION_STYLE_ASSIGNMENT( ( #113 ) );
#58 = ADVANCED_FACE( '', ( #114 ), #115, .T. );
#59 = PRODUCT( '1', '1', 'PART-1-DESC', ( #116 ) );
#60 = PRODUCT_DEFINITION( 'NONE', 'NONE', #117, #2 );
#61 = MANIFOLD_SOLID_BREP( '1', #118 );
#62 = AXIS2_PLACEMENT_3D( '', #119, #120, #121 );
#65 = LENGTH_MEASURE_WITH_UNIT( LENGTH_MEASURE( 1.00000000000000 ), #122 );
#68 = DIMENSIONAL_EXPONENTS( 1.00000000000000, 0.000000000000000, 0.000000000000000, 0.000000000000000, 0.000000000000000, 0.000000000000000, 0.000000000000000 );
#70 = DIMENSIONAL_EXPONENTS( 0.000000000000000, 0.000000000000000, 0.000000000000000, 0.000000000000000, 0.000000000000000, 0.000000000000000, 0.000000000000000 );
#76 = SURFACE_STYLE_USAGE( .BOTH., #123 );
#77 = FACE_OUTER_BOUND( '', #124, .T. );
#78 = CONICAL_SURFACE( '', #125, 2.50000000000000, 0.785398163397448 );
#79 = SURFACE_STYLE_USAGE( .BOTH., #126 );
#80 = FACE_OUTER_BOUND( '', #127, .T. );
#81 = PLANE( '', #128 );
#82 = SURFACE_STYLE_USAGE( .BOTH., #129 );
#83 = FACE_OUTER_BOUND( '', #130, .T. );
#84 = PLANE( '', #131 );
#85 = SURFACE_STYLE_USAGE( .BOTH., #132 );
#86 = FACE_BOUND( '', #133, .T. );
#87 = FACE_OUTER_BOUND( '', #134, .T. );
#88 = PLANE( '', #135 );
#89 = SURFACE_STYLE_USAGE( .BOTH., #136 );
#90 = FACE_BOUND( '', #137, .T. );
#91 = FACE_OUTER_BOUND( '', #138, .T. );
#92 = CONICAL_SURFACE( '', #139, 3.00000000000000, 0.785398163397449 );
#93 = SURFACE_STYLE_USAGE( .BOTH., #140 );
#94 = FACE_OUTER_BOUND( '', #141, .T. );
#95 = FACE_OUTER_BOUND( '', #142, .T. );
#96 = CYLINDRICAL_SURFACE( '', #143, 2.50000000000000 );
#97 = SURFACE_STYLE_USAGE( .BOTH., #144 );
#98 = FACE_OUTER_BOUND( '', #145, .T. );
#99 = PLANE( '', #146 );
#100 = SURFACE_STYLE_USAGE( .BOTH., #147 );
#101 = FACE_OUTER_BOUND( '', #148, .T. );
#102 = PLANE( '', #149 );
#103 = SURFACE_STYLE_USAGE( .BOTH., #150 );
#104 = FACE_OUTER_BOUND( '', #151, .T. );
#105 = PLANE( '', #152 );
#106 = SURFACE_STYLE_USAGE( .BOTH., #153 );
#107 = FACE_OUTER_BOUND( '', #154, .T. );
#108 = CONICAL_SURFACE( '', #155, 2.50000000000000, 0.785398163397448 );
#109 = SURFACE_STYLE_USAGE( .BOTH., #156 );
#110 = FACE_OUTER_BOUND( '', #157, .T. );
#111 = FACE_OUTER_BOUND( '', #158, .T. );
#112 = CYLINDRICAL_SURFACE( '', #159, 3.00000000000000 );
#113 = SURFACE_STYLE_USAGE( .BOTH., #160 );
#114 = FACE_OUTER_BOUND( '', #161, .T. );
#115 = SPHERICAL_SURFACE( '', #162, 1.75000000000000 );
#116 = PRODUCT_CONTEXT( '', #22, 'mechanical' );
#117 = PRODUCT_DEFINITION_FORMATION_WITH_SPECIFIED_SOURCE( ' ', 'NONE', #59, .NOT_KNOWN. );
#118 = CLOSED_SHELL( '', ( #48, #36, #56, #50, #52, #38, #54, #40, #44, #46, #42, #58 ) );
#119 = CARTESIAN_POINT( '', ( 0.000000000000000, 0.000000000000000, 0.000000000000000 ) );
#120 = DIRECTION( '', ( 0.000000000000000, 0.000000000000000, 1.00000000000000 ) );
#121 = DIRECTION( '', ( 1.00000000000000, 0.000000000000000, 0.000000000000000 ) );
#122 =  ( LENGTH_UNIT(  )NAMED_UNIT( #68 )SI_UNIT( .MILLI., .METRE. ) );
#123 = SURFACE_SIDE_STYLE( '', ( #164 ) );
#124 = EDGE_LOOP( '', ( #165, #166, #167, #168 ) );
#125 = AXIS2_PLACEMENT_3D( '', #169, #170, #171 );
#126 = SURFACE_SIDE_STYLE( '', ( #172 ) );
#127 = EDGE_LOOP( '', ( #173, #174, #175, #176, #177, #178 ) );
#128 = AXIS2_PLACEMENT_3D( '', #179, #180, #181 );
#129 = SURFACE_SIDE_STYLE( '', ( #182 ) );
#130 = EDGE_LOOP( '', ( #183, #184 ) );
#131 = AXIS2_PLACEMENT_3D( '', #185, #186, #187 );
#132 = SURFACE_SIDE_STYLE( '', ( #188 ) );
#133 = EDGE_LOOP( '', ( #189 ) );
#134 = EDGE_LOOP( '', ( #190 ) );
#135 = AXIS2_PLACEMENT_3D( '', #191, #192, #193 );
#136 = SURFACE_SIDE_STYLE( '', ( #194 ) );
#137 = EDGE_LOOP( '', ( #195 ) );
#138 = EDGE_LOOP( '', ( #196 ) );
#139 = AXIS2_PLACEMENT_3D( '', #197, #198, #199 );
#140 = SURFACE_SIDE_STYLE( '', ( #200 ) );
#141 = EDGE_LOOP( '', ( #201 ) );
#142 = EDGE_LOOP( '', ( #202 ) );
#143 = AXIS2_PLACEMENT_3D( '', #203, #204, #205 );
#144 = SURFACE_SIDE_STYLE( '', ( #206 ) );
#145 = EDGE_LOOP( '', ( #207, #208 ) );
#146 = AXIS2_PLACEMENT_3D( '', #209, #210, #211 );
#147 = SURFACE_SIDE_STYLE( '', ( #212 ) );
#148 = EDGE_LOOP( '', ( #213, #214, #215, #216 ) );
#149 = AXIS2_PLACEMENT_3D( '', #217, #218, #219 );
#150 = SURFACE_SIDE_STYLE( '', ( #220 ) );
#151 = EDGE_LOOP( '', ( #221, #222, #223, #224, #225, #226 ) );
#152 = AXIS2_PLACEMENT_3D( '', #227, #228, #229 );
#153 = SURFACE_SIDE_STYLE( '', ( #230 ) );
#154 = EDGE_LOOP( '', ( #231, #232, #233, #234 ) );
#155 = AXIS2_PLACEMENT_3D( '', #235, #236, #237 );
#156 = SURFACE_SIDE_STYLE( '', ( #238 ) );
#157 = EDGE_LOOP( '', ( #239 ) );
#158 = EDGE_LOOP( '', ( #240, #241, #242, #243, #244, #245, #246, #247 ) );
#159 = AXIS2_PLACEMENT_3D( '', #248, #249, #250 );
#160 = SURFACE_SIDE_STYLE( '', ( #251 ) );
#161 = EDGE_LOOP( '', ( #252 ) );
#162 = AXIS2_PLACEMENT_3D( '', #253, #254, #255 );
#164 = SURFACE_STYLE_FILL_AREA( #256 );
#165 = ORIENTED_EDGE( '', *, *, #257, .F. );
#166 = ORIENTED_EDGE( '', *, *, #258, .F. );
#167 = ORIENTED_EDGE( '', *, *, #259, .F. );
#168 = ORIENTED_EDGE( '', *, *, #260, .F. );
#169 = CARTESIAN_POINT( '', ( 0.000000000000000, 0.000000000000000, 15.0000000000000 ) );
#170 = DIRECTION( '', ( -0.000000000000000, 0.000000000000000, -1.00000000000000 ) );
#171 = DIRECTION( '', ( -1.00000000000000, 0.000000000000000, 0.000000000000000 ) );
#172 = SURFACE_STYLE_FILL_AREA( #261 );
#173 = ORIENTED_EDGE( '', *, *, #262, .F. );
#174 = ORIENTED_EDGE( '', *, *, #263, .T. );
#175 = ORIENTED_EDGE( '', *, *, #264, .F. );
#176 = ORIENTED_EDGE( '', *, *, #265, .T. );
#177 = ORIENTED_EDGE( '', *, *, #266, .F. );
#178 = ORIENTED_EDGE( '', *, *, #267, .T. );
#179 = CARTESIAN_POINT( '', ( -0.500000000000000, -10.0000000000000, 15.0000000000000 ) );
#180 = DIRECTION( '', ( 1.00000000000000, 0.000000000000000, 1.08420217248550E-016 ) );
#181 = DIRECTION( '', ( 1.08420217248550E-016, 0.000000000000000, -1.00000000000000 ) );
#182 = SURFACE_STYLE_FILL_AREA( #268 );
#183 = ORIENTED_EDGE( '', *, *, #269, .F. );
#184 = ORIENTED_EDGE( '', *, *, #260, .T. );
#185 = CARTESIAN_POINT( '', ( 0.000000000000000, 0.000000000000000, 15.0000000000000 ) );
#186 = DIRECTION( '', ( 0.000000000000000, 0.000000000000000, 1.00000000000000 ) );
#187 = DIRECTION( '', ( 1.00000000000000, 0.000000000000000, 0.000000000000000 ) );
#188 = SURFACE_STYLE_FILL_AREA( #270 );
#189 = ORIENTED_EDGE( '', *, *, #271, .T. );
#190 = ORIENTED_EDGE( '', *, *, #272, .F. );
#191 = CARTESIAN_POINT( '', ( 1.58113883008419, 0.000000000000000, 1.00000000000000 ) );
#192 = DIRECTION( '', ( 0.000000000000000, 0.000000000000000, -1.00000000000000 ) );
#193 = DIRECTION( '', ( -1.00000000000000, 0.000000000000000, 0.000000000000000 ) );
#194 = SURFACE_STYLE_FILL_AREA( #273 );
#195 = ORIENTED_EDGE( '', *, *, #274, .T. );
#196 = ORIENTED_EDGE( '', *, *, #275, .F. );
#197 = CARTESIAN_POINT( '', ( 0.000000000000000, 0.000000000000000, 2.00000000000000 ) );
#198 = DIRECTION( '', ( -0.000000000000000, -0.000000000000000, 1.00000000000000 ) );
#199 = DIRECTION( '', ( 1.00000000000000, 0.000000000000000, 0.000000000000000 ) );
#200 = SURFACE_STYLE_FILL_AREA( #276 );
#201 = ORIENTED_EDGE( '', *, *, #272, .T. );
#202 = ORIENTED_EDGE( '', *, *, #274, .F. );
#203 = CARTESIAN_POINT( '', ( 0.000000000000000, 0.000000000000000, 57.1500000000000 ) );
#204 = DIRECTION( '', ( -0.000000000000000, -0.000000000000000, -1.00000000000000 ) );
#205 = DIRECTION( '', ( 1.00000000000000, 0.000000000000000, 0.000000000000000 ) );
#206 = SURFACE_STYLE_FILL_AREA( #277 );
#207 = ORIENTED_EDGE( '', *, *, #262, .T. );
#208 = ORIENTED_EDGE( '', *, *, #278, .T. );
#209 = CARTESIAN_POINT( '', ( 0.000000000000000, 0.000000000000000, 15.0000000000000 ) );
#210 = DIRECTION( '', ( 0.000000000000000, 0.000000000000000, 1.00000000000000 ) );
#211 = DIRECTION( '', ( 1.00000000000000, 0.000000000000000, 0.000000000000000 ) );
#212 = SURFACE_STYLE_FILL_AREA( #279 );
#213 = ORIENTED_EDGE( '', *, *, #280, .T. );
#214 = ORIENTED_EDGE( '', *, *, #281, .F. );
#215 = ORIENTED_EDGE( '', *, *, #265, .F. );
#216 = ORIENTED_EDGE( '', *, *, #282, .F. );
#217 = CARTESIAN_POINT( '', ( -0.500000000000000, -10.0000000000000, 14.0000000000000 ) );
#218 = DIRECTION( '', ( 0.000000000000000, 0.000000000000000, 1.00000000000000 ) );
#219 = DIRECTION( '', ( 1.00000000000000, 0.000000000000000, 0.000000000000000 ) );
#220 = SURFACE_STYLE_FILL_AREA( #283 );
#221 = ORIENTED_EDGE( '', *, *, #269, .T. );
#222 = ORIENTED_EDGE( '', *, *, #259, .T. );
#223 = ORIENTED_EDGE( '', *, *, #284, .F. );
#224 = ORIENTED_EDGE( '', *, *, #280, .F. );
#225 = ORIENTED_EDGE( '', *, *, #285, .F. );
#226 = ORIENTED_EDGE( '', *, *, #257, .T. );
#227 = CARTESIAN_POINT( '', ( 0.500000000000000, -10.0000000000000, 14.0000000000000 ) );
#228 = DIRECTION( '', ( -1.00000000000000, 0.000000000000000, 1.08420217248550E-016 ) );
#229 = DIRECTION( '', ( 1.08420217248550E-016, 0.000000000000000, 1.00000000000000 ) );
#230 = SURFACE_STYLE_FILL_AREA( #286 );
#231 = ORIENTED_EDGE( '', *, *, #267, .F. );
#232 = ORIENTED_EDGE( '', *, *, #287, .F. );
#233 = ORIENTED_EDGE( '', *, *, #263, .F. );
#234 = ORIENTED_EDGE( '', *, *, #278, .F. );
#235 = CARTESIAN_POINT( '', ( 0.000000000000000, 0.000000000000000, 15.0000000000000 ) );
#236 = DIRECTION( '', ( -0.000000000000000, 0.000000000000000, -1.00000000000000 ) );
#237 = DIRECTION( '', ( -1.00000000000000, 0.000000000000000, 0.000000000000000 ) );
#238 = SURFACE_STYLE_FILL_AREA( #288 );
#239 = ORIENTED_EDGE( '', *, *, #275, .T. );
#240 = ORIENTED_EDGE( '', *, *, #264, .T. );
#241 = ORIENTED_EDGE( '', *, *, #287, .T. );
#242 = ORIENTED_EDGE( '', *, *, #266, .T. );
#243 = ORIENTED_EDGE( '', *, *, #281, .T. );
#244 = ORIENTED_EDGE( '', *, *, #284, .T. );
#245 = ORIENTED_EDGE( '', *, *, #258, .T. );
#246 = ORIENTED_EDGE( '', *, *, #285, .T. );
#247 = ORIENTED_EDGE( '', *, *, #282, .T. );
#248 = CARTESIAN_POINT( '', ( 0.000000000000000, 0.000000000000000, 57.1500000000000 ) );
#249 = DIRECTION( '', ( -0.000000000000000, -0.000000000000000, -1.00000000000000 ) );
#250 = DIRECTION( '', ( 1.00000000000000, 0.000000000000000, 0.000000000000000 ) );
#251 = SURFACE_STYLE_FILL_AREA( #289 );
#252 = ORIENTED_EDGE( '', *, *, #271, .F. );
#253 = CARTESIAN_POINT( '', ( 0.000000000000000, 0.000000000000000, 1.75000000000000 ) );
#254 = DIRECTION( '', ( 0.000000000000000, 0.000000000000000, 1.00000000000000 ) );
#255 = DIRECTION( '', ( 1.00000000000000, 0.000000000000000, 0.000000000000000 ) );
#256 = FILL_AREA_STYLE( '', ( #290 ) );
#257 = EDGE_CURVE( '', #291, #292, #293, .T. );
#258 = EDGE_CURVE( '', #294, #291, #295, .F. );
#259 = EDGE_CURVE( '', #296, #294, #297, .T. );
#260 = EDGE_CURVE( '', #292, #296, #298, .T. );
#261 = FILL_AREA_STYLE( '', ( #299 ) );
#262 = EDGE_CURVE( '', #300, #301, #302, .T. );
#263 = EDGE_CURVE( '', #300, #303, #304, .T. );
#264 = EDGE_CURVE( '', #305, #303, #306, .T. );
#265 = EDGE_CURVE( '', #305, #307, #308, .T. );
#266 = EDGE_CURVE( '', #309, #307, #310, .F. );
#267 = EDGE_CURVE( '', #309, #301, #311, .T. );
#268 = FILL_AREA_STYLE( '', ( #312 ) );
#269 = EDGE_CURVE( '', #292, #296, #313, .T. );
#270 = FILL_AREA_STYLE( '', ( #314 ) );
#271 = EDGE_CURVE( '', #315, #315, #316, .T. );
#272 = EDGE_CURVE( '', #317, #317, #318, .T. );
#273 = FILL_AREA_STYLE( '', ( #319 ) );
#274 = EDGE_CURVE( '', #320, #320, #321, .T. );
#275 = EDGE_CURVE( '', #322, #322, #323, .T. );
#276 = FILL_AREA_STYLE( '', ( #324 ) );
#277 = FILL_AREA_STYLE( '', ( #325 ) );
#278 = EDGE_CURVE( '', #301, #300, #326, .T. );
#279 = FILL_AREA_STYLE( '', ( #327 ) );
#280 = EDGE_CURVE( '', #328, #329, #330, .T. );
#281 = EDGE_CURVE( '', #307, #329, #331, .F. );
#282 = EDGE_CURVE( '', #328, #305, #332, .F. );
#283 = FILL_AREA_STYLE( '', ( #333 ) );
#284 = EDGE_CURVE( '', #329, #294, #334, .T. );
#285 = EDGE_CURVE( '', #291, #328, #335, .F. );
#286 = FILL_AREA_STYLE( '', ( #336 ) );
#287 = EDGE_CURVE( '', #303, #309, #337, .F. );
#288 = FILL_AREA_STYLE( '', ( #338 ) );
#289 = FILL_AREA_STYLE( '', ( #339 ) );
#290 = FILL_AREA_STYLE_COLOUR( '', #340 );
#291 = VERTEX_POINT( '', #341 );
#292 = VERTEX_POINT( '', #342 );
#293 = B_SPLINE_CURVE_WITH_KNOTS( '', 3, ( #343, #344, #345, #346 ), .UNSPECIFIED., .F., .F., ( 4, 4 ), ( 0.000000000000000, 0.000713178276317052 ), .UNSPECIFIED. );
#294 = VERTEX_POINT( '', #347 );
#295 = CIRCLE( '', #348, 3.00000000000000 );
#296 = VERTEX_POINT( '', #349 );
#297 = B_SPLINE_CURVE_WITH_KNOTS( '', 3, ( #350, #351, #352, #353 ), .UNSPECIFIED., .F., .F., ( 4, 4 ), ( 0.000000000000000, 0.000713178276317051 ), .UNSPECIFIED. );
#298 = CIRCLE( '', #354, 2.50000000000000 );
#299 = FILL_AREA_STYLE_COLOUR( '', #355 );
#300 = VERTEX_POINT( '', #356 );
#301 = VERTEX_POINT( '', #357 );
#302 = LINE( '', #358, #359 );
#303 = VERTEX_POINT( '', #360 );
#304 = B_SPLINE_CURVE_WITH_KNOTS( '', 3, ( #361, #362, #363, #364 ), .UNSPECIFIED., .F., .F., ( 4, 4 ), ( 0.000000000000000, 0.000713178276317051 ), .UNSPECIFIED. );
#305 = VERTEX_POINT( '', #365 );
#306 = LINE( '', #366, #367 );
#307 = VERTEX_POINT( '', #368 );
#308 = LINE( '', #369, #370 );
#309 = VERTEX_POINT( '', #371 );
#310 = LINE( '', #372, #373 );
#311 = B_SPLINE_CURVE_WITH_KNOTS( '', 3, ( #374, #375, #376, #377 ), .UNSPECIFIED., .F., .F., ( 4, 4 ), ( 0.000000000000000, 0.000713178276317052 ), .UNSPECIFIED. );
#312 = FILL_AREA_STYLE_COLOUR( '', #378 );
#313 = LINE( '', #379, #380 );
#314 = FILL_AREA_STYLE_COLOUR( '', #381 );
#315 = VERTEX_POINT( '', #382 );
#316 = CIRCLE( '', #383, 1.58113883008419 );
#317 = VERTEX_POINT( '', #384 );
#318 = CIRCLE( '', #385, 2.50000000000000 );
#319 = FILL_AREA_STYLE_COLOUR( '', #386 );
#320 = VERTEX_POINT( '', #387 );
#321 = CIRCLE( '', #388, 2.50000000000000 );
#322 = VERTEX_POINT( '', #389 );
#323 = CIRCLE( '', #390, 3.00000000000000 );
#324 = FILL_AREA_STYLE_COLOUR( '', #391 );
#325 = FILL_AREA_STYLE_COLOUR( '', #392 );
#326 = CIRCLE( '', #393, 2.50000000000000 );
#327 = FILL_AREA_STYLE_COLOUR( '', #394 );
#328 = VERTEX_POINT( '', #395 );
#329 = VERTEX_POINT( '', #396 );
#330 = LINE( '', #397, #398 );
#331 = CIRCLE( '', #399, 3.00000000000000 );
#332 = CIRCLE( '', #400, 3.00000000000000 );
#333 = FILL_AREA_STYLE_COLOUR( '', #401 );
#334 = LINE( '', #402, #403 );
#335 = LINE( '', #404, #405 );
#336 = FILL_AREA_STYLE_COLOUR( '', #406 );
#337 = CIRCLE( '', #407, 3.00000000000000 );
#338 = FILL_AREA_STYLE_COLOUR( '', #408 );
#339 = FILL_AREA_STYLE_COLOUR( '', #409 );
#340 = COLOUR_RGB( '', 0.200000002980232, 0.200000002980232, 0.200000002980232 );
#341 = CARTESIAN_POINT( '', ( 0.500000000000000, -2.95803989154981, 14.5000000000000 ) );
#342 = CARTESIAN_POINT( '', ( 0.500000000000000, -2.44948974278318, 15.0000000000000 ) );
#343 = CARTESIAN_POINT( '', ( 0.500000000000000, -2.95803989154981, 14.5000000000000 ) );
#344 = CARTESIAN_POINT( '', ( 0.500000000000000, -2.78876251207873, 14.6669097470708 ) );
#345 = CARTESIAN_POINT( '', ( 0.500000000000000, -2.61929409428724, 14.8336263930843 ) );
#346 = CARTESIAN_POINT( '', ( 0.500000000000000, -2.44948974278318, 15.0000000000000 ) );
#347 = CARTESIAN_POINT( '', ( 0.500000000000000, 2.95803989154981, 14.5000000000000 ) );
#348 = AXIS2_PLACEMENT_3D( '', #410, #411, #412 );
#349 = CARTESIAN_POINT( '', ( 0.500000000000000, 2.44948974278318, 15.0000000000000 ) );
#350 = CARTESIAN_POINT( '', ( 0.500000000000000, 2.44948974278318, 15.0000000000000 ) );
#351 = CARTESIAN_POINT( '', ( 0.500000000000000, 2.61929409428724, 14.8336263930843 ) );
#352 = CARTESIAN_POINT( '', ( 0.500000000000000, 2.78876251207873, 14.6669097470708 ) );
#353 = CARTESIAN_POINT( '', ( 0.500000000000000, 2.95803989154981, 14.5000000000000 ) );
#354 = AXIS2_PLACEMENT_3D( '', #413, #414, #415 );
#355 = COLOUR_RGB( '', 0.200000002980232, 0.200000002980232, 0.200000002980232 );
#356 = CARTESIAN_POINT( '', ( -0.500000000000000, -2.44948974278318, 15.0000000000000 ) );
#357 = CARTESIAN_POINT( '', ( -0.500000000000000, 2.44948974278318, 15.0000000000000 ) );
#358 = CARTESIAN_POINT( '', ( -0.500000000000000, -10.0000000000000, 15.0000000000000 ) );
#359 = VECTOR( '', #416, 1000.00000000000 );
#360 = CARTESIAN_POINT( '', ( -0.500000000000000, -2.95803989154981, 14.5000000000000 ) );
#361 = CARTESIAN_POINT( '', ( -0.500000000000000, -2.44948974278318, 15.0000000000000 ) );
#362 = CARTESIAN_POINT( '', ( -0.500000000000000, -2.61929409428724, 14.8336263930843 ) );
#363 = CARTESIAN_POINT( '', ( -0.500000000000000, -2.78876251207873, 14.6669097470708 ) );
#364 = CARTESIAN_POINT( '', ( -0.500000000000000, -2.95803989154981, 14.5000000000000 ) );
#365 = CARTESIAN_POINT( '', ( -0.500000000000000, -2.95803989154981, 14.0000000000000 ) );
#366 = CARTESIAN_POINT( '', ( -0.500000000000000, -2.95803989154981, 57.1500000000000 ) );
#367 = VECTOR( '', #417, 1000.00000000000 );
#368 = CARTESIAN_POINT( '', ( -0.500000000000000, 2.95803989154981, 14.0000000000000 ) );
#369 = CARTESIAN_POINT( '', ( -0.500000000000000, -10.0000000000000, 14.0000000000000 ) );
#370 = VECTOR( '', #418, 1000.00000000000 );
#371 = CARTESIAN_POINT( '', ( -0.500000000000000, 2.95803989154981, 14.5000000000000 ) );
#372 = CARTESIAN_POINT( '', ( -0.500000000000000, 2.95803989154981, 57.1500000000000 ) );
#373 = VECTOR( '', #419, 1000.00000000000 );
#374 = CARTESIAN_POINT( '', ( -0.500000000000000, 2.95803989154981, 14.5000000000000 ) );
#375 = CARTESIAN_POINT( '', ( -0.500000000000000, 2.78876251207873, 14.6669097470708 ) );
#376 = CARTESIAN_POINT( '', ( -0.500000000000000, 2.61929409428724, 14.8336263930843 ) );
#377 = CARTESIAN_POINT( '', ( -0.500000000000000, 2.44948974278318, 15.0000000000000 ) );
#378 = COLOUR_RGB( '', 0.200000002980232, 0.200000002980232, 0.200000002980232 );
#379 = CARTESIAN_POINT( '', ( 0.500000000000000, -10.0000000000000, 15.0000000000000 ) );
#380 = VECTOR( '', #420, 1000.00000000000 );
#381 = COLOUR_RGB( '', 0.200000002980232, 0.200000002980232, 0.200000002980232 );
#382 = CARTESIAN_POINT( '', ( 1.58113883008419, 0.000000000000000, 1.00000000000000 ) );
#383 = AXIS2_PLACEMENT_3D( '', #421, #422, #423 );
#384 = CARTESIAN_POINT( '', ( 2.50000000000000, 0.000000000000000, 1.00000000000000 ) );
#385 = AXIS2_PLACEMENT_3D( '', #424, #425, #426 );
#386 = COLOUR_RGB( '', 0.200000002980232, 0.200000002980232, 0.200000002980232 );
#387 = CARTESIAN_POINT( '', ( 2.50000000000000, 0.000000000000000, 1.50000000000000 ) );
#388 = AXIS2_PLACEMENT_3D( '', #427, #428, #429 );
#389 = CARTESIAN_POINT( '', ( 3.00000000000000, 0.000000000000000, 2.00000000000000 ) );
#390 = AXIS2_PLACEMENT_3D( '', #430, #431, #432 );
#391 = COLOUR_RGB( '', 0.200000002980232, 0.200000002980232, 0.200000002980232 );
#392 = COLOUR_RGB( '', 0.200000002980232, 0.200000002980232, 0.200000002980232 );
#393 = AXIS2_PLACEMENT_3D( '', #433, #434, #435 );
#394 = COLOUR_RGB( '', 0.200000002980232, 0.200000002980232, 0.200000002980232 );
#395 = CARTESIAN_POINT( '', ( 0.500000000000000, -2.95803989154981, 14.0000000000000 ) );
#396 = CARTESIAN_POINT( '', ( 0.500000000000000, 2.95803989154981, 14.0000000000000 ) );
#397 = CARTESIAN_POINT( '', ( 0.500000000000000, -10.0000000000000, 14.0000000000000 ) );
#398 = VECTOR( '', #436, 1000.00000000000 );
#399 = AXIS2_PLACEMENT_3D( '', #437, #438, #439 );
#400 = AXIS2_PLACEMENT_3D( '', #440, #441, #442 );
#401 = COLOUR_RGB( '', 0.200000002980232, 0.200000002980232, 0.200000002980232 );
#402 = CARTESIAN_POINT( '', ( 0.500000000000000, 2.95803989154981, 57.1500000000000 ) );
#403 = VECTOR( '', #443, 1000.00000000000 );
#404 = CARTESIAN_POINT( '', ( 0.500000000000000, -2.95803989154981, 57.1500000000000 ) );
#405 = VECTOR( '', #444, 1000.00000000000 );
#406 = COLOUR_RGB( '', 0.200000002980232, 0.200000002980232, 0.200000002980232 );
#407 = AXIS2_PLACEMENT_3D( '', #445, #446, #447 );
#408 = COLOUR_RGB( '', 0.752941191196442, 0.752941191196442, 0.752941191196442 );
#409 = COLOUR_RGB( '', 0.200000002980232, 0.200000002980232, 0.200000002980232 );
#410 = CARTESIAN_POINT( '', ( 0.000000000000000, 0.000000000000000, 14.5000000000000 ) );
#411 = DIRECTION( '', ( 0.000000000000000, 0.000000000000000, 1.00000000000000 ) );
#412 = DIRECTION( '', ( 1.00000000000000, 0.000000000000000, 0.000000000000000 ) );
#413 = CARTESIAN_POINT( '', ( 0.000000000000000, 0.000000000000000, 15.0000000000000 ) );
#414 = DIRECTION( '', ( 0.000000000000000, 0.000000000000000, 1.00000000000000 ) );
#415 = DIRECTION( '', ( 1.00000000000000, 0.000000000000000, 0.000000000000000 ) );
#416 = DIRECTION( '', ( 0.000000000000000, 1.00000000000000, 0.000000000000000 ) );
#417 = DIRECTION( '', ( 0.000000000000000, 0.000000000000000, 1.00000000000000 ) );
#418 = DIRECTION( '', ( 0.000000000000000, 1.00000000000000, 0.000000000000000 ) );
#419 = DIRECTION( '', ( 0.000000000000000, 0.000000000000000, 1.00000000000000 ) );
#420 = DIRECTION( '', ( 0.000000000000000, 1.00000000000000, 0.000000000000000 ) );
#421 = CARTESIAN_POINT( '', ( 0.000000000000000, 0.000000000000000, 1.00000000000000 ) );
#422 = DIRECTION( '', ( 0.000000000000000, 0.000000000000000, 1.00000000000000 ) );
#423 = DIRECTION( '', ( 1.00000000000000, 0.000000000000000, 0.000000000000000 ) );
#424 = CARTESIAN_POINT( '', ( 0.000000000000000, 0.000000000000000, 1.00000000000000 ) );
#425 = DIRECTION( '', ( 0.000000000000000, 0.000000000000000, 1.00000000000000 ) );
#426 = DIRECTION( '', ( 1.00000000000000, 0.000000000000000, 0.000000000000000 ) );
#427 = CARTESIAN_POINT( '', ( 0.000000000000000, 0.000000000000000, 1.50000000000000 ) );
#428 = DIRECTION( '', ( 0.000000000000000, 0.000000000000000, 1.00000000000000 ) );
#429 = DIRECTION( '', ( 1.00000000000000, 0.000000000000000, 0.000000000000000 ) );
#430 = CARTESIAN_POINT( '', ( 0.000000000000000, 0.000000000000000, 2.00000000000000 ) );
#431 = DIRECTION( '', ( 0.000000000000000, 0.000000000000000, 1.00000000000000 ) );
#432 = DIRECTION( '', ( 1.00000000000000, 0.000000000000000, 0.000000000000000 ) );
#433 = CARTESIAN_POINT( '', ( 0.000000000000000, 0.000000000000000, 15.0000000000000 ) );
#434 = DIRECTION( '', ( 0.000000000000000, 0.000000000000000, 1.00000000000000 ) );
#435 = DIRECTION( '', ( 1.00000000000000, 0.000000000000000, 0.000000000000000 ) );
#436 = DIRECTION( '', ( 0.000000000000000, 1.00000000000000, 0.000000000000000 ) );
#437 = CARTESIAN_POINT( '', ( 0.000000000000000, 0.000000000000000, 14.0000000000000 ) );
#438 = DIRECTION( '', ( 0.000000000000000, 0.000000000000000, 1.00000000000000 ) );
#439 = DIRECTION( '', ( 1.00000000000000, 0.000000000000000, 0.000000000000000 ) );
#440 = CARTESIAN_POINT( '', ( 0.000000000000000, 0.000000000000000, 14.0000000000000 ) );
#441 = DIRECTION( '', ( 0.000000000000000, 0.000000000000000, 1.00000000000000 ) );
#442 = DIRECTION( '', ( 1.00000000000000, 0.000000000000000, 0.000000000000000 ) );
#443 = DIRECTION( '', ( 0.000000000000000, 0.000000000000000, 1.00000000000000 ) );
#444 = DIRECTION( '', ( 0.000000000000000, 0.000000000000000, 1.00000000000000 ) );
#445 = CARTESIAN_POINT( '', ( 0.000000000000000, 0.000000000000000, 14.5000000000000 ) );
#446 = DIRECTION( '', ( 0.000000000000000, 0.000000000000000, 1.00000000000000 ) );
#447 = DIRECTION( '', ( 1.00000000000000, 0.000000000000000, 0.000000000000000 ) );
ENDSEC;
END-ISO-10303-21;
