ISO-10303-21;
HEADER;
FILE_DESCRIPTION( ( 'Unknown' ), '1' );
FILE_NAME( '//SBS2003/HD_Usb/Disegni/08_LIB/Users_3D/PROD_GAMM_3D/APS-A/7747421_APS_14_AR.stp', 'Unknown', ( 'Unknown' ), ( 'Unknown' ), 'PSStep 14.0', 'Unknown', '  ' );
FILE_SCHEMA( ( 'AUTOMOTIVE_DESIGN { 1 0 10303 214 1 1 1 1 }' ) );
ENDSEC;
DATA;
#1 = MECHANICAL_DESIGN_GEOMETRIC_PRESENTATION_REPRESENTATION( ' ', ( #10, #11, #12, #13, #14, #15, #16, #17, #18, #19, #20, #21 ), #6 );
#2 = PRODUCT_DEFINITION_CONTEXT( '', #22, 'design' );
#3 = APPLICATION_PROTOCOL_DEFINITION( 'international standard', 'automotive_design', 2001, #22 );
#4 = PRODUCT_CATEGORY_RELATIONSHIP( 'NONE', 'NONE', #23, #24 );
#5 = SHAPE_DEFINITION_REPRESENTATION( #25, #26 );
#6 =  ( GEOMETRIC_REPRESENTATION_CONTEXT( 3 )GLOBAL_UNCERTAINTY_ASSIGNED_CONTEXT( ( #29 ) )GLOBAL_UNIT_ASSIGNED_CONTEXT( ( #31, #32, #33 ) )REPRESENTATION_CONTEXT( 'NONE', 'WORKSPACE' ) );
#10 = STYLED_ITEM( '', ( #35 ), #36 );
#11 = STYLED_ITEM( '', ( #37 ), #38 );
#12 = STYLED_ITEM( '', ( #39 ), #40 );
#13 = STYLED_ITEM( '', ( #41 ), #42 );
#14 = STYLED_ITEM( '', ( #43 ), #44 );
#15 = STYLED_ITEM( '', ( #45 ), #46 );
#16 = STYLED_ITEM( '', ( #47 ), #48 );
#17 = STYLED_ITEM( '', ( #49 ), #50 );
#18 = STYLED_ITEM( '', ( #51 ), #52 );
#19 = STYLED_ITEM( '', ( #53 ), #54 );
#20 = STYLED_ITEM( '', ( #55 ), #56 );
#21 = STYLED_ITEM( '', ( #57 ), #58 );
#22 = APPLICATION_CONTEXT( 'core data for automotive mechanical design processes' );
#23 = PRODUCT_CATEGORY( 'part', 'NONE' );
#24 = PRODUCT_RELATED_PRODUCT_CATEGORY( 'detail', ' ', ( #59 ) );
#25 = PRODUCT_DEFINITION_SHAPE( 'NONE', 'NONE', #60 );
#26 = ADVANCED_BREP_SHAPE_REPRESENTATION( '1', ( #61, #62 ), #6 );
#29 = UNCERTAINTY_MEASURE_WITH_UNIT( LENGTH_MEASURE( 0.00100000000000000 ), #31, '', '' );
#31 =  ( CONVERSION_BASED_UNIT( 'MILLIMETRE', #65 )LENGTH_UNIT(  )NAMED_UNIT( #68 ) );
#32 =  ( NAMED_UNIT( #70 )PLANE_ANGLE_UNIT(  )SI_UNIT( $, .RADIAN. ) );
#33 =  ( NAMED_UNIT( #70 )SI_UNIT( $, .STERADIAN. )SOLID_ANGLE_UNIT(  ) );
#35 = PRESENTATION_STYLE_ASSIGNMENT( ( #76 ) );
#36 = ADVANCED_FACE( '', ( #77, #78 ), #79, .T. );
#37 = PRESENTATION_STYLE_ASSIGNMENT( ( #80 ) );
#38 = ADVANCED_FACE( '', ( #81 ), #82, .T. );
#39 = PRESENTATION_STYLE_ASSIGNMENT( ( #83 ) );
#40 = ADVANCED_FACE( '', ( #84, #85 ), #86, .T. );
#41 = PRESENTATION_STYLE_ASSIGNMENT( ( #87 ) );
#42 = ADVANCED_FACE( '', ( #88 ), #89, .T. );
#43 = PRESENTATION_STYLE_ASSIGNMENT( ( #90 ) );
#44 = ADVANCED_FACE( '', ( #91 ), #92, .T. );
#45 = PRESENTATION_STYLE_ASSIGNMENT( ( #93 ) );
#46 = ADVANCED_FACE( '', ( #94 ), #95, .T. );
#47 = PRESENTATION_STYLE_ASSIGNMENT( ( #96 ) );
#48 = ADVANCED_FACE( '', ( #97, #98 ), #99, .T. );
#49 = PRESENTATION_STYLE_ASSIGNMENT( ( #100 ) );
#50 = ADVANCED_FACE( '', ( #101 ), #102, .T. );
#51 = PRESENTATION_STYLE_ASSIGNMENT( ( #103 ) );
#52 = ADVANCED_FACE( '', ( #104 ), #105, .T. );
#53 = PRESENTATION_STYLE_ASSIGNMENT( ( #106 ) );
#54 = ADVANCED_FACE( '', ( #107 ), #108, .T. );
#55 = PRESENTATION_STYLE_ASSIGNMENT( ( #109 ) );
#56 = ADVANCED_FACE( '', ( #110 ), #111, .T. );
#57 = PRESENTATION_STYLE_ASSIGNMENT( ( #112 ) );
#58 = ADVANCED_FACE( '', ( #113, #114 ), #115, .T. );
#59 = PRODUCT( '1', '1', 'PART-1-DESC', ( #116 ) );
#60 = PRODUCT_DEFINITION( 'NONE', 'NONE', #117, #2 );
#61 = MANIFOLD_SOLID_BREP( '1', #118 );
#62 = AXIS2_PLACEMENT_3D( '', #119, #120, #121 );
#65 = LENGTH_MEASURE_WITH_UNIT( LENGTH_MEASURE( 1.00000000000000 ), #122 );
#68 = DIMENSIONAL_EXPONENTS( 1.00000000000000, 0.000000000000000, 0.000000000000000, 0.000000000000000, 0.000000000000000, 0.000000000000000, 0.000000000000000 );
#70 = DIMENSIONAL_EXPONENTS( 0.000000000000000, 0.000000000000000, 0.000000000000000, 0.000000000000000, 0.000000000000000, 0.000000000000000, 0.000000000000000 );
#76 = SURFACE_STYLE_USAGE( .BOTH., #123 );
#77 = FACE_OUTER_BOUND( '', #124, .T. );
#78 = FACE_OUTER_BOUND( '', #125, .T. );
#79 = CYLINDRICAL_SURFACE( '', #126, 3.00000000000000 );
#80 = SURFACE_STYLE_USAGE( .BOTH., #127 );
#81 = FACE_OUTER_BOUND( '', #128, .T. );
#82 = PLANE( '', #129 );
#83 = SURFACE_STYLE_USAGE( .BOTH., #130 );
#84 = FACE_BOUND( '', #131, .T. );
#85 = FACE_OUTER_BOUND( '', #132, .T. );
#86 = CONICAL_SURFACE( '', #133, 3.00000000000000, 0.785398163397449 );
#87 = SURFACE_STYLE_USAGE( .BOTH., #134 );
#88 = FACE_OUTER_BOUND( '', #135, .T. );
#89 = PLANE( '', #136 );
#90 = SURFACE_STYLE_USAGE( .BOTH., #137 );
#91 = FACE_OUTER_BOUND( '', #138, .T. );
#92 = PLANE( '', #139 );
#93 = SURFACE_STYLE_USAGE( .BOTH., #140 );
#94 = FACE_OUTER_BOUND( '', #141, .T. );
#95 = PLANE( '', #142 );
#96 = SURFACE_STYLE_USAGE( .BOTH., #143 );
#97 = FACE_OUTER_BOUND( '', #144, .T. );
#98 = FACE_OUTER_BOUND( '', #145, .T. );
#99 = CYLINDRICAL_SURFACE( '', #146, 2.50000000000000 );
#100 = SURFACE_STYLE_USAGE( .BOTH., #147 );
#101 = FACE_OUTER_BOUND( '', #148, .T. );
#102 = CONICAL_SURFACE( '', #149, 2.50000000000000, 0.785398163397448 );
#103 = SURFACE_STYLE_USAGE( .BOTH., #150 );
#104 = FACE_OUTER_BOUND( '', #151, .T. );
#105 = PLANE( '', #152 );
#106 = SURFACE_STYLE_USAGE( .BOTH., #153 );
#107 = FACE_OUTER_BOUND( '', #154, .T. );
#108 = SPHERICAL_SURFACE( '', #155, 1.75000000000000 );
#109 = SURFACE_STYLE_USAGE( .BOTH., #156 );
#110 = FACE_OUTER_BOUND( '', #157, .T. );
#111 = CONICAL_SURFACE( '', #158, 2.50000000000000, 0.785398163397448 );
#112 = SURFACE_STYLE_USAGE( .BOTH., #159 );
#113 = FACE_BOUND( '', #160, .T. );
#114 = FACE_OUTER_BOUND( '', #161, .T. );
#115 = PLANE( '', #162 );
#116 = PRODUCT_CONTEXT( '', #22, 'mechanical' );
#117 = PRODUCT_DEFINITION_FORMATION_WITH_SPECIFIED_SOURCE( ' ', 'NONE', #59, .NOT_KNOWN. );
#118 = CLOSED_SHELL( '', ( #38, #50, #36, #42, #46, #52, #56, #44, #40, #48, #58, #54 ) );
#119 = CARTESIAN_POINT( '', ( 0.000000000000000, 0.000000000000000, 0.000000000000000 ) );
#120 = DIRECTION( '', ( 0.000000000000000, 0.000000000000000, 1.00000000000000 ) );
#121 = DIRECTION( '', ( 1.00000000000000, 0.000000000000000, 0.000000000000000 ) );
#122 =  ( LENGTH_UNIT(  )NAMED_UNIT( #68 )SI_UNIT( .MILLI., .METRE. ) );
#123 = SURFACE_SIDE_STYLE( '', ( #164 ) );
#124 = EDGE_LOOP( '', ( #165 ) );
#125 = EDGE_LOOP( '', ( #166, #167, #168, #169, #170, #171, #172, #173 ) );
#126 = AXIS2_PLACEMENT_3D( '', #174, #175, #176 );
#127 = SURFACE_SIDE_STYLE( '', ( #177 ) );
#128 = EDGE_LOOP( '', ( #178, #179 ) );
#129 = AXIS2_PLACEMENT_3D( '', #180, #181, #182 );
#130 = SURFACE_SIDE_STYLE( '', ( #183 ) );
#131 = EDGE_LOOP( '', ( #184 ) );
#132 = EDGE_LOOP( '', ( #185 ) );
#133 = AXIS2_PLACEMENT_3D( '', #186, #187, #188 );
#134 = SURFACE_SIDE_STYLE( '', ( #189 ) );
#135 = EDGE_LOOP( '', ( #190, #191, #192, #193 ) );
#136 = AXIS2_PLACEMENT_3D( '', #194, #195, #196 );
#137 = SURFACE_SIDE_STYLE( '', ( #197 ) );
#138 = EDGE_LOOP( '', ( #198, #199 ) );
#139 = AXIS2_PLACEMENT_3D( '', #200, #201, #202 );
#140 = SURFACE_SIDE_STYLE( '', ( #203 ) );
#141 = EDGE_LOOP( '', ( #204, #205, #206, #207, #208, #209 ) );
#142 = AXIS2_PLACEMENT_3D( '', #210, #211, #212 );
#143 = SURFACE_SIDE_STYLE( '', ( #213 ) );
#144 = EDGE_LOOP( '', ( #214 ) );
#145 = EDGE_LOOP( '', ( #215 ) );
#146 = AXIS2_PLACEMENT_3D( '', #216, #217, #218 );
#147 = SURFACE_SIDE_STYLE( '', ( #219 ) );
#148 = EDGE_LOOP( '', ( #220, #221, #222, #223 ) );
#149 = AXIS2_PLACEMENT_3D( '', #224, #225, #226 );
#150 = SURFACE_SIDE_STYLE( '', ( #227 ) );
#151 = EDGE_LOOP( '', ( #228, #229, #230, #231, #232, #233 ) );
#152 = AXIS2_PLACEMENT_3D( '', #234, #235, #236 );
#153 = SURFACE_SIDE_STYLE( '', ( #237 ) );
#154 = EDGE_LOOP( '', ( #238 ) );
#155 = AXIS2_PLACEMENT_3D( '', #239, #240, #241 );
#156 = SURFACE_SIDE_STYLE( '', ( #242 ) );
#157 = EDGE_LOOP( '', ( #243, #244, #245, #246 ) );
#158 = AXIS2_PLACEMENT_3D( '', #247, #248, #249 );
#159 = SURFACE_SIDE_STYLE( '', ( #250 ) );
#160 = EDGE_LOOP( '', ( #251 ) );
#161 = EDGE_LOOP( '', ( #252 ) );
#162 = AXIS2_PLACEMENT_3D( '', #253, #254, #255 );
#164 = SURFACE_STYLE_FILL_AREA( #256 );
#165 = ORIENTED_EDGE( '', *, *, #257, .T. );
#166 = ORIENTED_EDGE( '', *, *, #258, .T. );
#167 = ORIENTED_EDGE( '', *, *, #259, .T. );
#168 = ORIENTED_EDGE( '', *, *, #260, .T. );
#169 = ORIENTED_EDGE( '', *, *, #261, .T. );
#170 = ORIENTED_EDGE( '', *, *, #262, .T. );
#171 = ORIENTED_EDGE( '', *, *, #263, .T. );
#172 = ORIENTED_EDGE( '', *, *, #264, .T. );
#173 = ORIENTED_EDGE( '', *, *, #265, .T. );
#174 = CARTESIAN_POINT( '', ( 0.000000000000000, 0.000000000000000, 57.1500000000000 ) );
#175 = DIRECTION( '', ( -0.000000000000000, -0.000000000000000, -1.00000000000000 ) );
#176 = DIRECTION( '', ( 1.00000000000000, 0.000000000000000, 0.000000000000000 ) );
#177 = SURFACE_STYLE_FILL_AREA( #266 );
#178 = ORIENTED_EDGE( '', *, *, #267, .T. );
#179 = ORIENTED_EDGE( '', *, *, #268, .T. );
#180 = CARTESIAN_POINT( '', ( 0.000000000000000, 0.000000000000000, 15.0000000000000 ) );
#181 = DIRECTION( '', ( 0.000000000000000, 0.000000000000000, 1.00000000000000 ) );
#182 = DIRECTION( '', ( 1.00000000000000, 0.000000000000000, 0.000000000000000 ) );
#183 = SURFACE_STYLE_FILL_AREA( #269 );
#184 = ORIENTED_EDGE( '', *, *, #270, .T. );
#185 = ORIENTED_EDGE( '', *, *, #257, .F. );
#186 = CARTESIAN_POINT( '', ( 0.000000000000000, 0.000000000000000, 2.00000000000000 ) );
#187 = DIRECTION( '', ( -0.000000000000000, -0.000000000000000, 1.00000000000000 ) );
#188 = DIRECTION( '', ( 1.00000000000000, 0.000000000000000, 0.000000000000000 ) );
#189 = SURFACE_STYLE_FILL_AREA( #271 );
#190 = ORIENTED_EDGE( '', *, *, #272, .T. );
#191 = ORIENTED_EDGE( '', *, *, #261, .F. );
#192 = ORIENTED_EDGE( '', *, *, #273, .F. );
#193 = ORIENTED_EDGE( '', *, *, #265, .F. );
#194 = CARTESIAN_POINT( '', ( -0.500000000000000, -10.0000000000000, 14.0000000000000 ) );
#195 = DIRECTION( '', ( 0.000000000000000, 0.000000000000000, 1.00000000000000 ) );
#196 = DIRECTION( '', ( 1.00000000000000, 0.000000000000000, 0.000000000000000 ) );
#197 = SURFACE_STYLE_FILL_AREA( #274 );
#198 = ORIENTED_EDGE( '', *, *, #275, .F. );
#199 = ORIENTED_EDGE( '', *, *, #276, .T. );
#200 = CARTESIAN_POINT( '', ( 0.000000000000000, 0.000000000000000, 15.0000000000000 ) );
#201 = DIRECTION( '', ( 0.000000000000000, 0.000000000000000, 1.00000000000000 ) );
#202 = DIRECTION( '', ( 1.00000000000000, 0.000000000000000, 0.000000000000000 ) );
#203 = SURFACE_STYLE_FILL_AREA( #277 );
#204 = ORIENTED_EDGE( '', *, *, #275, .T. );
#205 = ORIENTED_EDGE( '', *, *, #278, .T. );
#206 = ORIENTED_EDGE( '', *, *, #262, .F. );
#207 = ORIENTED_EDGE( '', *, *, #272, .F. );
#208 = ORIENTED_EDGE( '', *, *, #264, .F. );
#209 = ORIENTED_EDGE( '', *, *, #279, .T. );
#210 = CARTESIAN_POINT( '', ( 0.500000000000000, -10.0000000000000, 14.0000000000000 ) );
#211 = DIRECTION( '', ( -1.00000000000000, 0.000000000000000, 1.08420217248550E-016 ) );
#212 = DIRECTION( '', ( 1.08420217248550E-016, 0.000000000000000, 1.00000000000000 ) );
#213 = SURFACE_STYLE_FILL_AREA( #280 );
#214 = ORIENTED_EDGE( '', *, *, #281, .T. );
#215 = ORIENTED_EDGE( '', *, *, #270, .F. );
#216 = CARTESIAN_POINT( '', ( 0.000000000000000, 0.000000000000000, 57.1500000000000 ) );
#217 = DIRECTION( '', ( -0.000000000000000, -0.000000000000000, -1.00000000000000 ) );
#218 = DIRECTION( '', ( 1.00000000000000, 0.000000000000000, 0.000000000000000 ) );
#219 = SURFACE_STYLE_FILL_AREA( #282 );
#220 = ORIENTED_EDGE( '', *, *, #279, .F. );
#221 = ORIENTED_EDGE( '', *, *, #263, .F. );
#222 = ORIENTED_EDGE( '', *, *, #278, .F. );
#223 = ORIENTED_EDGE( '', *, *, #276, .F. );
#224 = CARTESIAN_POINT( '', ( 0.000000000000000, 0.000000000000000, 15.0000000000000 ) );
#225 = DIRECTION( '', ( -0.000000000000000, 0.000000000000000, -1.00000000000000 ) );
#226 = DIRECTION( '', ( -1.00000000000000, 0.000000000000000, 0.000000000000000 ) );
#227 = SURFACE_STYLE_FILL_AREA( #283 );
#228 = ORIENTED_EDGE( '', *, *, #267, .F. );
#229 = ORIENTED_EDGE( '', *, *, #284, .T. );
#230 = ORIENTED_EDGE( '', *, *, #258, .F. );
#231 = ORIENTED_EDGE( '', *, *, #273, .T. );
#232 = ORIENTED_EDGE( '', *, *, #260, .F. );
#233 = ORIENTED_EDGE( '', *, *, #285, .T. );
#234 = CARTESIAN_POINT( '', ( -0.500000000000000, -10.0000000000000, 15.0000000000000 ) );
#235 = DIRECTION( '', ( 1.00000000000000, 0.000000000000000, 1.08420217248550E-016 ) );
#236 = DIRECTION( '', ( 1.08420217248550E-016, 0.000000000000000, -1.00000000000000 ) );
#237 = SURFACE_STYLE_FILL_AREA( #286 );
#238 = ORIENTED_EDGE( '', *, *, #287, .F. );
#239 = CARTESIAN_POINT( '', ( 0.000000000000000, 0.000000000000000, 1.75000000000000 ) );
#240 = DIRECTION( '', ( 0.000000000000000, 0.000000000000000, 1.00000000000000 ) );
#241 = DIRECTION( '', ( 1.00000000000000, 0.000000000000000, 0.000000000000000 ) );
#242 = SURFACE_STYLE_FILL_AREA( #288 );
#243 = ORIENTED_EDGE( '', *, *, #285, .F. );
#244 = ORIENTED_EDGE( '', *, *, #259, .F. );
#245 = ORIENTED_EDGE( '', *, *, #284, .F. );
#246 = ORIENTED_EDGE( '', *, *, #268, .F. );
#247 = CARTESIAN_POINT( '', ( 0.000000000000000, 0.000000000000000, 15.0000000000000 ) );
#248 = DIRECTION( '', ( -0.000000000000000, 0.000000000000000, -1.00000000000000 ) );
#249 = DIRECTION( '', ( -1.00000000000000, 0.000000000000000, 0.000000000000000 ) );
#250 = SURFACE_STYLE_FILL_AREA( #289 );
#251 = ORIENTED_EDGE( '', *, *, #287, .T. );
#252 = ORIENTED_EDGE( '', *, *, #281, .F. );
#253 = CARTESIAN_POINT( '', ( 1.58113883008419, 0.000000000000000, 1.00000000000000 ) );
#254 = DIRECTION( '', ( 0.000000000000000, 0.000000000000000, -1.00000000000000 ) );
#255 = DIRECTION( '', ( -1.00000000000000, 0.000000000000000, 0.000000000000000 ) );
#256 = FILL_AREA_STYLE( '', ( #290 ) );
#257 = EDGE_CURVE( '', #291, #291, #292, .T. );
#258 = EDGE_CURVE( '', #293, #294, #295, .T. );
#259 = EDGE_CURVE( '', #294, #296, #297, .F. );
#260 = EDGE_CURVE( '', #296, #298, #299, .F. );
#261 = EDGE_CURVE( '', #298, #300, #301, .F. );
#262 = EDGE_CURVE( '', #300, #302, #303, .T. );
#263 = EDGE_CURVE( '', #302, #304, #305, .F. );
#264 = EDGE_CURVE( '', #304, #306, #307, .F. );
#265 = EDGE_CURVE( '', #306, #293, #308, .F. );
#266 = FILL_AREA_STYLE( '', ( #309 ) );
#267 = EDGE_CURVE( '', #310, #311, #312, .T. );
#268 = EDGE_CURVE( '', #311, #310, #313, .T. );
#269 = FILL_AREA_STYLE( '', ( #314 ) );
#270 = EDGE_CURVE( '', #315, #315, #316, .T. );
#271 = FILL_AREA_STYLE( '', ( #317 ) );
#272 = EDGE_CURVE( '', #306, #300, #318, .T. );
#273 = EDGE_CURVE( '', #293, #298, #319, .T. );
#274 = FILL_AREA_STYLE( '', ( #320 ) );
#275 = EDGE_CURVE( '', #321, #322, #323, .T. );
#276 = EDGE_CURVE( '', #321, #322, #324, .T. );
#277 = FILL_AREA_STYLE( '', ( #325 ) );
#278 = EDGE_CURVE( '', #322, #302, #326, .T. );
#279 = EDGE_CURVE( '', #304, #321, #327, .T. );
#280 = FILL_AREA_STYLE( '', ( #328 ) );
#281 = EDGE_CURVE( '', #329, #329, #330, .T. );
#282 = FILL_AREA_STYLE( '', ( #331 ) );
#283 = FILL_AREA_STYLE( '', ( #332 ) );
#284 = EDGE_CURVE( '', #310, #294, #333, .T. );
#285 = EDGE_CURVE( '', #296, #311, #334, .T. );
#286 = FILL_AREA_STYLE( '', ( #335 ) );
#287 = EDGE_CURVE( '', #336, #336, #337, .T. );
#288 = FILL_AREA_STYLE( '', ( #338 ) );
#289 = FILL_AREA_STYLE( '', ( #339 ) );
#290 = FILL_AREA_STYLE_COLOUR( '', #340 );
#291 = VERTEX_POINT( '', #341 );
#292 = CIRCLE( '', #342, 3.00000000000000 );
#293 = VERTEX_POINT( '', #343 );
#294 = VERTEX_POINT( '', #344 );
#295 = LINE( '', #345, #346 );
#296 = VERTEX_POINT( '', #347 );
#297 = CIRCLE( '', #348, 3.00000000000000 );
#298 = VERTEX_POINT( '', #349 );
#299 = LINE( '', #350, #351 );
#300 = VERTEX_POINT( '', #352 );
#301 = CIRCLE( '', #353, 3.00000000000000 );
#302 = VERTEX_POINT( '', #354 );
#303 = LINE( '', #355, #356 );
#304 = VERTEX_POINT( '', #357 );
#305 = CIRCLE( '', #358, 3.00000000000000 );
#306 = VERTEX_POINT( '', #359 );
#307 = LINE( '', #360, #361 );
#308 = CIRCLE( '', #362, 3.00000000000000 );
#309 = FILL_AREA_STYLE_COLOUR( '', #363 );
#310 = VERTEX_POINT( '', #364 );
#311 = VERTEX_POINT( '', #365 );
#312 = LINE( '', #366, #367 );
#313 = CIRCLE( '', #368, 2.50000000000000 );
#314 = FILL_AREA_STYLE_COLOUR( '', #369 );
#315 = VERTEX_POINT( '', #370 );
#316 = CIRCLE( '', #371, 2.50000000000000 );
#317 = FILL_AREA_STYLE_COLOUR( '', #372 );
#318 = LINE( '', #373, #374 );
#319 = LINE( '', #375, #376 );
#320 = FILL_AREA_STYLE_COLOUR( '', #377 );
#321 = VERTEX_POINT( '', #378 );
#322 = VERTEX_POINT( '', #379 );
#323 = LINE( '', #380, #381 );
#324 = CIRCLE( '', #382, 2.50000000000000 );
#325 = FILL_AREA_STYLE_COLOUR( '', #383 );
#326 = B_SPLINE_CURVE_WITH_KNOTS( '', 3, ( #384, #385, #386, #387 ), .UNSPECIFIED., .F., .F., ( 4, 4 ), ( 0.000000000000000, 0.000713178276317051 ), .UNSPECIFIED. );
#327 = B_SPLINE_CURVE_WITH_KNOTS( '', 3, ( #388, #389, #390, #391 ), .UNSPECIFIED., .F., .F., ( 4, 4 ), ( 0.000000000000000, 0.000713178276317052 ), .UNSPECIFIED. );
#328 = FILL_AREA_STYLE_COLOUR( '', #392 );
#329 = VERTEX_POINT( '', #393 );
#330 = CIRCLE( '', #394, 2.50000000000000 );
#331 = FILL_AREA_STYLE_COLOUR( '', #395 );
#332 = FILL_AREA_STYLE_COLOUR( '', #396 );
#333 = B_SPLINE_CURVE_WITH_KNOTS( '', 3, ( #397, #398, #399, #400 ), .UNSPECIFIED., .F., .F., ( 4, 4 ), ( 0.000000000000000, 0.000713178276317051 ), .UNSPECIFIED. );
#334 = B_SPLINE_CURVE_WITH_KNOTS( '', 3, ( #401, #402, #403, #404 ), .UNSPECIFIED., .F., .F., ( 4, 4 ), ( 0.000000000000000, 0.000713178276317052 ), .UNSPECIFIED. );
#335 = FILL_AREA_STYLE_COLOUR( '', #405 );
#336 = VERTEX_POINT( '', #406 );
#337 = CIRCLE( '', #407, 1.58113883008419 );
#338 = FILL_AREA_STYLE_COLOUR( '', #408 );
#339 = FILL_AREA_STYLE_COLOUR( '', #409 );
#340 = COLOUR_RGB( '', 0.752941191196442, 0.752941191196442, 0.752941191196442 );
#341 = CARTESIAN_POINT( '', ( 3.00000000000000, 0.000000000000000, 2.00000000000000 ) );
#342 = AXIS2_PLACEMENT_3D( '', #410, #411, #412 );
#343 = CARTESIAN_POINT( '', ( -0.500000000000000, -2.95803989154981, 14.0000000000000 ) );
#344 = CARTESIAN_POINT( '', ( -0.500000000000000, -2.95803989154981, 14.5000000000000 ) );
#345 = CARTESIAN_POINT( '', ( -0.500000000000000, -2.95803989154981, 57.1500000000000 ) );
#346 = VECTOR( '', #413, 1000.00000000000 );
#347 = CARTESIAN_POINT( '', ( -0.500000000000000, 2.95803989154981, 14.5000000000000 ) );
#348 = AXIS2_PLACEMENT_3D( '', #414, #415, #416 );
#349 = CARTESIAN_POINT( '', ( -0.500000000000000, 2.95803989154981, 14.0000000000000 ) );
#350 = CARTESIAN_POINT( '', ( -0.500000000000000, 2.95803989154981, 57.1500000000000 ) );
#351 = VECTOR( '', #417, 1000.00000000000 );
#352 = CARTESIAN_POINT( '', ( 0.500000000000000, 2.95803989154981, 14.0000000000000 ) );
#353 = AXIS2_PLACEMENT_3D( '', #418, #419, #420 );
#354 = CARTESIAN_POINT( '', ( 0.500000000000000, 2.95803989154981, 14.5000000000000 ) );
#355 = CARTESIAN_POINT( '', ( 0.500000000000000, 2.95803989154981, 57.1500000000000 ) );
#356 = VECTOR( '', #421, 1000.00000000000 );
#357 = CARTESIAN_POINT( '', ( 0.500000000000000, -2.95803989154981, 14.5000000000000 ) );
#358 = AXIS2_PLACEMENT_3D( '', #422, #423, #424 );
#359 = CARTESIAN_POINT( '', ( 0.500000000000000, -2.95803989154981, 14.0000000000000 ) );
#360 = CARTESIAN_POINT( '', ( 0.500000000000000, -2.95803989154981, 57.1500000000000 ) );
#361 = VECTOR( '', #425, 1000.00000000000 );
#362 = AXIS2_PLACEMENT_3D( '', #426, #427, #428 );
#363 = COLOUR_RGB( '', 0.200000002980232, 0.200000002980232, 0.200000002980232 );
#364 = CARTESIAN_POINT( '', ( -0.500000000000000, -2.44948974278318, 15.0000000000000 ) );
#365 = CARTESIAN_POINT( '', ( -0.500000000000000, 2.44948974278318, 15.0000000000000 ) );
#366 = CARTESIAN_POINT( '', ( -0.500000000000000, -10.0000000000000, 15.0000000000000 ) );
#367 = VECTOR( '', #429, 1000.00000000000 );
#368 = AXIS2_PLACEMENT_3D( '', #430, #431, #432 );
#369 = COLOUR_RGB( '', 0.200000002980232, 0.200000002980232, 0.200000002980232 );
#370 = CARTESIAN_POINT( '', ( 2.50000000000000, 0.000000000000000, 1.50000000000000 ) );
#371 = AXIS2_PLACEMENT_3D( '', #433, #434, #435 );
#372 = COLOUR_RGB( '', 0.200000002980232, 0.200000002980232, 0.200000002980232 );
#373 = CARTESIAN_POINT( '', ( 0.500000000000000, -10.0000000000000, 14.0000000000000 ) );
#374 = VECTOR( '', #436, 1000.00000000000 );
#375 = CARTESIAN_POINT( '', ( -0.500000000000000, -10.0000000000000, 14.0000000000000 ) );
#376 = VECTOR( '', #437, 1000.00000000000 );
#377 = COLOUR_RGB( '', 0.200000002980232, 0.200000002980232, 0.200000002980232 );
#378 = CARTESIAN_POINT( '', ( 0.500000000000000, -2.44948974278318, 15.0000000000000 ) );
#379 = CARTESIAN_POINT( '', ( 0.500000000000000, 2.44948974278318, 15.0000000000000 ) );
#380 = CARTESIAN_POINT( '', ( 0.500000000000000, -10.0000000000000, 15.0000000000000 ) );
#381 = VECTOR( '', #438, 1000.00000000000 );
#382 = AXIS2_PLACEMENT_3D( '', #439, #440, #441 );
#383 = COLOUR_RGB( '', 0.200000002980232, 0.200000002980232, 0.200000002980232 );
#384 = CARTESIAN_POINT( '', ( 0.500000000000000, 2.44948974278318, 15.0000000000000 ) );
#385 = CARTESIAN_POINT( '', ( 0.500000000000000, 2.61929409428724, 14.8336263930843 ) );
#386 = CARTESIAN_POINT( '', ( 0.500000000000000, 2.78876251207873, 14.6669097470708 ) );
#387 = CARTESIAN_POINT( '', ( 0.500000000000000, 2.95803989154981, 14.5000000000000 ) );
#388 = CARTESIAN_POINT( '', ( 0.500000000000000, -2.95803989154981, 14.5000000000000 ) );
#389 = CARTESIAN_POINT( '', ( 0.500000000000000, -2.78876251207873, 14.6669097470708 ) );
#390 = CARTESIAN_POINT( '', ( 0.500000000000000, -2.61929409428724, 14.8336263930843 ) );
#391 = CARTESIAN_POINT( '', ( 0.500000000000000, -2.44948974278318, 15.0000000000000 ) );
#392 = COLOUR_RGB( '', 0.200000002980232, 0.200000002980232, 0.200000002980232 );
#393 = CARTESIAN_POINT( '', ( 2.50000000000000, 0.000000000000000, 1.00000000000000 ) );
#394 = AXIS2_PLACEMENT_3D( '', #442, #443, #444 );
#395 = COLOUR_RGB( '', 0.200000002980232, 0.200000002980232, 0.200000002980232 );
#396 = COLOUR_RGB( '', 0.200000002980232, 0.200000002980232, 0.200000002980232 );
#397 = CARTESIAN_POINT( '', ( -0.500000000000000, -2.44948974278318, 15.0000000000000 ) );
#398 = CARTESIAN_POINT( '', ( -0.500000000000000, -2.61929409428724, 14.8336263930843 ) );
#399 = CARTESIAN_POINT( '', ( -0.500000000000000, -2.78876251207873, 14.6669097470708 ) );
#400 = CARTESIAN_POINT( '', ( -0.500000000000000, -2.95803989154981, 14.5000000000000 ) );
#401 = CARTESIAN_POINT( '', ( -0.500000000000000, 2.95803989154981, 14.5000000000000 ) );
#402 = CARTESIAN_POINT( '', ( -0.500000000000000, 2.78876251207873, 14.6669097470708 ) );
#403 = CARTESIAN_POINT( '', ( -0.500000000000000, 2.61929409428724, 14.8336263930843 ) );
#404 = CARTESIAN_POINT( '', ( -0.500000000000000, 2.44948974278318, 15.0000000000000 ) );
#405 = COLOUR_RGB( '', 0.200000002980232, 0.200000002980232, 0.200000002980232 );
#406 = CARTESIAN_POINT( '', ( 1.58113883008419, 0.000000000000000, 1.00000000000000 ) );
#407 = AXIS2_PLACEMENT_3D( '', #445, #446, #447 );
#408 = COLOUR_RGB( '', 0.200000002980232, 0.200000002980232, 0.200000002980232 );
#409 = COLOUR_RGB( '', 0.200000002980232, 0.200000002980232, 0.200000002980232 );
#410 = CARTESIAN_POINT( '', ( 0.000000000000000, 0.000000000000000, 2.00000000000000 ) );
#411 = DIRECTION( '', ( 0.000000000000000, 0.000000000000000, 1.00000000000000 ) );
#412 = DIRECTION( '', ( 1.00000000000000, 0.000000000000000, 0.000000000000000 ) );
#413 = DIRECTION( '', ( 0.000000000000000, 0.000000000000000, 1.00000000000000 ) );
#414 = CARTESIAN_POINT( '', ( 0.000000000000000, 0.000000000000000, 14.5000000000000 ) );
#415 = DIRECTION( '', ( 0.000000000000000, 0.000000000000000, 1.00000000000000 ) );
#416 = DIRECTION( '', ( 1.00000000000000, 0.000000000000000, 0.000000000000000 ) );
#417 = DIRECTION( '', ( 0.000000000000000, 0.000000000000000, 1.00000000000000 ) );
#418 = CARTESIAN_POINT( '', ( 0.000000000000000, 0.000000000000000, 14.0000000000000 ) );
#419 = DIRECTION( '', ( 0.000000000000000, 0.000000000000000, 1.00000000000000 ) );
#420 = DIRECTION( '', ( 1.00000000000000, 0.000000000000000, 0.000000000000000 ) );
#421 = DIRECTION( '', ( 0.000000000000000, 0.000000000000000, 1.00000000000000 ) );
#422 = CARTESIAN_POINT( '', ( 0.000000000000000, 0.000000000000000, 14.5000000000000 ) );
#423 = DIRECTION( '', ( 0.000000000000000, 0.000000000000000, 1.00000000000000 ) );
#424 = DIRECTION( '', ( 1.00000000000000, 0.000000000000000, 0.000000000000000 ) );
#425 = DIRECTION( '', ( 0.000000000000000, 0.000000000000000, 1.00000000000000 ) );
#426 = CARTESIAN_POINT( '', ( 0.000000000000000, 0.000000000000000, 14.0000000000000 ) );
#427 = DIRECTION( '', ( 0.000000000000000, 0.000000000000000, 1.00000000000000 ) );
#428 = DIRECTION( '', ( 1.00000000000000, 0.000000000000000, 0.000000000000000 ) );
#429 = DIRECTION( '', ( 0.000000000000000, 1.00000000000000, 0.000000000000000 ) );
#430 = CARTESIAN_POINT( '', ( 0.000000000000000, 0.000000000000000, 15.0000000000000 ) );
#431 = DIRECTION( '', ( 0.000000000000000, 0.000000000000000, 1.00000000000000 ) );
#432 = DIRECTION( '', ( 1.00000000000000, 0.000000000000000, 0.000000000000000 ) );
#433 = CARTESIAN_POINT( '', ( 0.000000000000000, 0.000000000000000, 1.50000000000000 ) );
#434 = DIRECTION( '', ( 0.000000000000000, 0.000000000000000, 1.00000000000000 ) );
#435 = DIRECTION( '', ( 1.00000000000000, 0.000000000000000, 0.000000000000000 ) );
#436 = DIRECTION( '', ( 0.000000000000000, 1.00000000000000, 0.000000000000000 ) );
#437 = DIRECTION( '', ( 0.000000000000000, 1.00000000000000, 0.000000000000000 ) );
#438 = DIRECTION( '', ( 0.000000000000000, 1.00000000000000, 0.000000000000000 ) );
#439 = CARTESIAN_POINT( '', ( 0.000000000000000, 0.000000000000000, 15.0000000000000 ) );
#440 = DIRECTION( '', ( 0.000000000000000, 0.000000000000000, 1.00000000000000 ) );
#441 = DIRECTION( '', ( 1.00000000000000, 0.000000000000000, 0.000000000000000 ) );
#442 = CARTESIAN_POINT( '', ( 0.000000000000000, 0.000000000000000, 1.00000000000000 ) );
#443 = DIRECTION( '', ( 0.000000000000000, 0.000000000000000, 1.00000000000000 ) );
#444 = DIRECTION( '', ( 1.00000000000000, 0.000000000000000, 0.000000000000000 ) );
#445 = CARTESIAN_POINT( '', ( 0.000000000000000, 0.000000000000000, 1.00000000000000 ) );
#446 = DIRECTION( '', ( 0.000000000000000, 0.000000000000000, 1.00000000000000 ) );
#447 = DIRECTION( '', ( 1.00000000000000, 0.000000000000000, 0.000000000000000 ) );
ENDSEC;
END-ISO-10303-21;
