ISO-10303-21;
HEADER;
FILE_DESCRIPTION( ( 'Unknown' ), '1' );
FILE_NAME( '//SBS2003/HD_Usb/Disegni/08_LIB/Users_3D/PROD_GAMM_3D/APS-A/7747426_APS_16_AR.stp', 'Unknown', ( 'Unknown' ), ( 'Unknown' ), 'PSStep 14.0', 'Unknown', '  ' );
FILE_SCHEMA( ( 'AUTOMOTIVE_DESIGN { 1 0 10303 214 1 1 1 1 }' ) );
ENDSEC;
DATA;
#1 = MECHANICAL_DESIGN_GEOMETRIC_PRESENTATION_REPRESENTATION( ' ', ( #10, #11, #12, #13, #14, #15, #16, #17, #18, #19, #20, #21 ), #6 );
#2 = PRODUCT_DEFINITION_CONTEXT( '', #22, 'design' );
#3 = APPLICATION_PROTOCOL_DEFINITION( 'international standard', 'automotive_design', 2001, #22 );
#4 = PRODUCT_CATEGORY_RELATIONSHIP( 'NONE', 'NONE', #23, #24 );
#5 = SHAPE_DEFINITION_REPRESENTATION( #25, #26 );
#6 =  ( GEOMETRIC_REPRESENTATION_CONTEXT( 3 )GLOBAL_UNCERTAINTY_ASSIGNED_CONTEXT( ( #29 ) )GLOBAL_UNIT_ASSIGNED_CONTEXT( ( #31, #32, #33 ) )REPRESENTATION_CONTEXT( 'NONE', 'WORKSPACE' ) );
#10 = STYLED_ITEM( '', ( #35 ), #36 );
#11 = STYLED_ITEM( '', ( #37 ), #38 );
#12 = STYLED_ITEM( '', ( #39 ), #40 );
#13 = STYLED_ITEM( '', ( #41 ), #42 );
#14 = STYLED_ITEM( '', ( #43 ), #44 );
#15 = STYLED_ITEM( '', ( #45 ), #46 );
#16 = STYLED_ITEM( '', ( #47 ), #48 );
#17 = STYLED_ITEM( '', ( #49 ), #50 );
#18 = STYLED_ITEM( '', ( #51 ), #52 );
#19 = STYLED_ITEM( '', ( #53 ), #54 );
#20 = STYLED_ITEM( '', ( #55 ), #56 );
#21 = STYLED_ITEM( '', ( #57 ), #58 );
#22 = APPLICATION_CONTEXT( 'core data for automotive mechanical design processes' );
#23 = PRODUCT_CATEGORY( 'part', 'NONE' );
#24 = PRODUCT_RELATED_PRODUCT_CATEGORY( 'detail', ' ', ( #59 ) );
#25 = PRODUCT_DEFINITION_SHAPE( 'NONE', 'NONE', #60 );
#26 = ADVANCED_BREP_SHAPE_REPRESENTATION( '1', ( #61, #62 ), #6 );
#29 = UNCERTAINTY_MEASURE_WITH_UNIT( LENGTH_MEASURE( 0.00100000000000000 ), #31, '', '' );
#31 =  ( CONVERSION_BASED_UNIT( 'MILLIMETRE', #65 )LENGTH_UNIT(  )NAMED_UNIT( #68 ) );
#32 =  ( NAMED_UNIT( #70 )PLANE_ANGLE_UNIT(  )SI_UNIT( $, .RADIAN. ) );
#33 =  ( NAMED_UNIT( #70 )SI_UNIT( $, .STERADIAN. )SOLID_ANGLE_UNIT(  ) );
#35 = PRESENTATION_STYLE_ASSIGNMENT( ( #76 ) );
#36 = ADVANCED_FACE( '', ( #77 ), #78, .T. );
#37 = PRESENTATION_STYLE_ASSIGNMENT( ( #79 ) );
#38 = ADVANCED_FACE( '', ( #80 ), #81, .T. );
#39 = PRESENTATION_STYLE_ASSIGNMENT( ( #82 ) );
#40 = ADVANCED_FACE( '', ( #83, #84 ), #85, .T. );
#41 = PRESENTATION_STYLE_ASSIGNMENT( ( #86 ) );
#42 = ADVANCED_FACE( '', ( #87 ), #88, .T. );
#43 = PRESENTATION_STYLE_ASSIGNMENT( ( #89 ) );
#44 = ADVANCED_FACE( '', ( #90 ), #91, .T. );
#45 = PRESENTATION_STYLE_ASSIGNMENT( ( #92 ) );
#46 = ADVANCED_FACE( '', ( #93 ), #94, .T. );
#47 = PRESENTATION_STYLE_ASSIGNMENT( ( #95 ) );
#48 = ADVANCED_FACE( '', ( #96, #97 ), #98, .T. );
#49 = PRESENTATION_STYLE_ASSIGNMENT( ( #99 ) );
#50 = ADVANCED_FACE( '', ( #100 ), #101, .T. );
#51 = PRESENTATION_STYLE_ASSIGNMENT( ( #102 ) );
#52 = ADVANCED_FACE( '', ( #103 ), #104, .T. );
#53 = PRESENTATION_STYLE_ASSIGNMENT( ( #105 ) );
#54 = ADVANCED_FACE( '', ( #106, #107 ), #108, .T. );
#55 = PRESENTATION_STYLE_ASSIGNMENT( ( #109 ) );
#56 = ADVANCED_FACE( '', ( #110, #111 ), #112, .T. );
#57 = PRESENTATION_STYLE_ASSIGNMENT( ( #113 ) );
#58 = ADVANCED_FACE( '', ( #114 ), #115, .T. );
#59 = PRODUCT( '1', '1', 'PART-1-DESC', ( #116 ) );
#60 = PRODUCT_DEFINITION( 'NONE', 'NONE', #117, #2 );
#61 = MANIFOLD_SOLID_BREP( '1', #118 );
#62 = AXIS2_PLACEMENT_3D( '', #119, #120, #121 );
#65 = LENGTH_MEASURE_WITH_UNIT( LENGTH_MEASURE( 1.00000000000000 ), #122 );
#68 = DIMENSIONAL_EXPONENTS( 1.00000000000000, 0.000000000000000, 0.000000000000000, 0.000000000000000, 0.000000000000000, 0.000000000000000, 0.000000000000000 );
#70 = DIMENSIONAL_EXPONENTS( 0.000000000000000, 0.000000000000000, 0.000000000000000, 0.000000000000000, 0.000000000000000, 0.000000000000000, 0.000000000000000 );
#76 = SURFACE_STYLE_USAGE( .BOTH., #123 );
#77 = FACE_OUTER_BOUND( '', #124, .T. );
#78 = PLANE( '', #125 );
#79 = SURFACE_STYLE_USAGE( .BOTH., #126 );
#80 = FACE_OUTER_BOUND( '', #127, .T. );
#81 = PLANE( '', #128 );
#82 = SURFACE_STYLE_USAGE( .BOTH., #129 );
#83 = FACE_BOUND( '', #130, .T. );
#84 = FACE_OUTER_BOUND( '', #131, .T. );
#85 = PLANE( '', #132 );
#86 = SURFACE_STYLE_USAGE( .BOTH., #133 );
#87 = FACE_OUTER_BOUND( '', #134, .T. );
#88 = PLANE( '', #135 );
#89 = SURFACE_STYLE_USAGE( .BOTH., #136 );
#90 = FACE_OUTER_BOUND( '', #137, .T. );
#91 = PLANE( '', #138 );
#92 = SURFACE_STYLE_USAGE( .BOTH., #139 );
#93 = FACE_OUTER_BOUND( '', #140, .T. );
#94 = CONICAL_SURFACE( '', #141, 3.00000000000000, 0.785398163397448 );
#95 = SURFACE_STYLE_USAGE( .BOTH., #142 );
#96 = FACE_OUTER_BOUND( '', #143, .T. );
#97 = FACE_OUTER_BOUND( '', #144, .T. );
#98 = CYLINDRICAL_SURFACE( '', #145, 4.00000000000000 );
#99 = SURFACE_STYLE_USAGE( .BOTH., #146 );
#100 = FACE_OUTER_BOUND( '', #147, .T. );
#101 = CONICAL_SURFACE( '', #148, 3.00000000000000, 0.785398163397448 );
#102 = SURFACE_STYLE_USAGE( .BOTH., #149 );
#103 = FACE_OUTER_BOUND( '', #150, .T. );
#104 = SPHERICAL_SURFACE( '', #151, 2.50000000000000 );
#105 = SURFACE_STYLE_USAGE( .BOTH., #152 );
#106 = FACE_BOUND( '', #153, .T. );
#107 = FACE_OUTER_BOUND( '', #154, .T. );
#108 = CONICAL_SURFACE( '', #155, 4.00000000000000, 0.785398163397450 );
#109 = SURFACE_STYLE_USAGE( .BOTH., #156 );
#110 = FACE_OUTER_BOUND( '', #157, .T. );
#111 = FACE_OUTER_BOUND( '', #158, .T. );
#112 = CYLINDRICAL_SURFACE( '', #159, 3.50000000000000 );
#113 = SURFACE_STYLE_USAGE( .BOTH., #160 );
#114 = FACE_OUTER_BOUND( '', #161, .T. );
#115 = PLANE( '', #162 );
#116 = PRODUCT_CONTEXT( '', #22, 'mechanical' );
#117 = PRODUCT_DEFINITION_FORMATION_WITH_SPECIFIED_SOURCE( ' ', 'NONE', #59, .NOT_KNOWN. );
#118 = CLOSED_SHELL( '', ( #38, #46, #48, #42, #44, #36, #50, #58, #54, #56, #40, #52 ) );
#119 = CARTESIAN_POINT( '', ( 0.000000000000000, 0.000000000000000, 0.000000000000000 ) );
#120 = DIRECTION( '', ( 0.000000000000000, 0.000000000000000, 1.00000000000000 ) );
#121 = DIRECTION( '', ( 1.00000000000000, 0.000000000000000, 0.000000000000000 ) );
#122 =  ( LENGTH_UNIT(  )NAMED_UNIT( #68 )SI_UNIT( .MILLI., .METRE. ) );
#123 = SURFACE_SIDE_STYLE( '', ( #164 ) );
#124 = EDGE_LOOP( '', ( #165, #166, #167, #168, #169, #170 ) );
#125 = AXIS2_PLACEMENT_3D( '', #171, #172, #173 );
#126 = SURFACE_SIDE_STYLE( '', ( #174 ) );
#127 = EDGE_LOOP( '', ( #175, #176 ) );
#128 = AXIS2_PLACEMENT_3D( '', #177, #178, #179 );
#129 = SURFACE_SIDE_STYLE( '', ( #180 ) );
#130 = EDGE_LOOP( '', ( #181 ) );
#131 = EDGE_LOOP( '', ( #182 ) );
#132 = AXIS2_PLACEMENT_3D( '', #183, #184, #185 );
#133 = SURFACE_SIDE_STYLE( '', ( #186 ) );
#134 = EDGE_LOOP( '', ( #187, #188, #189, #190 ) );
#135 = AXIS2_PLACEMENT_3D( '', #191, #192, #193 );
#136 = SURFACE_SIDE_STYLE( '', ( #194 ) );
#137 = EDGE_LOOP( '', ( #195, #196, #197, #198, #199, #200 ) );
#138 = AXIS2_PLACEMENT_3D( '', #201, #202, #203 );
#139 = SURFACE_SIDE_STYLE( '', ( #204 ) );
#140 = EDGE_LOOP( '', ( #205, #206, #207, #208 ) );
#141 = AXIS2_PLACEMENT_3D( '', #209, #210, #211 );
#142 = SURFACE_SIDE_STYLE( '', ( #212 ) );
#143 = EDGE_LOOP( '', ( #213 ) );
#144 = EDGE_LOOP( '', ( #214, #215, #216, #217, #218, #219, #220, #221 ) );
#145 = AXIS2_PLACEMENT_3D( '', #222, #223, #224 );
#146 = SURFACE_SIDE_STYLE( '', ( #225 ) );
#147 = EDGE_LOOP( '', ( #226, #227, #228, #229 ) );
#148 = AXIS2_PLACEMENT_3D( '', #230, #231, #232 );
#149 = SURFACE_SIDE_STYLE( '', ( #233 ) );
#150 = EDGE_LOOP( '', ( #234 ) );
#151 = AXIS2_PLACEMENT_3D( '', #235, #236, #237 );
#152 = SURFACE_SIDE_STYLE( '', ( #238 ) );
#153 = EDGE_LOOP( '', ( #239 ) );
#154 = EDGE_LOOP( '', ( #240 ) );
#155 = AXIS2_PLACEMENT_3D( '', #241, #242, #243 );
#156 = SURFACE_SIDE_STYLE( '', ( #244 ) );
#157 = EDGE_LOOP( '', ( #245 ) );
#158 = EDGE_LOOP( '', ( #246 ) );
#159 = AXIS2_PLACEMENT_3D( '', #247, #248, #249 );
#160 = SURFACE_SIDE_STYLE( '', ( #250 ) );
#161 = EDGE_LOOP( '', ( #251, #252 ) );
#162 = AXIS2_PLACEMENT_3D( '', #253, #254, #255 );
#164 = SURFACE_STYLE_FILL_AREA( #256 );
#165 = ORIENTED_EDGE( '', *, *, #257, .F. );
#166 = ORIENTED_EDGE( '', *, *, #258, .T. );
#167 = ORIENTED_EDGE( '', *, *, #259, .F. );
#168 = ORIENTED_EDGE( '', *, *, #260, .T. );
#169 = ORIENTED_EDGE( '', *, *, #261, .F. );
#170 = ORIENTED_EDGE( '', *, *, #262, .T. );
#171 = CARTESIAN_POINT( '', ( -0.500000000000000, -10.0000000000000, 17.5000000000000 ) );
#172 = DIRECTION( '', ( 1.00000000000000, 0.000000000000000, 1.44560289664734E-016 ) );
#173 = DIRECTION( '', ( 1.44560289664734E-016, 0.000000000000000, -1.00000000000000 ) );
#174 = SURFACE_STYLE_FILL_AREA( #263 );
#175 = ORIENTED_EDGE( '', *, *, #257, .T. );
#176 = ORIENTED_EDGE( '', *, *, #264, .T. );
#177 = CARTESIAN_POINT( '', ( 0.000000000000000, 0.000000000000000, 17.5000000000000 ) );
#178 = DIRECTION( '', ( 0.000000000000000, 0.000000000000000, 1.00000000000000 ) );
#179 = DIRECTION( '', ( 1.00000000000000, 0.000000000000000, 0.000000000000000 ) );
#180 = SURFACE_STYLE_FILL_AREA( #265 );
#181 = ORIENTED_EDGE( '', *, *, #266, .T. );
#182 = ORIENTED_EDGE( '', *, *, #267, .F. );
#183 = CARTESIAN_POINT( '', ( 2.29128784747792, 0.000000000000000, 1.50000000000000 ) );
#184 = DIRECTION( '', ( 0.000000000000000, 0.000000000000000, -1.00000000000000 ) );
#185 = DIRECTION( '', ( -1.00000000000000, 0.000000000000000, 0.000000000000000 ) );
#186 = SURFACE_STYLE_FILL_AREA( #268 );
#187 = ORIENTED_EDGE( '', *, *, #269, .T. );
#188 = ORIENTED_EDGE( '', *, *, #270, .F. );
#189 = ORIENTED_EDGE( '', *, *, #260, .F. );
#190 = ORIENTED_EDGE( '', *, *, #271, .F. );
#191 = CARTESIAN_POINT( '', ( -0.500000000000000, -10.0000000000000, 16.0000000000000 ) );
#192 = DIRECTION( '', ( 0.000000000000000, 0.000000000000000, 1.00000000000000 ) );
#193 = DIRECTION( '', ( 1.00000000000000, 0.000000000000000, 0.000000000000000 ) );
#194 = SURFACE_STYLE_FILL_AREA( #272 );
#195 = ORIENTED_EDGE( '', *, *, #273, .T. );
#196 = ORIENTED_EDGE( '', *, *, #274, .T. );
#197 = ORIENTED_EDGE( '', *, *, #275, .F. );
#198 = ORIENTED_EDGE( '', *, *, #269, .F. );
#199 = ORIENTED_EDGE( '', *, *, #276, .F. );
#200 = ORIENTED_EDGE( '', *, *, #277, .T. );
#201 = CARTESIAN_POINT( '', ( 0.500000000000000, -10.0000000000000, 16.0000000000000 ) );
#202 = DIRECTION( '', ( -1.00000000000000, 0.000000000000000, -3.61400724161835E-016 ) );
#203 = DIRECTION( '', ( -3.61400724161835E-016, 0.000000000000000, 1.00000000000000 ) );
#204 = SURFACE_STYLE_FILL_AREA( #278 );
#205 = ORIENTED_EDGE( '', *, *, #277, .F. );
#206 = ORIENTED_EDGE( '', *, *, #279, .F. );
#207 = ORIENTED_EDGE( '', *, *, #274, .F. );
#208 = ORIENTED_EDGE( '', *, *, #280, .F. );
#209 = CARTESIAN_POINT( '', ( 0.000000000000000, 0.000000000000000, 17.5000000000000 ) );
#210 = DIRECTION( '', ( -0.000000000000000, 0.000000000000000, -1.00000000000000 ) );
#211 = DIRECTION( '', ( -1.00000000000000, 0.000000000000000, 0.000000000000000 ) );
#212 = SURFACE_STYLE_FILL_AREA( #281 );
#213 = ORIENTED_EDGE( '', *, *, #282, .T. );
#214 = ORIENTED_EDGE( '', *, *, #259, .T. );
#215 = ORIENTED_EDGE( '', *, *, #283, .T. );
#216 = ORIENTED_EDGE( '', *, *, #261, .T. );
#217 = ORIENTED_EDGE( '', *, *, #270, .T. );
#218 = ORIENTED_EDGE( '', *, *, #275, .T. );
#219 = ORIENTED_EDGE( '', *, *, #279, .T. );
#220 = ORIENTED_EDGE( '', *, *, #276, .T. );
#221 = ORIENTED_EDGE( '', *, *, #271, .T. );
#222 = CARTESIAN_POINT( '', ( 0.000000000000000, 0.000000000000000, 57.1500000000000 ) );
#223 = DIRECTION( '', ( -0.000000000000000, -0.000000000000000, -1.00000000000000 ) );
#224 = DIRECTION( '', ( 1.00000000000000, 0.000000000000000, 0.000000000000000 ) );
#225 = SURFACE_STYLE_FILL_AREA( #284 );
#226 = ORIENTED_EDGE( '', *, *, #262, .F. );
#227 = ORIENTED_EDGE( '', *, *, #283, .F. );
#228 = ORIENTED_EDGE( '', *, *, #258, .F. );
#229 = ORIENTED_EDGE( '', *, *, #264, .F. );
#230 = CARTESIAN_POINT( '', ( 0.000000000000000, 0.000000000000000, 17.5000000000000 ) );
#231 = DIRECTION( '', ( -0.000000000000000, 0.000000000000000, -1.00000000000000 ) );
#232 = DIRECTION( '', ( -1.00000000000000, 0.000000000000000, 0.000000000000000 ) );
#233 = SURFACE_STYLE_FILL_AREA( #285 );
#234 = ORIENTED_EDGE( '', *, *, #266, .F. );
#235 = CARTESIAN_POINT( '', ( 0.000000000000000, 0.000000000000000, 2.50000000000000 ) );
#236 = DIRECTION( '', ( 0.000000000000000, 0.000000000000000, 1.00000000000000 ) );
#237 = DIRECTION( '', ( 1.00000000000000, 0.000000000000000, 0.000000000000000 ) );
#238 = SURFACE_STYLE_FILL_AREA( #286 );
#239 = ORIENTED_EDGE( '', *, *, #287, .T. );
#240 = ORIENTED_EDGE( '', *, *, #282, .F. );
#241 = CARTESIAN_POINT( '', ( 0.000000000000000, 0.000000000000000, 2.80000000000000 ) );
#242 = DIRECTION( '', ( -0.000000000000000, -0.000000000000000, 1.00000000000000 ) );
#243 = DIRECTION( '', ( 1.00000000000000, 0.000000000000000, 0.000000000000000 ) );
#244 = SURFACE_STYLE_FILL_AREA( #288 );
#245 = ORIENTED_EDGE( '', *, *, #267, .T. );
#246 = ORIENTED_EDGE( '', *, *, #287, .F. );
#247 = CARTESIAN_POINT( '', ( 0.000000000000000, 0.000000000000000, 57.1500000000000 ) );
#248 = DIRECTION( '', ( -0.000000000000000, -0.000000000000000, -1.00000000000000 ) );
#249 = DIRECTION( '', ( 1.00000000000000, 0.000000000000000, 0.000000000000000 ) );
#250 = SURFACE_STYLE_FILL_AREA( #289 );
#251 = ORIENTED_EDGE( '', *, *, #273, .F. );
#252 = ORIENTED_EDGE( '', *, *, #280, .T. );
#253 = CARTESIAN_POINT( '', ( 0.000000000000000, 0.000000000000000, 17.5000000000000 ) );
#254 = DIRECTION( '', ( 0.000000000000000, 0.000000000000000, 1.00000000000000 ) );
#255 = DIRECTION( '', ( 1.00000000000000, 0.000000000000000, 0.000000000000000 ) );
#256 = FILL_AREA_STYLE( '', ( #290 ) );
#257 = EDGE_CURVE( '', #291, #292, #293, .T. );
#258 = EDGE_CURVE( '', #291, #294, #295, .T. );
#259 = EDGE_CURVE( '', #296, #294, #297, .T. );
#260 = EDGE_CURVE( '', #296, #298, #299, .T. );
#261 = EDGE_CURVE( '', #300, #298, #301, .F. );
#262 = EDGE_CURVE( '', #300, #292, #302, .T. );
#263 = FILL_AREA_STYLE( '', ( #303 ) );
#264 = EDGE_CURVE( '', #292, #291, #304, .T. );
#265 = FILL_AREA_STYLE( '', ( #305 ) );
#266 = EDGE_CURVE( '', #306, #306, #307, .T. );
#267 = EDGE_CURVE( '', #308, #308, #309, .T. );
#268 = FILL_AREA_STYLE( '', ( #310 ) );
#269 = EDGE_CURVE( '', #311, #312, #313, .T. );
#270 = EDGE_CURVE( '', #298, #312, #314, .F. );
#271 = EDGE_CURVE( '', #311, #296, #315, .F. );
#272 = FILL_AREA_STYLE( '', ( #316 ) );
#273 = EDGE_CURVE( '', #317, #318, #319, .T. );
#274 = EDGE_CURVE( '', #318, #320, #321, .T. );
#275 = EDGE_CURVE( '', #312, #320, #322, .T. );
#276 = EDGE_CURVE( '', #323, #311, #324, .F. );
#277 = EDGE_CURVE( '', #323, #317, #325, .T. );
#278 = FILL_AREA_STYLE( '', ( #326 ) );
#279 = EDGE_CURVE( '', #320, #323, #327, .F. );
#280 = EDGE_CURVE( '', #317, #318, #328, .T. );
#281 = FILL_AREA_STYLE( '', ( #329 ) );
#282 = EDGE_CURVE( '', #330, #330, #331, .T. );
#283 = EDGE_CURVE( '', #294, #300, #332, .F. );
#284 = FILL_AREA_STYLE( '', ( #333 ) );
#285 = FILL_AREA_STYLE( '', ( #334 ) );
#286 = FILL_AREA_STYLE( '', ( #335 ) );
#287 = EDGE_CURVE( '', #336, #336, #337, .T. );
#288 = FILL_AREA_STYLE( '', ( #338 ) );
#289 = FILL_AREA_STYLE( '', ( #339 ) );
#290 = FILL_AREA_STYLE_COLOUR( '', #340 );
#291 = VERTEX_POINT( '', #341 );
#292 = VERTEX_POINT( '', #342 );
#293 = LINE( '', #343, #344 );
#294 = VERTEX_POINT( '', #345 );
#295 = B_SPLINE_CURVE_WITH_KNOTS( '', 3, ( #346, #347, #348, #349 ), .UNSPECIFIED., .F., .F., ( 4, 4 ), ( 0.000000000000000, 0.00142171946468078 ), .UNSPECIFIED. );
#296 = VERTEX_POINT( '', #350 );
#297 = LINE( '', #351, #352 );
#298 = VERTEX_POINT( '', #353 );
#299 = LINE( '', #354, #355 );
#300 = VERTEX_POINT( '', #356 );
#301 = LINE( '', #357, #358 );
#302 = B_SPLINE_CURVE_WITH_KNOTS( '', 3, ( #359, #360, #361, #362 ), .UNSPECIFIED., .F., .F., ( 4, 4 ), ( 0.000000000000000, 0.00142171946468078 ), .UNSPECIFIED. );
#303 = FILL_AREA_STYLE_COLOUR( '', #363 );
#304 = CIRCLE( '', #364, 3.00000000000000 );
#305 = FILL_AREA_STYLE_COLOUR( '', #365 );
#306 = VERTEX_POINT( '', #366 );
#307 = CIRCLE( '', #367, 2.29128784747792 );
#308 = VERTEX_POINT( '', #368 );
#309 = CIRCLE( '', #369, 3.50000000000000 );
#310 = FILL_AREA_STYLE_COLOUR( '', #370 );
#311 = VERTEX_POINT( '', #371 );
#312 = VERTEX_POINT( '', #372 );
#313 = LINE( '', #373, #374 );
#314 = CIRCLE( '', #375, 4.00000000000000 );
#315 = CIRCLE( '', #376, 4.00000000000000 );
#316 = FILL_AREA_STYLE_COLOUR( '', #377 );
#317 = VERTEX_POINT( '', #378 );
#318 = VERTEX_POINT( '', #379 );
#319 = LINE( '', #380, #381 );
#320 = VERTEX_POINT( '', #382 );
#321 = B_SPLINE_CURVE_WITH_KNOTS( '', 3, ( #383, #384, #385, #386 ), .UNSPECIFIED., .F., .F., ( 4, 4 ), ( 0.000000000000000, 0.00142171946468078 ), .UNSPECIFIED. );
#322 = LINE( '', #387, #388 );
#323 = VERTEX_POINT( '', #389 );
#324 = LINE( '', #390, #391 );
#325 = B_SPLINE_CURVE_WITH_KNOTS( '', 3, ( #392, #393, #394, #395 ), .UNSPECIFIED., .F., .F., ( 4, 4 ), ( 0.000000000000000, 0.00142171946468078 ), .UNSPECIFIED. );
#326 = FILL_AREA_STYLE_COLOUR( '', #396 );
#327 = CIRCLE( '', #397, 4.00000000000000 );
#328 = CIRCLE( '', #398, 3.00000000000000 );
#329 = FILL_AREA_STYLE_COLOUR( '', #399 );
#330 = VERTEX_POINT( '', #400 );
#331 = CIRCLE( '', #401, 4.00000000000000 );
#332 = CIRCLE( '', #402, 4.00000000000000 );
#333 = FILL_AREA_STYLE_COLOUR( '', #403 );
#334 = FILL_AREA_STYLE_COLOUR( '', #404 );
#335 = FILL_AREA_STYLE_COLOUR( '', #405 );
#336 = VERTEX_POINT( '', #406 );
#337 = CIRCLE( '', #407, 3.50000000000000 );
#338 = FILL_AREA_STYLE_COLOUR( '', #408 );
#339 = FILL_AREA_STYLE_COLOUR( '', #409 );
#340 = COLOUR_RGB( '', 0.200000002980232, 0.200000002980232, 0.200000002980232 );
#341 = CARTESIAN_POINT( '', ( -0.500000000000000, -2.95803989154981, 17.5000000000000 ) );
#342 = CARTESIAN_POINT( '', ( -0.500000000000000, 2.95803989154981, 17.5000000000000 ) );
#343 = CARTESIAN_POINT( '', ( -0.500000000000000, -10.0000000000000, 17.5000000000000 ) );
#344 = VECTOR( '', #410, 1000.00000000000 );
#345 = CARTESIAN_POINT( '', ( -0.500000000000006, -3.96862696659689, 16.5000000000000 ) );
#346 = CARTESIAN_POINT( '', ( -0.500000000000000, -2.95803989154981, 17.5000000000000 ) );
#347 = CARTESIAN_POINT( '', ( -0.500000000000000, -3.29549400830588, 17.1672657536893 ) );
#348 = CARTESIAN_POINT( '', ( -0.500000000000000, -3.63220776085073, 16.8337805830013 ) );
#349 = CARTESIAN_POINT( '', ( -0.500000000000000, -3.96862696659689, 16.5000000000000 ) );
#350 = CARTESIAN_POINT( '', ( -0.500000000000000, -3.96862696659689, 16.0000000000000 ) );
#351 = CARTESIAN_POINT( '', ( -0.500000000000006, -3.96862696659689, 57.1500000000000 ) );
#352 = VECTOR( '', #411, 1000.00000000000 );
#353 = CARTESIAN_POINT( '', ( -0.500000000000000, 3.96862696659689, 16.0000000000000 ) );
#354 = CARTESIAN_POINT( '', ( -0.500000000000000, -10.0000000000000, 16.0000000000000 ) );
#355 = VECTOR( '', #412, 1000.00000000000 );
#356 = CARTESIAN_POINT( '', ( -0.500000000000006, 3.96862696659689, 16.5000000000000 ) );
#357 = CARTESIAN_POINT( '', ( -0.500000000000006, 3.96862696659689, 57.1500000000000 ) );
#358 = VECTOR( '', #413, 1000.00000000000 );
#359 = CARTESIAN_POINT( '', ( -0.500000000000006, 3.96862696659689, 16.5000000000000 ) );
#360 = CARTESIAN_POINT( '', ( -0.500000000000006, 3.63220776085073, 16.8337805830013 ) );
#361 = CARTESIAN_POINT( '', ( -0.500000000000000, 3.29549400830588, 17.1672657536893 ) );
#362 = CARTESIAN_POINT( '', ( -0.500000000000000, 2.95803989154981, 17.5000000000000 ) );
#363 = COLOUR_RGB( '', 0.200000002980232, 0.200000002980232, 0.200000002980232 );
#364 = AXIS2_PLACEMENT_3D( '', #414, #415, #416 );
#365 = COLOUR_RGB( '', 0.200000002980232, 0.200000002980232, 0.200000002980232 );
#366 = CARTESIAN_POINT( '', ( 2.29128784747792, 0.000000000000000, 1.50000000000000 ) );
#367 = AXIS2_PLACEMENT_3D( '', #417, #418, #419 );
#368 = CARTESIAN_POINT( '', ( 3.50000000000000, 0.000000000000000, 1.50000000000000 ) );
#369 = AXIS2_PLACEMENT_3D( '', #420, #421, #422 );
#370 = COLOUR_RGB( '', 0.200000002980232, 0.200000002980232, 0.200000002980232 );
#371 = CARTESIAN_POINT( '', ( 0.500000000000000, -3.96862696659689, 16.0000000000000 ) );
#372 = CARTESIAN_POINT( '', ( 0.500000000000000, 3.96862696659689, 16.0000000000000 ) );
#373 = CARTESIAN_POINT( '', ( 0.500000000000000, -10.0000000000000, 16.0000000000000 ) );
#374 = VECTOR( '', #423, 1000.00000000000 );
#375 = AXIS2_PLACEMENT_3D( '', #424, #425, #426 );
#376 = AXIS2_PLACEMENT_3D( '', #427, #428, #429 );
#377 = COLOUR_RGB( '', 0.200000002980232, 0.200000002980232, 0.200000002980232 );
#378 = CARTESIAN_POINT( '', ( 0.500000000000000, -2.95803989154981, 17.5000000000000 ) );
#379 = CARTESIAN_POINT( '', ( 0.500000000000000, 2.95803989154981, 17.5000000000000 ) );
#380 = CARTESIAN_POINT( '', ( 0.500000000000000, -10.0000000000000, 17.5000000000000 ) );
#381 = VECTOR( '', #430, 1000.00000000000 );
#382 = CARTESIAN_POINT( '', ( 0.499999999999985, 3.96862696659689, 16.5000000000000 ) );
#383 = CARTESIAN_POINT( '', ( 0.500000000000000, 2.95803989154981, 17.5000000000000 ) );
#384 = CARTESIAN_POINT( '', ( 0.500000000000000, 3.29549400830588, 17.1672657536893 ) );
#385 = CARTESIAN_POINT( '', ( 0.500000000000000, 3.63220776085073, 16.8337805830013 ) );
#386 = CARTESIAN_POINT( '', ( 0.500000000000000, 3.96862696659689, 16.5000000000000 ) );
#387 = CARTESIAN_POINT( '', ( 0.499999999999985, 3.96862696659689, 57.1500000000000 ) );
#388 = VECTOR( '', #431, 1000.00000000000 );
#389 = CARTESIAN_POINT( '', ( 0.499999999999985, -3.96862696659689, 16.5000000000000 ) );
#390 = CARTESIAN_POINT( '', ( 0.499999999999985, -3.96862696659689, 57.1500000000000 ) );
#391 = VECTOR( '', #432, 1000.00000000000 );
#392 = CARTESIAN_POINT( '', ( 0.499999999999985, -3.96862696659689, 16.5000000000000 ) );
#393 = CARTESIAN_POINT( '', ( 0.499999999999985, -3.63220776085073, 16.8337805830013 ) );
#394 = CARTESIAN_POINT( '', ( 0.500000000000000, -3.29549400830588, 17.1672657536893 ) );
#395 = CARTESIAN_POINT( '', ( 0.500000000000000, -2.95803989154981, 17.5000000000000 ) );
#396 = COLOUR_RGB( '', 0.200000002980232, 0.200000002980232, 0.200000002980232 );
#397 = AXIS2_PLACEMENT_3D( '', #433, #434, #435 );
#398 = AXIS2_PLACEMENT_3D( '', #436, #437, #438 );
#399 = COLOUR_RGB( '', 0.752941191196442, 0.752941191196442, 0.752941191196442 );
#400 = CARTESIAN_POINT( '', ( 4.00000000000000, 0.000000000000000, 2.80000000000000 ) );
#401 = AXIS2_PLACEMENT_3D( '', #439, #440, #441 );
#402 = AXIS2_PLACEMENT_3D( '', #442, #443, #444 );
#403 = COLOUR_RGB( '', 0.200000002980232, 0.200000002980232, 0.200000002980232 );
#404 = COLOUR_RGB( '', 0.200000002980232, 0.200000002980232, 0.200000002980232 );
#405 = COLOUR_RGB( '', 0.200000002980232, 0.200000002980232, 0.200000002980232 );
#406 = CARTESIAN_POINT( '', ( 3.50000000000000, 0.000000000000000, 2.30000000000000 ) );
#407 = AXIS2_PLACEMENT_3D( '', #445, #446, #447 );
#408 = COLOUR_RGB( '', 0.200000002980232, 0.200000002980232, 0.200000002980232 );
#409 = COLOUR_RGB( '', 0.200000002980232, 0.200000002980232, 0.200000002980232 );
#410 = DIRECTION( '', ( 0.000000000000000, 1.00000000000000, 0.000000000000000 ) );
#411 = DIRECTION( '', ( 0.000000000000000, 0.000000000000000, 1.00000000000000 ) );
#412 = DIRECTION( '', ( 0.000000000000000, 1.00000000000000, 0.000000000000000 ) );
#413 = DIRECTION( '', ( 0.000000000000000, 0.000000000000000, 1.00000000000000 ) );
#414 = CARTESIAN_POINT( '', ( 0.000000000000000, 0.000000000000000, 17.5000000000000 ) );
#415 = DIRECTION( '', ( 0.000000000000000, 0.000000000000000, 1.00000000000000 ) );
#416 = DIRECTION( '', ( 1.00000000000000, 0.000000000000000, 0.000000000000000 ) );
#417 = CARTESIAN_POINT( '', ( 0.000000000000000, 0.000000000000000, 1.50000000000000 ) );
#418 = DIRECTION( '', ( 0.000000000000000, 0.000000000000000, 1.00000000000000 ) );
#419 = DIRECTION( '', ( 1.00000000000000, 0.000000000000000, 0.000000000000000 ) );
#420 = CARTESIAN_POINT( '', ( 0.000000000000000, 0.000000000000000, 1.50000000000000 ) );
#421 = DIRECTION( '', ( 0.000000000000000, 0.000000000000000, 1.00000000000000 ) );
#422 = DIRECTION( '', ( 1.00000000000000, 0.000000000000000, 0.000000000000000 ) );
#423 = DIRECTION( '', ( 0.000000000000000, 1.00000000000000, 0.000000000000000 ) );
#424 = CARTESIAN_POINT( '', ( 0.000000000000000, 0.000000000000000, 16.0000000000000 ) );
#425 = DIRECTION( '', ( 0.000000000000000, 0.000000000000000, 1.00000000000000 ) );
#426 = DIRECTION( '', ( 1.00000000000000, 0.000000000000000, 0.000000000000000 ) );
#427 = CARTESIAN_POINT( '', ( 0.000000000000000, 0.000000000000000, 16.0000000000000 ) );
#428 = DIRECTION( '', ( 0.000000000000000, 0.000000000000000, 1.00000000000000 ) );
#429 = DIRECTION( '', ( 1.00000000000000, 0.000000000000000, 0.000000000000000 ) );
#430 = DIRECTION( '', ( 0.000000000000000, 1.00000000000000, 0.000000000000000 ) );
#431 = DIRECTION( '', ( 0.000000000000000, 0.000000000000000, 1.00000000000000 ) );
#432 = DIRECTION( '', ( 0.000000000000000, 0.000000000000000, 1.00000000000000 ) );
#433 = CARTESIAN_POINT( '', ( 0.000000000000000, 0.000000000000000, 16.5000000000000 ) );
#434 = DIRECTION( '', ( 0.000000000000000, 0.000000000000000, 1.00000000000000 ) );
#435 = DIRECTION( '', ( 1.00000000000000, 0.000000000000000, 0.000000000000000 ) );
#436 = CARTESIAN_POINT( '', ( 0.000000000000000, 0.000000000000000, 17.5000000000000 ) );
#437 = DIRECTION( '', ( 0.000000000000000, 0.000000000000000, 1.00000000000000 ) );
#438 = DIRECTION( '', ( 1.00000000000000, 0.000000000000000, 0.000000000000000 ) );
#439 = CARTESIAN_POINT( '', ( 0.000000000000000, 0.000000000000000, 2.80000000000000 ) );
#440 = DIRECTION( '', ( 0.000000000000000, 0.000000000000000, 1.00000000000000 ) );
#441 = DIRECTION( '', ( 1.00000000000000, 0.000000000000000, 0.000000000000000 ) );
#442 = CARTESIAN_POINT( '', ( 0.000000000000000, 0.000000000000000, 16.5000000000000 ) );
#443 = DIRECTION( '', ( 0.000000000000000, 0.000000000000000, 1.00000000000000 ) );
#444 = DIRECTION( '', ( 1.00000000000000, 0.000000000000000, 0.000000000000000 ) );
#445 = CARTESIAN_POINT( '', ( 0.000000000000000, 0.000000000000000, 2.30000000000000 ) );
#446 = DIRECTION( '', ( 0.000000000000000, 0.000000000000000, 1.00000000000000 ) );
#447 = DIRECTION( '', ( 1.00000000000000, 0.000000000000000, 0.000000000000000 ) );
ENDSEC;
END-ISO-10303-21;
