ISO-10303-21;
HEADER;
FILE_DESCRIPTION( ( 'Unknown' ), '1' );
FILE_NAME( '//SBS2003/HD_Usb/Disegni/08_LIB/Users_3D/PROD_GAMM_3D/APS-A/7747430_APS_19_A.stp', 'Unknown', ( 'Unknown' ), ( 'Unknown' ), 'PSStep 14.0', 'Unknown', '  ' );
FILE_SCHEMA( ( 'AUTOMOTIVE_DESIGN { 1 0 10303 214 1 1 1 1 }' ) );
ENDSEC;
DATA;
#1 = MECHANICAL_DESIGN_GEOMETRIC_PRESENTATION_REPRESENTATION( ' ', ( #10, #11, #12, #13, #14, #15, #16, #17, #18, #19, #20, #21 ), #6 );
#2 = PRODUCT_DEFINITION_CONTEXT( '', #22, 'design' );
#3 = APPLICATION_PROTOCOL_DEFINITION( 'international standard', 'automotive_design', 2001, #22 );
#4 = PRODUCT_CATEGORY_RELATIONSHIP( 'NONE', 'NONE', #23, #24 );
#5 = SHAPE_DEFINITION_REPRESENTATION( #25, #26 );
#6 =  ( GEOMETRIC_REPRESENTATION_CONTEXT( 3 )GLOBAL_UNCERTAINTY_ASSIGNED_CONTEXT( ( #29 ) )GLOBAL_UNIT_ASSIGNED_CONTEXT( ( #31, #32, #33 ) )REPRESENTATION_CONTEXT( 'NONE', 'WORKSPACE' ) );
#10 = STYLED_ITEM( '', ( #35 ), #36 );
#11 = STYLED_ITEM( '', ( #37 ), #38 );
#12 = STYLED_ITEM( '', ( #39 ), #40 );
#13 = STYLED_ITEM( '', ( #41 ), #42 );
#14 = STYLED_ITEM( '', ( #43 ), #44 );
#15 = STYLED_ITEM( '', ( #45 ), #46 );
#16 = STYLED_ITEM( '', ( #47 ), #48 );
#17 = STYLED_ITEM( '', ( #49 ), #50 );
#18 = STYLED_ITEM( '', ( #51 ), #52 );
#19 = STYLED_ITEM( '', ( #53 ), #54 );
#20 = STYLED_ITEM( '', ( #55 ), #56 );
#21 = STYLED_ITEM( '', ( #57 ), #58 );
#22 = APPLICATION_CONTEXT( 'core data for automotive mechanical design processes' );
#23 = PRODUCT_CATEGORY( 'part', 'NONE' );
#24 = PRODUCT_RELATED_PRODUCT_CATEGORY( 'detail', ' ', ( #59 ) );
#25 = PRODUCT_DEFINITION_SHAPE( 'NONE', 'NONE', #60 );
#26 = ADVANCED_BREP_SHAPE_REPRESENTATION( '1', ( #61, #62 ), #6 );
#29 = UNCERTAINTY_MEASURE_WITH_UNIT( LENGTH_MEASURE( 0.00100000000000000 ), #31, '', '' );
#31 =  ( CONVERSION_BASED_UNIT( 'MILLIMETRE', #65 )LENGTH_UNIT(  )NAMED_UNIT( #68 ) );
#32 =  ( NAMED_UNIT( #70 )PLANE_ANGLE_UNIT(  )SI_UNIT( $, .RADIAN. ) );
#33 =  ( NAMED_UNIT( #70 )SI_UNIT( $, .STERADIAN. )SOLID_ANGLE_UNIT(  ) );
#35 = PRESENTATION_STYLE_ASSIGNMENT( ( #76 ) );
#36 = ADVANCED_FACE( '', ( #77 ), #78, .T. );
#37 = PRESENTATION_STYLE_ASSIGNMENT( ( #79 ) );
#38 = ADVANCED_FACE( '', ( #80, #81 ), #82, .T. );
#39 = PRESENTATION_STYLE_ASSIGNMENT( ( #83 ) );
#40 = ADVANCED_FACE( '', ( #84 ), #85, .T. );
#41 = PRESENTATION_STYLE_ASSIGNMENT( ( #86 ) );
#42 = ADVANCED_FACE( '', ( #87, #88 ), #89, .T. );
#43 = PRESENTATION_STYLE_ASSIGNMENT( ( #90 ) );
#44 = ADVANCED_FACE( '', ( #91 ), #92, .T. );
#45 = PRESENTATION_STYLE_ASSIGNMENT( ( #93 ) );
#46 = ADVANCED_FACE( '', ( #94, #95 ), #96, .T. );
#47 = PRESENTATION_STYLE_ASSIGNMENT( ( #97 ) );
#48 = ADVANCED_FACE( '', ( #98 ), #99, .T. );
#49 = PRESENTATION_STYLE_ASSIGNMENT( ( #100 ) );
#50 = ADVANCED_FACE( '', ( #101 ), #102, .T. );
#51 = PRESENTATION_STYLE_ASSIGNMENT( ( #103 ) );
#52 = ADVANCED_FACE( '', ( #104, #105 ), #106, .T. );
#53 = PRESENTATION_STYLE_ASSIGNMENT( ( #107 ) );
#54 = ADVANCED_FACE( '', ( #108 ), #109, .T. );
#55 = PRESENTATION_STYLE_ASSIGNMENT( ( #110 ) );
#56 = ADVANCED_FACE( '', ( #111 ), #112, .T. );
#57 = PRESENTATION_STYLE_ASSIGNMENT( ( #113 ) );
#58 = ADVANCED_FACE( '', ( #114 ), #115, .T. );
#59 = PRODUCT( '1', '1', 'PART-1-DESC', ( #116 ) );
#60 = PRODUCT_DEFINITION( 'NONE', 'NONE', #117, #2 );
#61 = MANIFOLD_SOLID_BREP( '1', #118 );
#62 = AXIS2_PLACEMENT_3D( '', #119, #120, #121 );
#65 = LENGTH_MEASURE_WITH_UNIT( LENGTH_MEASURE( 1.00000000000000 ), #122 );
#68 = DIMENSIONAL_EXPONENTS( 1.00000000000000, 0.000000000000000, 0.000000000000000, 0.000000000000000, 0.000000000000000, 0.000000000000000, 0.000000000000000 );
#70 = DIMENSIONAL_EXPONENTS( 0.000000000000000, 0.000000000000000, 0.000000000000000, 0.000000000000000, 0.000000000000000, 0.000000000000000, 0.000000000000000 );
#76 = SURFACE_STYLE_USAGE( .BOTH., #123 );
#77 = FACE_OUTER_BOUND( '', #124, .T. );
#78 = CONICAL_SURFACE( '', #125, 4.00000000000000, 0.785398163397448 );
#79 = SURFACE_STYLE_USAGE( .BOTH., #126 );
#80 = FACE_OUTER_BOUND( '', #127, .T. );
#81 = FACE_OUTER_BOUND( '', #128, .T. );
#82 = CYLINDRICAL_SURFACE( '', #129, 4.50000000000000 );
#83 = SURFACE_STYLE_USAGE( .BOTH., #130 );
#84 = FACE_OUTER_BOUND( '', #131, .T. );
#85 = CONICAL_SURFACE( '', #132, 4.00000000000000, 0.785398163397448 );
#86 = SURFACE_STYLE_USAGE( .BOTH., #133 );
#87 = FACE_BOUND( '', #134, .T. );
#88 = FACE_OUTER_BOUND( '', #135, .T. );
#89 = PLANE( '', #136 );
#90 = SURFACE_STYLE_USAGE( .BOTH., #137 );
#91 = FACE_OUTER_BOUND( '', #138, .T. );
#92 = SPHERICAL_SURFACE( '', #139, 3.00000000000000 );
#93 = SURFACE_STYLE_USAGE( .BOTH., #140 );
#94 = FACE_BOUND( '', #141, .T. );
#95 = FACE_OUTER_BOUND( '', #142, .T. );
#96 = CONICAL_SURFACE( '', #143, 5.00000000000000, 0.785398163397442 );
#97 = SURFACE_STYLE_USAGE( .BOTH., #144 );
#98 = FACE_OUTER_BOUND( '', #145, .T. );
#99 = PLANE( '', #146 );
#100 = SURFACE_STYLE_USAGE( .BOTH., #147 );
#101 = FACE_OUTER_BOUND( '', #148, .T. );
#102 = PLANE( '', #149 );
#103 = SURFACE_STYLE_USAGE( .BOTH., #150 );
#104 = FACE_OUTER_BOUND( '', #151, .T. );
#105 = FACE_OUTER_BOUND( '', #152, .T. );
#106 = CYLINDRICAL_SURFACE( '', #153, 5.00000000000000 );
#107 = SURFACE_STYLE_USAGE( .BOTH., #154 );
#108 = FACE_OUTER_BOUND( '', #155, .T. );
#109 = PLANE( '', #156 );
#110 = SURFACE_STYLE_USAGE( .BOTH., #157 );
#111 = FACE_OUTER_BOUND( '', #158, .T. );
#112 = PLANE( '', #159 );
#113 = SURFACE_STYLE_USAGE( .BOTH., #160 );
#114 = FACE_OUTER_BOUND( '', #161, .T. );
#115 = PLANE( '', #162 );
#116 = PRODUCT_CONTEXT( '', #22, 'mechanical' );
#117 = PRODUCT_DEFINITION_FORMATION_WITH_SPECIFIED_SOURCE( ' ', 'NONE', #59, .NOT_KNOWN. );
#118 = CLOSED_SHELL( '', ( #58, #36, #52, #56, #54, #48, #40, #50, #46, #38, #42, #44 ) );
#119 = CARTESIAN_POINT( '', ( 0.000000000000000, 0.000000000000000, 0.000000000000000 ) );
#120 = DIRECTION( '', ( 0.000000000000000, 0.000000000000000, 1.00000000000000 ) );
#121 = DIRECTION( '', ( 1.00000000000000, 0.000000000000000, 0.000000000000000 ) );
#122 =  ( LENGTH_UNIT(  )NAMED_UNIT( #68 )SI_UNIT( .MILLI., .METRE. ) );
#123 = SURFACE_SIDE_STYLE( '', ( #164 ) );
#124 = EDGE_LOOP( '', ( #165, #166, #167, #168 ) );
#125 = AXIS2_PLACEMENT_3D( '', #169, #170, #171 );
#126 = SURFACE_SIDE_STYLE( '', ( #172 ) );
#127 = EDGE_LOOP( '', ( #173 ) );
#128 = EDGE_LOOP( '', ( #174 ) );
#129 = AXIS2_PLACEMENT_3D( '', #175, #176, #177 );
#130 = SURFACE_SIDE_STYLE( '', ( #178 ) );
#131 = EDGE_LOOP( '', ( #179, #180, #181, #182 ) );
#132 = AXIS2_PLACEMENT_3D( '', #183, #184, #185 );
#133 = SURFACE_SIDE_STYLE( '', ( #186 ) );
#134 = EDGE_LOOP( '', ( #187 ) );
#135 = EDGE_LOOP( '', ( #188 ) );
#136 = AXIS2_PLACEMENT_3D( '', #189, #190, #191 );
#137 = SURFACE_SIDE_STYLE( '', ( #192 ) );
#138 = EDGE_LOOP( '', ( #193 ) );
#139 = AXIS2_PLACEMENT_3D( '', #194, #195, #196 );
#140 = SURFACE_SIDE_STYLE( '', ( #197 ) );
#141 = EDGE_LOOP( '', ( #198 ) );
#142 = EDGE_LOOP( '', ( #199 ) );
#143 = AXIS2_PLACEMENT_3D( '', #200, #201, #202 );
#144 = SURFACE_SIDE_STYLE( '', ( #203 ) );
#145 = EDGE_LOOP( '', ( #204, #205, #206, #207, #208, #209 ) );
#146 = AXIS2_PLACEMENT_3D( '', #210, #211, #212 );
#147 = SURFACE_SIDE_STYLE( '', ( #213 ) );
#148 = EDGE_LOOP( '', ( #214, #215 ) );
#149 = AXIS2_PLACEMENT_3D( '', #216, #217, #218 );
#150 = SURFACE_SIDE_STYLE( '', ( #219 ) );
#151 = EDGE_LOOP( '', ( #220 ) );
#152 = EDGE_LOOP( '', ( #221, #222, #223, #224, #225, #226, #227, #228 ) );
#153 = AXIS2_PLACEMENT_3D( '', #229, #230, #231 );
#154 = SURFACE_SIDE_STYLE( '', ( #232 ) );
#155 = EDGE_LOOP( '', ( #233, #234, #235, #236, #237, #238 ) );
#156 = AXIS2_PLACEMENT_3D( '', #239, #240, #241 );
#157 = SURFACE_SIDE_STYLE( '', ( #242 ) );
#158 = EDGE_LOOP( '', ( #243, #244, #245, #246 ) );
#159 = AXIS2_PLACEMENT_3D( '', #247, #248, #249 );
#160 = SURFACE_SIDE_STYLE( '', ( #250 ) );
#161 = EDGE_LOOP( '', ( #251, #252 ) );
#162 = AXIS2_PLACEMENT_3D( '', #253, #254, #255 );
#164 = SURFACE_STYLE_FILL_AREA( #256 );
#165 = ORIENTED_EDGE( '', *, *, #257, .F. );
#166 = ORIENTED_EDGE( '', *, *, #258, .F. );
#167 = ORIENTED_EDGE( '', *, *, #259, .F. );
#168 = ORIENTED_EDGE( '', *, *, #260, .F. );
#169 = CARTESIAN_POINT( '', ( 0.000000000000000, 0.000000000000000, 21.0000000000000 ) );
#170 = DIRECTION( '', ( -0.000000000000000, 0.000000000000000, -1.00000000000000 ) );
#171 = DIRECTION( '', ( -1.00000000000000, 0.000000000000000, 0.000000000000000 ) );
#172 = SURFACE_STYLE_FILL_AREA( #261 );
#173 = ORIENTED_EDGE( '', *, *, #262, .T. );
#174 = ORIENTED_EDGE( '', *, *, #263, .F. );
#175 = CARTESIAN_POINT( '', ( 0.000000000000000, 0.000000000000000, 57.1500000000000 ) );
#176 = DIRECTION( '', ( -0.000000000000000, -0.000000000000000, -1.00000000000000 ) );
#177 = DIRECTION( '', ( 1.00000000000000, 0.000000000000000, 0.000000000000000 ) );
#178 = SURFACE_STYLE_FILL_AREA( #264 );
#179 = ORIENTED_EDGE( '', *, *, #265, .F. );
#180 = ORIENTED_EDGE( '', *, *, #266, .F. );
#181 = ORIENTED_EDGE( '', *, *, #267, .F. );
#182 = ORIENTED_EDGE( '', *, *, #268, .F. );
#183 = CARTESIAN_POINT( '', ( 0.000000000000000, 0.000000000000000, 21.0000000000000 ) );
#184 = DIRECTION( '', ( -0.000000000000000, 0.000000000000000, -1.00000000000000 ) );
#185 = DIRECTION( '', ( -1.00000000000000, 0.000000000000000, 0.000000000000000 ) );
#186 = SURFACE_STYLE_FILL_AREA( #269 );
#187 = ORIENTED_EDGE( '', *, *, #270, .T. );
#188 = ORIENTED_EDGE( '', *, *, #262, .F. );
#189 = CARTESIAN_POINT( '', ( 2.82842712474619, 0.000000000000000, 2.00000000000000 ) );
#190 = DIRECTION( '', ( 0.000000000000000, 0.000000000000000, -1.00000000000000 ) );
#191 = DIRECTION( '', ( -1.00000000000000, 0.000000000000000, 0.000000000000000 ) );
#192 = SURFACE_STYLE_FILL_AREA( #271 );
#193 = ORIENTED_EDGE( '', *, *, #270, .F. );
#194 = CARTESIAN_POINT( '', ( 0.000000000000000, 0.000000000000000, 3.00000000000000 ) );
#195 = DIRECTION( '', ( 0.000000000000000, 0.000000000000000, 1.00000000000000 ) );
#196 = DIRECTION( '', ( 1.00000000000000, 0.000000000000000, 0.000000000000000 ) );
#197 = SURFACE_STYLE_FILL_AREA( #272 );
#198 = ORIENTED_EDGE( '', *, *, #263, .T. );
#199 = ORIENTED_EDGE( '', *, *, #273, .F. );
#200 = CARTESIAN_POINT( '', ( 0.000000000000000, 0.000000000000000, 3.30000000000000 ) );
#201 = DIRECTION( '', ( -0.000000000000000, -0.000000000000000, 1.00000000000000 ) );
#202 = DIRECTION( '', ( 1.00000000000000, 0.000000000000000, 0.000000000000000 ) );
#203 = SURFACE_STYLE_FILL_AREA( #274 );
#204 = ORIENTED_EDGE( '', *, *, #275, .F. );
#205 = ORIENTED_EDGE( '', *, *, #267, .T. );
#206 = ORIENTED_EDGE( '', *, *, #276, .F. );
#207 = ORIENTED_EDGE( '', *, *, #277, .T. );
#208 = ORIENTED_EDGE( '', *, *, #278, .F. );
#209 = ORIENTED_EDGE( '', *, *, #265, .T. );
#210 = CARTESIAN_POINT( '', ( -0.500000000000000, -10.0000000000000, 21.0000000000000 ) );
#211 = DIRECTION( '', ( 1.00000000000000, 0.000000000000000, 1.44560289664734E-016 ) );
#212 = DIRECTION( '', ( 1.44560289664734E-016, 0.000000000000000, -1.00000000000000 ) );
#213 = SURFACE_STYLE_FILL_AREA( #279 );
#214 = ORIENTED_EDGE( '', *, *, #280, .F. );
#215 = ORIENTED_EDGE( '', *, *, #260, .T. );
#216 = CARTESIAN_POINT( '', ( 0.000000000000000, 0.000000000000000, 21.0000000000000 ) );
#217 = DIRECTION( '', ( 0.000000000000000, 0.000000000000000, 1.00000000000000 ) );
#218 = DIRECTION( '', ( 1.00000000000000, 0.000000000000000, 0.000000000000000 ) );
#219 = SURFACE_STYLE_FILL_AREA( #281 );
#220 = ORIENTED_EDGE( '', *, *, #273, .T. );
#221 = ORIENTED_EDGE( '', *, *, #276, .T. );
#222 = ORIENTED_EDGE( '', *, *, #266, .T. );
#223 = ORIENTED_EDGE( '', *, *, #278, .T. );
#224 = ORIENTED_EDGE( '', *, *, #282, .T. );
#225 = ORIENTED_EDGE( '', *, *, #283, .T. );
#226 = ORIENTED_EDGE( '', *, *, #258, .T. );
#227 = ORIENTED_EDGE( '', *, *, #284, .T. );
#228 = ORIENTED_EDGE( '', *, *, #285, .T. );
#229 = CARTESIAN_POINT( '', ( 0.000000000000000, 0.000000000000000, 57.1500000000000 ) );
#230 = DIRECTION( '', ( -0.000000000000000, -0.000000000000000, -1.00000000000000 ) );
#231 = DIRECTION( '', ( 1.00000000000000, 0.000000000000000, 0.000000000000000 ) );
#232 = SURFACE_STYLE_FILL_AREA( #286 );
#233 = ORIENTED_EDGE( '', *, *, #280, .T. );
#234 = ORIENTED_EDGE( '', *, *, #259, .T. );
#235 = ORIENTED_EDGE( '', *, *, #283, .F. );
#236 = ORIENTED_EDGE( '', *, *, #287, .F. );
#237 = ORIENTED_EDGE( '', *, *, #284, .F. );
#238 = ORIENTED_EDGE( '', *, *, #257, .T. );
#239 = CARTESIAN_POINT( '', ( 0.500000000000000, -10.0000000000000, 19.5000000000000 ) );
#240 = DIRECTION( '', ( -1.00000000000000, 0.000000000000000, 1.44560289664734E-016 ) );
#241 = DIRECTION( '', ( 1.44560289664734E-016, 0.000000000000000, 1.00000000000000 ) );
#242 = SURFACE_STYLE_FILL_AREA( #288 );
#243 = ORIENTED_EDGE( '', *, *, #287, .T. );
#244 = ORIENTED_EDGE( '', *, *, #282, .F. );
#245 = ORIENTED_EDGE( '', *, *, #277, .F. );
#246 = ORIENTED_EDGE( '', *, *, #285, .F. );
#247 = CARTESIAN_POINT( '', ( -0.500000000000000, -10.0000000000000, 19.5000000000000 ) );
#248 = DIRECTION( '', ( 0.000000000000000, 0.000000000000000, 1.00000000000000 ) );
#249 = DIRECTION( '', ( 1.00000000000000, 0.000000000000000, 0.000000000000000 ) );
#250 = SURFACE_STYLE_FILL_AREA( #289 );
#251 = ORIENTED_EDGE( '', *, *, #275, .T. );
#252 = ORIENTED_EDGE( '', *, *, #268, .T. );
#253 = CARTESIAN_POINT( '', ( 0.000000000000000, 0.000000000000000, 21.0000000000000 ) );
#254 = DIRECTION( '', ( 0.000000000000000, 0.000000000000000, 1.00000000000000 ) );
#255 = DIRECTION( '', ( 1.00000000000000, 0.000000000000000, 0.000000000000000 ) );
#256 = FILL_AREA_STYLE( '', ( #290 ) );
#257 = EDGE_CURVE( '', #291, #292, #293, .T. );
#258 = EDGE_CURVE( '', #294, #291, #295, .F. );
#259 = EDGE_CURVE( '', #296, #294, #297, .T. );
#260 = EDGE_CURVE( '', #292, #296, #298, .T. );
#261 = FILL_AREA_STYLE( '', ( #299 ) );
#262 = EDGE_CURVE( '', #300, #300, #301, .T. );
#263 = EDGE_CURVE( '', #302, #302, #303, .T. );
#264 = FILL_AREA_STYLE( '', ( #304 ) );
#265 = EDGE_CURVE( '', #305, #306, #307, .T. );
#266 = EDGE_CURVE( '', #308, #305, #309, .F. );
#267 = EDGE_CURVE( '', #310, #308, #311, .T. );
#268 = EDGE_CURVE( '', #306, #310, #312, .T. );
#269 = FILL_AREA_STYLE( '', ( #313 ) );
#270 = EDGE_CURVE( '', #314, #314, #315, .T. );
#271 = FILL_AREA_STYLE( '', ( #316 ) );
#272 = FILL_AREA_STYLE( '', ( #317 ) );
#273 = EDGE_CURVE( '', #318, #318, #319, .T. );
#274 = FILL_AREA_STYLE( '', ( #320 ) );
#275 = EDGE_CURVE( '', #310, #306, #321, .T. );
#276 = EDGE_CURVE( '', #322, #308, #323, .T. );
#277 = EDGE_CURVE( '', #322, #324, #325, .T. );
#278 = EDGE_CURVE( '', #305, #324, #326, .F. );
#279 = FILL_AREA_STYLE( '', ( #327 ) );
#280 = EDGE_CURVE( '', #292, #296, #328, .T. );
#281 = FILL_AREA_STYLE( '', ( #329 ) );
#282 = EDGE_CURVE( '', #324, #330, #331, .F. );
#283 = EDGE_CURVE( '', #330, #294, #332, .T. );
#284 = EDGE_CURVE( '', #291, #333, #334, .F. );
#285 = EDGE_CURVE( '', #333, #322, #335, .F. );
#286 = FILL_AREA_STYLE( '', ( #336 ) );
#287 = EDGE_CURVE( '', #333, #330, #337, .T. );
#288 = FILL_AREA_STYLE( '', ( #338 ) );
#289 = FILL_AREA_STYLE( '', ( #339 ) );
#290 = FILL_AREA_STYLE_COLOUR( '', #340 );
#291 = VERTEX_POINT( '', #341 );
#292 = VERTEX_POINT( '', #342 );
#293 = B_SPLINE_CURVE_WITH_KNOTS( '', 3, ( #343, #344, #345, #346 ), .UNSPECIFIED., .F., .F., ( 4, 4 ), ( 0.000000000000000, 0.00141868257786421 ), .UNSPECIFIED. );
#294 = VERTEX_POINT( '', #347 );
#295 = CIRCLE( '', #348, 5.00000000000000 );
#296 = VERTEX_POINT( '', #349 );
#297 = B_SPLINE_CURVE_WITH_KNOTS( '', 3, ( #350, #351, #352, #353 ), .UNSPECIFIED., .F., .F., ( 4, 4 ), ( 0.000000000000000, 0.00141868257786421 ), .UNSPECIFIED. );
#298 = CIRCLE( '', #354, 4.00000000000000 );
#299 = FILL_AREA_STYLE_COLOUR( '', #355 );
#300 = VERTEX_POINT( '', #356 );
#301 = CIRCLE( '', #357, 4.50000000000000 );
#302 = VERTEX_POINT( '', #358 );
#303 = CIRCLE( '', #359, 4.50000000000000 );
#304 = FILL_AREA_STYLE_COLOUR( '', #360 );
#305 = VERTEX_POINT( '', #361 );
#306 = VERTEX_POINT( '', #362 );
#307 = B_SPLINE_CURVE_WITH_KNOTS( '', 3, ( #363, #364, #365, #366 ), .UNSPECIFIED., .F., .F., ( 4, 4 ), ( 0.000000000000000, 0.00141868257786421 ), .UNSPECIFIED. );
#308 = VERTEX_POINT( '', #367 );
#309 = CIRCLE( '', #368, 5.00000000000000 );
#310 = VERTEX_POINT( '', #369 );
#311 = B_SPLINE_CURVE_WITH_KNOTS( '', 3, ( #370, #371, #372, #373 ), .UNSPECIFIED., .F., .F., ( 4, 4 ), ( 0.000000000000000, 0.00141868257786421 ), .UNSPECIFIED. );
#312 = CIRCLE( '', #374, 4.00000000000000 );
#313 = FILL_AREA_STYLE_COLOUR( '', #375 );
#314 = VERTEX_POINT( '', #376 );
#315 = CIRCLE( '', #377, 2.82842712474619 );
#316 = FILL_AREA_STYLE_COLOUR( '', #378 );
#317 = FILL_AREA_STYLE_COLOUR( '', #379 );
#318 = VERTEX_POINT( '', #380 );
#319 = CIRCLE( '', #381, 5.00000000000000 );
#320 = FILL_AREA_STYLE_COLOUR( '', #382 );
#321 = LINE( '', #383, #384 );
#322 = VERTEX_POINT( '', #385 );
#323 = LINE( '', #386, #387 );
#324 = VERTEX_POINT( '', #388 );
#325 = LINE( '', #389, #390 );
#326 = LINE( '', #391, #392 );
#327 = FILL_AREA_STYLE_COLOUR( '', #393 );
#328 = LINE( '', #394, #395 );
#329 = FILL_AREA_STYLE_COLOUR( '', #396 );
#330 = VERTEX_POINT( '', #397 );
#331 = CIRCLE( '', #398, 5.00000000000000 );
#332 = LINE( '', #399, #400 );
#333 = VERTEX_POINT( '', #401 );
#334 = LINE( '', #402, #403 );
#335 = CIRCLE( '', #404, 5.00000000000000 );
#336 = FILL_AREA_STYLE_COLOUR( '', #405 );
#337 = LINE( '', #406, #407 );
#338 = FILL_AREA_STYLE_COLOUR( '', #408 );
#339 = FILL_AREA_STYLE_COLOUR( '', #409 );
#340 = COLOUR_RGB( '', 0.200000002980232, 0.200000002980232, 0.200000002980232 );
#341 = CARTESIAN_POINT( '', ( 0.500000000000000, -4.97493718553310, 20.0000000000000 ) );
#342 = CARTESIAN_POINT( '', ( 0.500000000000000, -3.96862696659689, 21.0000000000000 ) );
#343 = CARTESIAN_POINT( '', ( 0.500000000000000, -4.97493718553310, 20.0000000000000 ) );
#344 = CARTESIAN_POINT( '', ( 0.500000000000000, -4.63971138042619, 20.3335454646753 ) );
#345 = CARTESIAN_POINT( '', ( 0.500000000000000, -4.30432755866703, 20.6669323944020 ) );
#346 = CARTESIAN_POINT( '', ( 0.500000000000000, -3.96862696659689, 21.0000000000000 ) );
#347 = CARTESIAN_POINT( '', ( 0.500000000000000, 4.97493718553310, 20.0000000000000 ) );
#348 = AXIS2_PLACEMENT_3D( '', #410, #411, #412 );
#349 = CARTESIAN_POINT( '', ( 0.500000000000000, 3.96862696659689, 21.0000000000000 ) );
#350 = CARTESIAN_POINT( '', ( 0.500000000000000, 3.96862696659689, 21.0000000000000 ) );
#351 = CARTESIAN_POINT( '', ( 0.500000000000000, 4.30432755866703, 20.6669323944020 ) );
#352 = CARTESIAN_POINT( '', ( 0.500000000000000, 4.63971138042619, 20.3335454646753 ) );
#353 = CARTESIAN_POINT( '', ( 0.500000000000000, 4.97493718553310, 20.0000000000000 ) );
#354 = AXIS2_PLACEMENT_3D( '', #413, #414, #415 );
#355 = COLOUR_RGB( '', 0.200000002980232, 0.200000002980232, 0.200000002980232 );
#356 = CARTESIAN_POINT( '', ( 4.50000000000000, 0.000000000000000, 2.00000000000000 ) );
#357 = AXIS2_PLACEMENT_3D( '', #416, #417, #418 );
#358 = CARTESIAN_POINT( '', ( 4.50000000000000, 0.000000000000000, 2.80000000000000 ) );
#359 = AXIS2_PLACEMENT_3D( '', #419, #420, #421 );
#360 = COLOUR_RGB( '', 0.200000002980232, 0.200000002980232, 0.200000002980232 );
#361 = CARTESIAN_POINT( '', ( -0.500000000000006, 4.97493718553310, 20.0000000000000 ) );
#362 = CARTESIAN_POINT( '', ( -0.500000000000000, 3.96862696659689, 21.0000000000000 ) );
#363 = CARTESIAN_POINT( '', ( -0.500000000000006, 4.97493718553310, 20.0000000000000 ) );
#364 = CARTESIAN_POINT( '', ( -0.500000000000006, 4.63971138042619, 20.3335454646753 ) );
#365 = CARTESIAN_POINT( '', ( -0.500000000000000, 4.30432755866703, 20.6669323944020 ) );
#366 = CARTESIAN_POINT( '', ( -0.500000000000000, 3.96862696659689, 21.0000000000000 ) );
#367 = CARTESIAN_POINT( '', ( -0.500000000000006, -4.97493718553310, 20.0000000000000 ) );
#368 = AXIS2_PLACEMENT_3D( '', #422, #423, #424 );
#369 = CARTESIAN_POINT( '', ( -0.500000000000000, -3.96862696659689, 21.0000000000000 ) );
#370 = CARTESIAN_POINT( '', ( -0.500000000000000, -3.96862696659689, 21.0000000000000 ) );
#371 = CARTESIAN_POINT( '', ( -0.500000000000000, -4.30432755866703, 20.6669323944020 ) );
#372 = CARTESIAN_POINT( '', ( -0.500000000000000, -4.63971138042619, 20.3335454646753 ) );
#373 = CARTESIAN_POINT( '', ( -0.500000000000000, -4.97493718553310, 20.0000000000000 ) );
#374 = AXIS2_PLACEMENT_3D( '', #425, #426, #427 );
#375 = COLOUR_RGB( '', 0.200000002980232, 0.200000002980232, 0.200000002980232 );
#376 = CARTESIAN_POINT( '', ( 2.82842712474619, 0.000000000000000, 2.00000000000000 ) );
#377 = AXIS2_PLACEMENT_3D( '', #428, #429, #430 );
#378 = COLOUR_RGB( '', 0.200000002980232, 0.200000002980232, 0.200000002980232 );
#379 = COLOUR_RGB( '', 0.200000002980232, 0.200000002980232, 0.200000002980232 );
#380 = CARTESIAN_POINT( '', ( 5.00000000000000, 0.000000000000000, 3.30000000000000 ) );
#381 = AXIS2_PLACEMENT_3D( '', #431, #432, #433 );
#382 = COLOUR_RGB( '', 0.200000002980232, 0.200000002980232, 0.200000002980232 );
#383 = CARTESIAN_POINT( '', ( -0.500000000000000, -10.0000000000000, 21.0000000000000 ) );
#384 = VECTOR( '', #434, 1000.00000000000 );
#385 = CARTESIAN_POINT( '', ( -0.500000000000000, -4.97493718553310, 19.5000000000000 ) );
#386 = CARTESIAN_POINT( '', ( -0.500000000000006, -4.97493718553310, 57.1500000000000 ) );
#387 = VECTOR( '', #435, 1000.00000000000 );
#388 = CARTESIAN_POINT( '', ( -0.500000000000000, 4.97493718553310, 19.5000000000000 ) );
#389 = CARTESIAN_POINT( '', ( -0.500000000000000, -10.0000000000000, 19.5000000000000 ) );
#390 = VECTOR( '', #436, 1000.00000000000 );
#391 = CARTESIAN_POINT( '', ( -0.500000000000006, 4.97493718553310, 57.1500000000000 ) );
#392 = VECTOR( '', #437, 1000.00000000000 );
#393 = COLOUR_RGB( '', 0.200000002980232, 0.200000002980232, 0.200000002980232 );
#394 = CARTESIAN_POINT( '', ( 0.500000000000000, -10.0000000000000, 21.0000000000000 ) );
#395 = VECTOR( '', #438, 1000.00000000000 );
#396 = COLOUR_RGB( '', 0.752941191196442, 0.752941191196442, 0.752941191196442 );
#397 = CARTESIAN_POINT( '', ( 0.500000000000000, 4.97493718553310, 19.5000000000000 ) );
#398 = AXIS2_PLACEMENT_3D( '', #439, #440, #441 );
#399 = CARTESIAN_POINT( '', ( 0.500000000000000, 4.97493718553310, 57.1500000000000 ) );
#400 = VECTOR( '', #442, 1000.00000000000 );
#401 = CARTESIAN_POINT( '', ( 0.500000000000000, -4.97493718553310, 19.5000000000000 ) );
#402 = CARTESIAN_POINT( '', ( 0.500000000000000, -4.97493718553310, 57.1500000000000 ) );
#403 = VECTOR( '', #443, 1000.00000000000 );
#404 = AXIS2_PLACEMENT_3D( '', #444, #445, #446 );
#405 = COLOUR_RGB( '', 0.200000002980232, 0.200000002980232, 0.200000002980232 );
#406 = CARTESIAN_POINT( '', ( 0.500000000000000, -10.0000000000000, 19.5000000000000 ) );
#407 = VECTOR( '', #447, 1000.00000000000 );
#408 = COLOUR_RGB( '', 0.200000002980232, 0.200000002980232, 0.200000002980232 );
#409 = COLOUR_RGB( '', 0.200000002980232, 0.200000002980232, 0.200000002980232 );
#410 = CARTESIAN_POINT( '', ( 0.000000000000000, 0.000000000000000, 20.0000000000000 ) );
#411 = DIRECTION( '', ( 0.000000000000000, 0.000000000000000, 1.00000000000000 ) );
#412 = DIRECTION( '', ( 1.00000000000000, 0.000000000000000, 0.000000000000000 ) );
#413 = CARTESIAN_POINT( '', ( 0.000000000000000, 0.000000000000000, 21.0000000000000 ) );
#414 = DIRECTION( '', ( 0.000000000000000, 0.000000000000000, 1.00000000000000 ) );
#415 = DIRECTION( '', ( 1.00000000000000, 0.000000000000000, 0.000000000000000 ) );
#416 = CARTESIAN_POINT( '', ( 0.000000000000000, 0.000000000000000, 2.00000000000000 ) );
#417 = DIRECTION( '', ( 0.000000000000000, 0.000000000000000, 1.00000000000000 ) );
#418 = DIRECTION( '', ( 1.00000000000000, 0.000000000000000, 0.000000000000000 ) );
#419 = CARTESIAN_POINT( '', ( 0.000000000000000, 0.000000000000000, 2.80000000000000 ) );
#420 = DIRECTION( '', ( 0.000000000000000, 0.000000000000000, 1.00000000000000 ) );
#421 = DIRECTION( '', ( 1.00000000000000, 0.000000000000000, 0.000000000000000 ) );
#422 = CARTESIAN_POINT( '', ( 0.000000000000000, 0.000000000000000, 20.0000000000000 ) );
#423 = DIRECTION( '', ( 0.000000000000000, 0.000000000000000, 1.00000000000000 ) );
#424 = DIRECTION( '', ( 1.00000000000000, 0.000000000000000, 0.000000000000000 ) );
#425 = CARTESIAN_POINT( '', ( 0.000000000000000, 0.000000000000000, 21.0000000000000 ) );
#426 = DIRECTION( '', ( 0.000000000000000, 0.000000000000000, 1.00000000000000 ) );
#427 = DIRECTION( '', ( 1.00000000000000, 0.000000000000000, 0.000000000000000 ) );
#428 = CARTESIAN_POINT( '', ( 0.000000000000000, 0.000000000000000, 2.00000000000000 ) );
#429 = DIRECTION( '', ( 0.000000000000000, 0.000000000000000, 1.00000000000000 ) );
#430 = DIRECTION( '', ( 1.00000000000000, 0.000000000000000, 0.000000000000000 ) );
#431 = CARTESIAN_POINT( '', ( 0.000000000000000, 0.000000000000000, 3.30000000000000 ) );
#432 = DIRECTION( '', ( 0.000000000000000, 0.000000000000000, 1.00000000000000 ) );
#433 = DIRECTION( '', ( 1.00000000000000, 0.000000000000000, 0.000000000000000 ) );
#434 = DIRECTION( '', ( 0.000000000000000, 1.00000000000000, 0.000000000000000 ) );
#435 = DIRECTION( '', ( 0.000000000000000, 0.000000000000000, 1.00000000000000 ) );
#436 = DIRECTION( '', ( 0.000000000000000, 1.00000000000000, 0.000000000000000 ) );
#437 = DIRECTION( '', ( 0.000000000000000, 0.000000000000000, 1.00000000000000 ) );
#438 = DIRECTION( '', ( 0.000000000000000, 1.00000000000000, 0.000000000000000 ) );
#439 = CARTESIAN_POINT( '', ( 0.000000000000000, 0.000000000000000, 19.5000000000000 ) );
#440 = DIRECTION( '', ( 0.000000000000000, 0.000000000000000, 1.00000000000000 ) );
#441 = DIRECTION( '', ( 1.00000000000000, 0.000000000000000, 0.000000000000000 ) );
#442 = DIRECTION( '', ( 0.000000000000000, 0.000000000000000, 1.00000000000000 ) );
#443 = DIRECTION( '', ( 0.000000000000000, 0.000000000000000, 1.00000000000000 ) );
#444 = CARTESIAN_POINT( '', ( 0.000000000000000, 0.000000000000000, 19.5000000000000 ) );
#445 = DIRECTION( '', ( 0.000000000000000, 0.000000000000000, 1.00000000000000 ) );
#446 = DIRECTION( '', ( 1.00000000000000, 0.000000000000000, 0.000000000000000 ) );
#447 = DIRECTION( '', ( 0.000000000000000, 1.00000000000000, 0.000000000000000 ) );
ENDSEC;
END-ISO-10303-21;
