ISO-10303-21;
HEADER;
FILE_DESCRIPTION( ( 'Unknown' ), '1' );
FILE_NAME( '//SBS2003/HD_Usb/Disegni/08_LIB/Users_3D/PROD_GAMM_3D/APS-A/7747436_APS_22_AR.stp', 'Unknown', ( 'Unknown' ), ( 'Unknown' ), 'PSStep 14.0', 'Unknown', '  ' );
FILE_SCHEMA( ( 'AUTOMOTIVE_DESIGN { 1 0 10303 214 1 1 1 1 }' ) );
ENDSEC;
DATA;
#1 = MECHANICAL_DESIGN_GEOMETRIC_PRESENTATION_REPRESENTATION( ' ', ( #10, #11, #12, #13, #14, #15, #16, #17, #18, #19, #20, #21 ), #6 );
#2 = PRODUCT_DEFINITION_CONTEXT( '', #22, 'design' );
#3 = APPLICATION_PROTOCOL_DEFINITION( 'international standard', 'automotive_design', 2001, #22 );
#4 = PRODUCT_CATEGORY_RELATIONSHIP( 'NONE', 'NONE', #23, #24 );
#5 = SHAPE_DEFINITION_REPRESENTATION( #25, #26 );
#6 =  ( GEOMETRIC_REPRESENTATION_CONTEXT( 3 )GLOBAL_UNCERTAINTY_ASSIGNED_CONTEXT( ( #29 ) )GLOBAL_UNIT_ASSIGNED_CONTEXT( ( #31, #32, #33 ) )REPRESENTATION_CONTEXT( 'NONE', 'WORKSPACE' ) );
#10 = STYLED_ITEM( '', ( #35 ), #36 );
#11 = STYLED_ITEM( '', ( #37 ), #38 );
#12 = STYLED_ITEM( '', ( #39 ), #40 );
#13 = STYLED_ITEM( '', ( #41 ), #42 );
#14 = STYLED_ITEM( '', ( #43 ), #44 );
#15 = STYLED_ITEM( '', ( #45 ), #46 );
#16 = STYLED_ITEM( '', ( #47 ), #48 );
#17 = STYLED_ITEM( '', ( #49 ), #50 );
#18 = STYLED_ITEM( '', ( #51 ), #52 );
#19 = STYLED_ITEM( '', ( #53 ), #54 );
#20 = STYLED_ITEM( '', ( #55 ), #56 );
#21 = STYLED_ITEM( '', ( #57 ), #58 );
#22 = APPLICATION_CONTEXT( 'core data for automotive mechanical design processes' );
#23 = PRODUCT_CATEGORY( 'part', 'NONE' );
#24 = PRODUCT_RELATED_PRODUCT_CATEGORY( 'detail', ' ', ( #59 ) );
#25 = PRODUCT_DEFINITION_SHAPE( 'NONE', 'NONE', #60 );
#26 = ADVANCED_BREP_SHAPE_REPRESENTATION( '1', ( #61, #62 ), #6 );
#29 = UNCERTAINTY_MEASURE_WITH_UNIT( LENGTH_MEASURE( 0.00100000000000000 ), #31, '', '' );
#31 =  ( CONVERSION_BASED_UNIT( 'MILLIMETRE', #65 )LENGTH_UNIT(  )NAMED_UNIT( #68 ) );
#32 =  ( NAMED_UNIT( #70 )PLANE_ANGLE_UNIT(  )SI_UNIT( $, .RADIAN. ) );
#33 =  ( NAMED_UNIT( #70 )SI_UNIT( $, .STERADIAN. )SOLID_ANGLE_UNIT(  ) );
#35 = PRESENTATION_STYLE_ASSIGNMENT( ( #76 ) );
#36 = ADVANCED_FACE( '', ( #77, #78 ), #79, .T. );
#37 = PRESENTATION_STYLE_ASSIGNMENT( ( #80 ) );
#38 = ADVANCED_FACE( '', ( #81 ), #82, .T. );
#39 = PRESENTATION_STYLE_ASSIGNMENT( ( #83 ) );
#40 = ADVANCED_FACE( '', ( #84, #85 ), #86, .T. );
#41 = PRESENTATION_STYLE_ASSIGNMENT( ( #87 ) );
#42 = ADVANCED_FACE( '', ( #88 ), #89, .T. );
#43 = PRESENTATION_STYLE_ASSIGNMENT( ( #90 ) );
#44 = ADVANCED_FACE( '', ( #91 ), #92, .T. );
#45 = PRESENTATION_STYLE_ASSIGNMENT( ( #93 ) );
#46 = ADVANCED_FACE( '', ( #94, #95 ), #96, .T. );
#47 = PRESENTATION_STYLE_ASSIGNMENT( ( #97 ) );
#48 = ADVANCED_FACE( '', ( #98 ), #99, .T. );
#49 = PRESENTATION_STYLE_ASSIGNMENT( ( #100 ) );
#50 = ADVANCED_FACE( '', ( #101 ), #102, .T. );
#51 = PRESENTATION_STYLE_ASSIGNMENT( ( #103 ) );
#52 = ADVANCED_FACE( '', ( #104, #105 ), #106, .T. );
#53 = PRESENTATION_STYLE_ASSIGNMENT( ( #107 ) );
#54 = ADVANCED_FACE( '', ( #108 ), #109, .T. );
#55 = PRESENTATION_STYLE_ASSIGNMENT( ( #110 ) );
#56 = ADVANCED_FACE( '', ( #111 ), #112, .T. );
#57 = PRESENTATION_STYLE_ASSIGNMENT( ( #113 ) );
#58 = ADVANCED_FACE( '', ( #114 ), #115, .T. );
#59 = PRODUCT( '1', '1', 'PART-1-DESC', ( #116 ) );
#60 = PRODUCT_DEFINITION( 'NONE', 'NONE', #117, #2 );
#61 = MANIFOLD_SOLID_BREP( '1', #118 );
#62 = AXIS2_PLACEMENT_3D( '', #119, #120, #121 );
#65 = LENGTH_MEASURE_WITH_UNIT( LENGTH_MEASURE( 1.00000000000000 ), #122 );
#68 = DIMENSIONAL_EXPONENTS( 1.00000000000000, 0.000000000000000, 0.000000000000000, 0.000000000000000, 0.000000000000000, 0.000000000000000, 0.000000000000000 );
#70 = DIMENSIONAL_EXPONENTS( 0.000000000000000, 0.000000000000000, 0.000000000000000, 0.000000000000000, 0.000000000000000, 0.000000000000000, 0.000000000000000 );
#76 = SURFACE_STYLE_USAGE( .BOTH., #123 );
#77 = FACE_BOUND( '', #124, .T. );
#78 = FACE_OUTER_BOUND( '', #125, .T. );
#79 = CONICAL_SURFACE( '', #126, 6.00000000000000, 0.785398163397444 );
#80 = SURFACE_STYLE_USAGE( .BOTH., #127 );
#81 = FACE_OUTER_BOUND( '', #128, .T. );
#82 = PLANE( '', #129 );
#83 = SURFACE_STYLE_USAGE( .BOTH., #130 );
#84 = FACE_OUTER_BOUND( '', #131, .T. );
#85 = FACE_OUTER_BOUND( '', #132, .T. );
#86 = CYLINDRICAL_SURFACE( '', #133, 5.50000000000000 );
#87 = SURFACE_STYLE_USAGE( .BOTH., #134 );
#88 = FACE_OUTER_BOUND( '', #135, .T. );
#89 = PLANE( '', #136 );
#90 = SURFACE_STYLE_USAGE( .BOTH., #137 );
#91 = FACE_OUTER_BOUND( '', #138, .T. );
#92 = CONICAL_SURFACE( '', #139, 5.00000000000000, 0.785398163397448 );
#93 = SURFACE_STYLE_USAGE( .BOTH., #140 );
#94 = FACE_OUTER_BOUND( '', #141, .T. );
#95 = FACE_OUTER_BOUND( '', #142, .T. );
#96 = CYLINDRICAL_SURFACE( '', #143, 6.00000000000000 );
#97 = SURFACE_STYLE_USAGE( .BOTH., #144 );
#98 = FACE_OUTER_BOUND( '', #145, .T. );
#99 = PLANE( '', #146 );
#100 = SURFACE_STYLE_USAGE( .BOTH., #147 );
#101 = FACE_OUTER_BOUND( '', #148, .T. );
#102 = CONICAL_SURFACE( '', #149, 5.00000000000000, 0.785398163397448 );
#103 = SURFACE_STYLE_USAGE( .BOTH., #150 );
#104 = FACE_BOUND( '', #151, .T. );
#105 = FACE_OUTER_BOUND( '', #152, .T. );
#106 = PLANE( '', #153 );
#107 = SURFACE_STYLE_USAGE( .BOTH., #154 );
#108 = FACE_OUTER_BOUND( '', #155, .T. );
#109 = PLANE( '', #156 );
#110 = SURFACE_STYLE_USAGE( .BOTH., #157 );
#111 = FACE_OUTER_BOUND( '', #158, .T. );
#112 = PLANE( '', #159 );
#113 = SURFACE_STYLE_USAGE( .BOTH., #160 );
#114 = FACE_OUTER_BOUND( '', #161, .T. );
#115 = SPHERICAL_SURFACE( '', #162, 4.00000000000000 );
#116 = PRODUCT_CONTEXT( '', #22, 'mechanical' );
#117 = PRODUCT_DEFINITION_FORMATION_WITH_SPECIFIED_SOURCE( ' ', 'NONE', #59, .NOT_KNOWN. );
#118 = CLOSED_SHELL( '', ( #48, #44, #46, #54, #38, #42, #50, #56, #36, #40, #52, #58 ) );
#119 = CARTESIAN_POINT( '', ( 0.000000000000000, 0.000000000000000, 0.000000000000000 ) );
#120 = DIRECTION( '', ( 0.000000000000000, 0.000000000000000, 1.00000000000000 ) );
#121 = DIRECTION( '', ( 1.00000000000000, 0.000000000000000, 0.000000000000000 ) );
#122 =  ( LENGTH_UNIT(  )NAMED_UNIT( #68 )SI_UNIT( .MILLI., .METRE. ) );
#123 = SURFACE_SIDE_STYLE( '', ( #164 ) );
#124 = EDGE_LOOP( '', ( #165 ) );
#125 = EDGE_LOOP( '', ( #166 ) );
#126 = AXIS2_PLACEMENT_3D( '', #167, #168, #169 );
#127 = SURFACE_SIDE_STYLE( '', ( #170 ) );
#128 = EDGE_LOOP( '', ( #171, #172, #173, #174, #175, #176 ) );
#129 = AXIS2_PLACEMENT_3D( '', #177, #178, #179 );
#130 = SURFACE_SIDE_STYLE( '', ( #180 ) );
#131 = EDGE_LOOP( '', ( #181 ) );
#132 = EDGE_LOOP( '', ( #182 ) );
#133 = AXIS2_PLACEMENT_3D( '', #183, #184, #185 );
#134 = SURFACE_SIDE_STYLE( '', ( #186 ) );
#135 = EDGE_LOOP( '', ( #187, #188, #189, #190, #191, #192 ) );
#136 = AXIS2_PLACEMENT_3D( '', #193, #194, #195 );
#137 = SURFACE_SIDE_STYLE( '', ( #196 ) );
#138 = EDGE_LOOP( '', ( #197, #198, #199, #200 ) );
#139 = AXIS2_PLACEMENT_3D( '', #201, #202, #203 );
#140 = SURFACE_SIDE_STYLE( '', ( #204 ) );
#141 = EDGE_LOOP( '', ( #205 ) );
#142 = EDGE_LOOP( '', ( #206, #207, #208, #209, #210, #211, #212, #213 ) );
#143 = AXIS2_PLACEMENT_3D( '', #214, #215, #216 );
#144 = SURFACE_SIDE_STYLE( '', ( #217 ) );
#145 = EDGE_LOOP( '', ( #218, #219 ) );
#146 = AXIS2_PLACEMENT_3D( '', #220, #221, #222 );
#147 = SURFACE_SIDE_STYLE( '', ( #223 ) );
#148 = EDGE_LOOP( '', ( #224, #225, #226, #227 ) );
#149 = AXIS2_PLACEMENT_3D( '', #228, #229, #230 );
#150 = SURFACE_SIDE_STYLE( '', ( #231 ) );
#151 = EDGE_LOOP( '', ( #232 ) );
#152 = EDGE_LOOP( '', ( #233 ) );
#153 = AXIS2_PLACEMENT_3D( '', #234, #235, #236 );
#154 = SURFACE_SIDE_STYLE( '', ( #237 ) );
#155 = EDGE_LOOP( '', ( #238, #239, #240, #241 ) );
#156 = AXIS2_PLACEMENT_3D( '', #242, #243, #244 );
#157 = SURFACE_SIDE_STYLE( '', ( #245 ) );
#158 = EDGE_LOOP( '', ( #246, #247 ) );
#159 = AXIS2_PLACEMENT_3D( '', #248, #249, #250 );
#160 = SURFACE_SIDE_STYLE( '', ( #251 ) );
#161 = EDGE_LOOP( '', ( #252 ) );
#162 = AXIS2_PLACEMENT_3D( '', #253, #254, #255 );
#164 = SURFACE_STYLE_FILL_AREA( #256 );
#165 = ORIENTED_EDGE( '', *, *, #257, .T. );
#166 = ORIENTED_EDGE( '', *, *, #258, .F. );
#167 = CARTESIAN_POINT( '', ( 0.000000000000000, 0.000000000000000, 4.00000000000000 ) );
#168 = DIRECTION( '', ( -0.000000000000000, -0.000000000000000, 1.00000000000000 ) );
#169 = DIRECTION( '', ( 1.00000000000000, 0.000000000000000, 0.000000000000000 ) );
#170 = SURFACE_STYLE_FILL_AREA( #259 );
#171 = ORIENTED_EDGE( '', *, *, #260, .T. );
#172 = ORIENTED_EDGE( '', *, *, #261, .T. );
#173 = ORIENTED_EDGE( '', *, *, #262, .F. );
#174 = ORIENTED_EDGE( '', *, *, #263, .F. );
#175 = ORIENTED_EDGE( '', *, *, #264, .F. );
#176 = ORIENTED_EDGE( '', *, *, #265, .T. );
#177 = CARTESIAN_POINT( '', ( 0.750000000000000, -10.0000000000000, 22.5000000000000 ) );
#178 = DIRECTION( '', ( -1.00000000000000, 0.000000000000000, 5.42101086242752E-017 ) );
#179 = DIRECTION( '', ( 5.42101086242752E-017, 0.000000000000000, 1.00000000000000 ) );
#180 = SURFACE_STYLE_FILL_AREA( #266 );
#181 = ORIENTED_EDGE( '', *, *, #267, .T. );
#182 = ORIENTED_EDGE( '', *, *, #257, .F. );
#183 = CARTESIAN_POINT( '', ( 0.000000000000000, 0.000000000000000, 57.1500000000000 ) );
#184 = DIRECTION( '', ( -0.000000000000000, -0.000000000000000, -1.00000000000000 ) );
#185 = DIRECTION( '', ( 1.00000000000000, 0.000000000000000, 0.000000000000000 ) );
#186 = SURFACE_STYLE_FILL_AREA( #268 );
#187 = ORIENTED_EDGE( '', *, *, #269, .F. );
#188 = ORIENTED_EDGE( '', *, *, #270, .T. );
#189 = ORIENTED_EDGE( '', *, *, #271, .F. );
#190 = ORIENTED_EDGE( '', *, *, #272, .T. );
#191 = ORIENTED_EDGE( '', *, *, #273, .F. );
#192 = ORIENTED_EDGE( '', *, *, #274, .T. );
#193 = CARTESIAN_POINT( '', ( -0.750000000000000, -10.0000000000000, 24.5000000000000 ) );
#194 = DIRECTION( '', ( 1.00000000000000, 0.000000000000000, 5.42101086242752E-017 ) );
#195 = DIRECTION( '', ( 5.42101086242752E-017, 0.000000000000000, -1.00000000000000 ) );
#196 = SURFACE_STYLE_FILL_AREA( #275 );
#197 = ORIENTED_EDGE( '', *, *, #265, .F. );
#198 = ORIENTED_EDGE( '', *, *, #276, .F. );
#199 = ORIENTED_EDGE( '', *, *, #261, .F. );
#200 = ORIENTED_EDGE( '', *, *, #277, .F. );
#201 = CARTESIAN_POINT( '', ( 0.000000000000000, 0.000000000000000, 24.5000000000000 ) );
#202 = DIRECTION( '', ( -0.000000000000000, 0.000000000000000, -1.00000000000000 ) );
#203 = DIRECTION( '', ( -1.00000000000000, 0.000000000000000, 0.000000000000000 ) );
#204 = SURFACE_STYLE_FILL_AREA( #278 );
#205 = ORIENTED_EDGE( '', *, *, #258, .T. );
#206 = ORIENTED_EDGE( '', *, *, #271, .T. );
#207 = ORIENTED_EDGE( '', *, *, #279, .T. );
#208 = ORIENTED_EDGE( '', *, *, #273, .T. );
#209 = ORIENTED_EDGE( '', *, *, #280, .T. );
#210 = ORIENTED_EDGE( '', *, *, #262, .T. );
#211 = ORIENTED_EDGE( '', *, *, #276, .T. );
#212 = ORIENTED_EDGE( '', *, *, #264, .T. );
#213 = ORIENTED_EDGE( '', *, *, #281, .T. );
#214 = CARTESIAN_POINT( '', ( 0.000000000000000, 0.000000000000000, 57.1500000000000 ) );
#215 = DIRECTION( '', ( -0.000000000000000, -0.000000000000000, -1.00000000000000 ) );
#216 = DIRECTION( '', ( 1.00000000000000, 0.000000000000000, 0.000000000000000 ) );
#217 = SURFACE_STYLE_FILL_AREA( #282 );
#218 = ORIENTED_EDGE( '', *, *, #269, .T. );
#219 = ORIENTED_EDGE( '', *, *, #283, .T. );
#220 = CARTESIAN_POINT( '', ( 0.000000000000000, 0.000000000000000, 24.5000000000000 ) );
#221 = DIRECTION( '', ( 0.000000000000000, 0.000000000000000, 1.00000000000000 ) );
#222 = DIRECTION( '', ( 1.00000000000000, 0.000000000000000, 0.000000000000000 ) );
#223 = SURFACE_STYLE_FILL_AREA( #284 );
#224 = ORIENTED_EDGE( '', *, *, #274, .F. );
#225 = ORIENTED_EDGE( '', *, *, #279, .F. );
#226 = ORIENTED_EDGE( '', *, *, #270, .F. );
#227 = ORIENTED_EDGE( '', *, *, #283, .F. );
#228 = CARTESIAN_POINT( '', ( 0.000000000000000, 0.000000000000000, 24.5000000000000 ) );
#229 = DIRECTION( '', ( -0.000000000000000, 0.000000000000000, -1.00000000000000 ) );
#230 = DIRECTION( '', ( -1.00000000000000, 0.000000000000000, 0.000000000000000 ) );
#231 = SURFACE_STYLE_FILL_AREA( #285 );
#232 = ORIENTED_EDGE( '', *, *, #286, .T. );
#233 = ORIENTED_EDGE( '', *, *, #267, .F. );
#234 = CARTESIAN_POINT( '', ( 3.70809924354783, 0.000000000000000, 2.50000000000000 ) );
#235 = DIRECTION( '', ( 0.000000000000000, 0.000000000000000, -1.00000000000000 ) );
#236 = DIRECTION( '', ( -1.00000000000000, 0.000000000000000, 0.000000000000000 ) );
#237 = SURFACE_STYLE_FILL_AREA( #287 );
#238 = ORIENTED_EDGE( '', *, *, #263, .T. );
#239 = ORIENTED_EDGE( '', *, *, #280, .F. );
#240 = ORIENTED_EDGE( '', *, *, #272, .F. );
#241 = ORIENTED_EDGE( '', *, *, #281, .F. );
#242 = CARTESIAN_POINT( '', ( -0.750000000000000, -10.0000000000000, 22.5000000000000 ) );
#243 = DIRECTION( '', ( 0.000000000000000, 0.000000000000000, 1.00000000000000 ) );
#244 = DIRECTION( '', ( 1.00000000000000, 0.000000000000000, 0.000000000000000 ) );
#245 = SURFACE_STYLE_FILL_AREA( #288 );
#246 = ORIENTED_EDGE( '', *, *, #260, .F. );
#247 = ORIENTED_EDGE( '', *, *, #277, .T. );
#248 = CARTESIAN_POINT( '', ( 0.000000000000000, 0.000000000000000, 24.5000000000000 ) );
#249 = DIRECTION( '', ( 0.000000000000000, 0.000000000000000, 1.00000000000000 ) );
#250 = DIRECTION( '', ( 1.00000000000000, 0.000000000000000, 0.000000000000000 ) );
#251 = SURFACE_STYLE_FILL_AREA( #289 );
#252 = ORIENTED_EDGE( '', *, *, #286, .F. );
#253 = CARTESIAN_POINT( '', ( 0.000000000000000, 0.000000000000000, 4.00000000000000 ) );
#254 = DIRECTION( '', ( 0.000000000000000, 0.000000000000000, 1.00000000000000 ) );
#255 = DIRECTION( '', ( 1.00000000000000, 0.000000000000000, 0.000000000000000 ) );
#256 = FILL_AREA_STYLE( '', ( #290 ) );
#257 = EDGE_CURVE( '', #291, #291, #292, .T. );
#258 = EDGE_CURVE( '', #293, #293, #294, .T. );
#259 = FILL_AREA_STYLE( '', ( #295 ) );
#260 = EDGE_CURVE( '', #296, #297, #298, .T. );
#261 = EDGE_CURVE( '', #297, #299, #300, .T. );
#262 = EDGE_CURVE( '', #301, #299, #302, .T. );
#263 = EDGE_CURVE( '', #303, #301, #304, .T. );
#264 = EDGE_CURVE( '', #305, #303, #306, .F. );
#265 = EDGE_CURVE( '', #305, #296, #307, .T. );
#266 = FILL_AREA_STYLE( '', ( #308 ) );
#267 = EDGE_CURVE( '', #309, #309, #310, .T. );
#268 = FILL_AREA_STYLE( '', ( #311 ) );
#269 = EDGE_CURVE( '', #312, #313, #314, .T. );
#270 = EDGE_CURVE( '', #312, #315, #316, .T. );
#271 = EDGE_CURVE( '', #317, #315, #318, .T. );
#272 = EDGE_CURVE( '', #317, #319, #320, .T. );
#273 = EDGE_CURVE( '', #321, #319, #322, .F. );
#274 = EDGE_CURVE( '', #321, #313, #323, .T. );
#275 = FILL_AREA_STYLE( '', ( #324 ) );
#276 = EDGE_CURVE( '', #299, #305, #325, .F. );
#277 = EDGE_CURVE( '', #296, #297, #326, .T. );
#278 = FILL_AREA_STYLE( '', ( #327 ) );
#279 = EDGE_CURVE( '', #315, #321, #328, .F. );
#280 = EDGE_CURVE( '', #319, #301, #329, .F. );
#281 = EDGE_CURVE( '', #303, #317, #330, .F. );
#282 = FILL_AREA_STYLE( '', ( #331 ) );
#283 = EDGE_CURVE( '', #313, #312, #332, .T. );
#284 = FILL_AREA_STYLE( '', ( #333 ) );
#285 = FILL_AREA_STYLE( '', ( #334 ) );
#286 = EDGE_CURVE( '', #335, #335, #336, .T. );
#287 = FILL_AREA_STYLE( '', ( #337 ) );
#288 = FILL_AREA_STYLE( '', ( #338 ) );
#289 = FILL_AREA_STYLE( '', ( #339 ) );
#290 = FILL_AREA_STYLE_COLOUR( '', #340 );
#291 = VERTEX_POINT( '', #341 );
#292 = CIRCLE( '', #342, 5.50000000000000 );
#293 = VERTEX_POINT( '', #343 );
#294 = CIRCLE( '', #344, 6.00000000000000 );
#295 = FILL_AREA_STYLE_COLOUR( '', #345 );
#296 = VERTEX_POINT( '', #346 );
#297 = VERTEX_POINT( '', #347 );
#298 = LINE( '', #348, #349 );
#299 = VERTEX_POINT( '', #350 );
#300 = B_SPLINE_CURVE_WITH_KNOTS( '', 3, ( #351, #352, #353, #354 ), .UNSPECIFIED., .F., .F., ( 4, 4 ), ( 0.000000000000000, 0.00142095439128866 ), .UNSPECIFIED. );
#301 = VERTEX_POINT( '', #355 );
#302 = LINE( '', #356, #357 );
#303 = VERTEX_POINT( '', #358 );
#304 = LINE( '', #359, #360 );
#305 = VERTEX_POINT( '', #361 );
#306 = LINE( '', #362, #363 );
#307 = B_SPLINE_CURVE_WITH_KNOTS( '', 3, ( #364, #365, #366, #367 ), .UNSPECIFIED., .F., .F., ( 4, 4 ), ( 0.000000000000000, 0.00142095439128866 ), .UNSPECIFIED. );
#308 = FILL_AREA_STYLE_COLOUR( '', #368 );
#309 = VERTEX_POINT( '', #369 );
#310 = CIRCLE( '', #370, 5.50000000000000 );
#311 = FILL_AREA_STYLE_COLOUR( '', #371 );
#312 = VERTEX_POINT( '', #372 );
#313 = VERTEX_POINT( '', #373 );
#314 = LINE( '', #374, #375 );
#315 = VERTEX_POINT( '', #376 );
#316 = B_SPLINE_CURVE_WITH_KNOTS( '', 3, ( #377, #378, #379, #380 ), .UNSPECIFIED., .F., .F., ( 4, 4 ), ( 0.000000000000000, 0.00142095439128866 ), .UNSPECIFIED. );
#317 = VERTEX_POINT( '', #381 );
#318 = LINE( '', #382, #383 );
#319 = VERTEX_POINT( '', #384 );
#320 = LINE( '', #385, #386 );
#321 = VERTEX_POINT( '', #387 );
#322 = LINE( '', #388, #389 );
#323 = B_SPLINE_CURVE_WITH_KNOTS( '', 3, ( #390, #391, #392, #393 ), .UNSPECIFIED., .F., .F., ( 4, 4 ), ( 0.000000000000000, 0.00142095439128866 ), .UNSPECIFIED. );
#324 = FILL_AREA_STYLE_COLOUR( '', #394 );
#325 = CIRCLE( '', #395, 6.00000000000000 );
#326 = CIRCLE( '', #396, 5.00000000000000 );
#327 = FILL_AREA_STYLE_COLOUR( '', #397 );
#328 = CIRCLE( '', #398, 6.00000000000000 );
#329 = CIRCLE( '', #399, 6.00000000000000 );
#330 = CIRCLE( '', #400, 6.00000000000000 );
#331 = FILL_AREA_STYLE_COLOUR( '', #401 );
#332 = CIRCLE( '', #402, 5.00000000000000 );
#333 = FILL_AREA_STYLE_COLOUR( '', #403 );
#334 = FILL_AREA_STYLE_COLOUR( '', #404 );
#335 = VERTEX_POINT( '', #405 );
#336 = CIRCLE( '', #406, 3.70809924354783 );
#337 = FILL_AREA_STYLE_COLOUR( '', #407 );
#338 = FILL_AREA_STYLE_COLOUR( '', #408 );
#339 = FILL_AREA_STYLE_COLOUR( '', #409 );
#340 = COLOUR_RGB( '', 0.200000002980232, 0.200000002980232, 0.200000002980232 );
#341 = CARTESIAN_POINT( '', ( 5.50000000000000, 0.000000000000000, 3.50000000000000 ) );
#342 = AXIS2_PLACEMENT_3D( '', #410, #411, #412 );
#343 = CARTESIAN_POINT( '', ( 6.00000000000000, 0.000000000000000, 4.00000000000000 ) );
#344 = AXIS2_PLACEMENT_3D( '', #413, #414, #415 );
#345 = COLOUR_RGB( '', 0.200000002980232, 0.200000002980232, 0.200000002980232 );
#346 = CARTESIAN_POINT( '', ( 0.750000000000000, -4.94342998332130, 24.5000000000000 ) );
#347 = CARTESIAN_POINT( '', ( 0.750000000000000, 4.94342998332130, 24.5000000000000 ) );
#348 = CARTESIAN_POINT( '', ( 0.750000000000000, -10.0000000000000, 24.5000000000000 ) );
#349 = VECTOR( '', #416, 1000.00000000000 );
#350 = CARTESIAN_POINT( '', ( 0.750000000000000, 5.95294044989533, 23.5000000000000 ) );
#351 = CARTESIAN_POINT( '', ( 0.750000000000000, 4.94342998332130, 24.5000000000000 ) );
#352 = CARTESIAN_POINT( '', ( 0.750000000000000, 5.28025212865203, 24.1669886615451 ) );
#353 = CARTESIAN_POINT( '', ( 0.750000000000000, 5.61670228224376, 23.8336009648353 ) );
#354 = CARTESIAN_POINT( '', ( 0.750000000000000, 5.95294044989533, 23.5000000000000 ) );
#355 = CARTESIAN_POINT( '', ( 0.750000000000000, 5.95294044989533, 22.5000000000000 ) );
#356 = CARTESIAN_POINT( '', ( 0.750000000000000, 5.95294044989533, 57.1500000000000 ) );
#357 = VECTOR( '', #417, 1000.00000000000 );
#358 = CARTESIAN_POINT( '', ( 0.750000000000000, -5.95294044989533, 22.5000000000000 ) );
#359 = CARTESIAN_POINT( '', ( 0.750000000000000, -10.0000000000000, 22.5000000000000 ) );
#360 = VECTOR( '', #418, 1000.00000000000 );
#361 = CARTESIAN_POINT( '', ( 0.750000000000000, -5.95294044989533, 23.5000000000000 ) );
#362 = CARTESIAN_POINT( '', ( 0.750000000000000, -5.95294044989533, 57.1500000000000 ) );
#363 = VECTOR( '', #419, 1000.00000000000 );
#364 = CARTESIAN_POINT( '', ( 0.750000000000000, -5.95294044989533, 23.5000000000000 ) );
#365 = CARTESIAN_POINT( '', ( 0.750000000000000, -5.61670228224376, 23.8336009648353 ) );
#366 = CARTESIAN_POINT( '', ( 0.750000000000000, -5.28025212865203, 24.1669886615451 ) );
#367 = CARTESIAN_POINT( '', ( 0.750000000000000, -4.94342998332130, 24.5000000000000 ) );
#368 = COLOUR_RGB( '', 0.200000002980232, 0.200000002980232, 0.200000002980232 );
#369 = CARTESIAN_POINT( '', ( 5.50000000000000, 0.000000000000000, 2.50000000000000 ) );
#370 = AXIS2_PLACEMENT_3D( '', #420, #421, #422 );
#371 = COLOUR_RGB( '', 0.200000002980232, 0.200000002980232, 0.200000002980232 );
#372 = CARTESIAN_POINT( '', ( -0.750000000000000, -4.94342998332130, 24.5000000000000 ) );
#373 = CARTESIAN_POINT( '', ( -0.750000000000000, 4.94342998332130, 24.5000000000000 ) );
#374 = CARTESIAN_POINT( '', ( -0.750000000000000, -10.0000000000000, 24.5000000000000 ) );
#375 = VECTOR( '', #423, 1000.00000000000 );
#376 = CARTESIAN_POINT( '', ( -0.750000000000000, -5.95294044989533, 23.5000000000000 ) );
#377 = CARTESIAN_POINT( '', ( -0.750000000000000, -4.94342998332130, 24.5000000000000 ) );
#378 = CARTESIAN_POINT( '', ( -0.750000000000000, -5.28025212865203, 24.1669886615451 ) );
#379 = CARTESIAN_POINT( '', ( -0.750000000000000, -5.61670228224376, 23.8336009648353 ) );
#380 = CARTESIAN_POINT( '', ( -0.750000000000000, -5.95294044989533, 23.5000000000000 ) );
#381 = CARTESIAN_POINT( '', ( -0.750000000000000, -5.95294044989533, 22.5000000000000 ) );
#382 = CARTESIAN_POINT( '', ( -0.750000000000000, -5.95294044989533, 57.1500000000000 ) );
#383 = VECTOR( '', #424, 1000.00000000000 );
#384 = CARTESIAN_POINT( '', ( -0.750000000000000, 5.95294044989533, 22.5000000000000 ) );
#385 = CARTESIAN_POINT( '', ( -0.750000000000000, -10.0000000000000, 22.5000000000000 ) );
#386 = VECTOR( '', #425, 1000.00000000000 );
#387 = CARTESIAN_POINT( '', ( -0.750000000000000, 5.95294044989533, 23.5000000000000 ) );
#388 = CARTESIAN_POINT( '', ( -0.750000000000000, 5.95294044989533, 57.1500000000000 ) );
#389 = VECTOR( '', #426, 1000.00000000000 );
#390 = CARTESIAN_POINT( '', ( -0.750000000000000, 5.95294044989533, 23.5000000000000 ) );
#391 = CARTESIAN_POINT( '', ( -0.750000000000000, 5.61670228224376, 23.8336009648353 ) );
#392 = CARTESIAN_POINT( '', ( -0.750000000000000, 5.28025212865203, 24.1669886615451 ) );
#393 = CARTESIAN_POINT( '', ( -0.750000000000000, 4.94342998332130, 24.5000000000000 ) );
#394 = COLOUR_RGB( '', 0.200000002980232, 0.200000002980232, 0.200000002980232 );
#395 = AXIS2_PLACEMENT_3D( '', #427, #428, #429 );
#396 = AXIS2_PLACEMENT_3D( '', #430, #431, #432 );
#397 = COLOUR_RGB( '', 0.752941191196442, 0.752941191196442, 0.752941191196442 );
#398 = AXIS2_PLACEMENT_3D( '', #433, #434, #435 );
#399 = AXIS2_PLACEMENT_3D( '', #436, #437, #438 );
#400 = AXIS2_PLACEMENT_3D( '', #439, #440, #441 );
#401 = COLOUR_RGB( '', 0.200000002980232, 0.200000002980232, 0.200000002980232 );
#402 = AXIS2_PLACEMENT_3D( '', #442, #443, #444 );
#403 = COLOUR_RGB( '', 0.200000002980232, 0.200000002980232, 0.200000002980232 );
#404 = COLOUR_RGB( '', 0.200000002980232, 0.200000002980232, 0.200000002980232 );
#405 = CARTESIAN_POINT( '', ( 3.70809924354783, 0.000000000000000, 2.50000000000000 ) );
#406 = AXIS2_PLACEMENT_3D( '', #445, #446, #447 );
#407 = COLOUR_RGB( '', 0.200000002980232, 0.200000002980232, 0.200000002980232 );
#408 = COLOUR_RGB( '', 0.200000002980232, 0.200000002980232, 0.200000002980232 );
#409 = COLOUR_RGB( '', 0.200000002980232, 0.200000002980232, 0.200000002980232 );
#410 = CARTESIAN_POINT( '', ( 0.000000000000000, 0.000000000000000, 3.50000000000000 ) );
#411 = DIRECTION( '', ( 0.000000000000000, 0.000000000000000, 1.00000000000000 ) );
#412 = DIRECTION( '', ( 1.00000000000000, 0.000000000000000, 0.000000000000000 ) );
#413 = CARTESIAN_POINT( '', ( 0.000000000000000, 0.000000000000000, 4.00000000000000 ) );
#414 = DIRECTION( '', ( 0.000000000000000, 0.000000000000000, 1.00000000000000 ) );
#415 = DIRECTION( '', ( 1.00000000000000, 0.000000000000000, 0.000000000000000 ) );
#416 = DIRECTION( '', ( 0.000000000000000, 1.00000000000000, 0.000000000000000 ) );
#417 = DIRECTION( '', ( 0.000000000000000, 0.000000000000000, 1.00000000000000 ) );
#418 = DIRECTION( '', ( 0.000000000000000, 1.00000000000000, 0.000000000000000 ) );
#419 = DIRECTION( '', ( 0.000000000000000, 0.000000000000000, 1.00000000000000 ) );
#420 = CARTESIAN_POINT( '', ( 0.000000000000000, 0.000000000000000, 2.50000000000000 ) );
#421 = DIRECTION( '', ( 0.000000000000000, 0.000000000000000, 1.00000000000000 ) );
#422 = DIRECTION( '', ( 1.00000000000000, 0.000000000000000, 0.000000000000000 ) );
#423 = DIRECTION( '', ( 0.000000000000000, 1.00000000000000, 0.000000000000000 ) );
#424 = DIRECTION( '', ( 0.000000000000000, 0.000000000000000, 1.00000000000000 ) );
#425 = DIRECTION( '', ( 0.000000000000000, 1.00000000000000, 0.000000000000000 ) );
#426 = DIRECTION( '', ( 0.000000000000000, 0.000000000000000, 1.00000000000000 ) );
#427 = CARTESIAN_POINT( '', ( 0.000000000000000, 0.000000000000000, 23.5000000000000 ) );
#428 = DIRECTION( '', ( 0.000000000000000, 0.000000000000000, 1.00000000000000 ) );
#429 = DIRECTION( '', ( 1.00000000000000, 0.000000000000000, 0.000000000000000 ) );
#430 = CARTESIAN_POINT( '', ( 0.000000000000000, 0.000000000000000, 24.5000000000000 ) );
#431 = DIRECTION( '', ( 0.000000000000000, 0.000000000000000, 1.00000000000000 ) );
#432 = DIRECTION( '', ( 1.00000000000000, 0.000000000000000, 0.000000000000000 ) );
#433 = CARTESIAN_POINT( '', ( 0.000000000000000, 0.000000000000000, 23.5000000000000 ) );
#434 = DIRECTION( '', ( 0.000000000000000, 0.000000000000000, 1.00000000000000 ) );
#435 = DIRECTION( '', ( 1.00000000000000, 0.000000000000000, 0.000000000000000 ) );
#436 = CARTESIAN_POINT( '', ( 0.000000000000000, 0.000000000000000, 22.5000000000000 ) );
#437 = DIRECTION( '', ( 0.000000000000000, 0.000000000000000, 1.00000000000000 ) );
#438 = DIRECTION( '', ( 1.00000000000000, 0.000000000000000, 0.000000000000000 ) );
#439 = CARTESIAN_POINT( '', ( 0.000000000000000, 0.000000000000000, 22.5000000000000 ) );
#440 = DIRECTION( '', ( 0.000000000000000, 0.000000000000000, 1.00000000000000 ) );
#441 = DIRECTION( '', ( 1.00000000000000, 0.000000000000000, 0.000000000000000 ) );
#442 = CARTESIAN_POINT( '', ( 0.000000000000000, 0.000000000000000, 24.5000000000000 ) );
#443 = DIRECTION( '', ( 0.000000000000000, 0.000000000000000, 1.00000000000000 ) );
#444 = DIRECTION( '', ( 1.00000000000000, 0.000000000000000, 0.000000000000000 ) );
#445 = CARTESIAN_POINT( '', ( 0.000000000000000, 0.000000000000000, 2.50000000000000 ) );
#446 = DIRECTION( '', ( 0.000000000000000, 0.000000000000000, 1.00000000000000 ) );
#447 = DIRECTION( '', ( 1.00000000000000, 0.000000000000000, 0.000000000000000 ) );
ENDSEC;
END-ISO-10303-21;
