ISO-10303-21;
HEADER;
FILE_DESCRIPTION( ( 'Unknown' ), '1' );
FILE_NAME( '//SBS2003/HD_Usb/Disegni/08_LIB/Users_3D/PROD_GAMM_3D/APS-A/7747440_APS_24_A.stp', 'Unknown', ( 'Unknown' ), ( 'Unknown' ), 'PSStep 14.0', 'Unknown', '  ' );
FILE_SCHEMA( ( 'AUTOMOTIVE_DESIGN { 1 0 10303 214 1 1 1 1 }' ) );
ENDSEC;
DATA;
#1 = MECHANICAL_DESIGN_GEOMETRIC_PRESENTATION_REPRESENTATION( ' ', ( #10, #11, #12, #13, #14, #15, #16, #17, #18, #19, #20, #21 ), #6 );
#2 = PRODUCT_DEFINITION_CONTEXT( '', #22, 'design' );
#3 = APPLICATION_PROTOCOL_DEFINITION( 'international standard', 'automotive_design', 2001, #22 );
#4 = PRODUCT_CATEGORY_RELATIONSHIP( 'NONE', 'NONE', #23, #24 );
#5 = SHAPE_DEFINITION_REPRESENTATION( #25, #26 );
#6 =  ( GEOMETRIC_REPRESENTATION_CONTEXT( 3 )GLOBAL_UNCERTAINTY_ASSIGNED_CONTEXT( ( #29 ) )GLOBAL_UNIT_ASSIGNED_CONTEXT( ( #31, #32, #33 ) )REPRESENTATION_CONTEXT( 'NONE', 'WORKSPACE' ) );
#10 = STYLED_ITEM( '', ( #35 ), #36 );
#11 = STYLED_ITEM( '', ( #37 ), #38 );
#12 = STYLED_ITEM( '', ( #39 ), #40 );
#13 = STYLED_ITEM( '', ( #41 ), #42 );
#14 = STYLED_ITEM( '', ( #43 ), #44 );
#15 = STYLED_ITEM( '', ( #45 ), #46 );
#16 = STYLED_ITEM( '', ( #47 ), #48 );
#17 = STYLED_ITEM( '', ( #49 ), #50 );
#18 = STYLED_ITEM( '', ( #51 ), #52 );
#19 = STYLED_ITEM( '', ( #53 ), #54 );
#20 = STYLED_ITEM( '', ( #55 ), #56 );
#21 = STYLED_ITEM( '', ( #57 ), #58 );
#22 = APPLICATION_CONTEXT( 'core data for automotive mechanical design processes' );
#23 = PRODUCT_CATEGORY( 'part', 'NONE' );
#24 = PRODUCT_RELATED_PRODUCT_CATEGORY( 'detail', ' ', ( #59 ) );
#25 = PRODUCT_DEFINITION_SHAPE( 'NONE', 'NONE', #60 );
#26 = ADVANCED_BREP_SHAPE_REPRESENTATION( '1', ( #61, #62 ), #6 );
#29 = UNCERTAINTY_MEASURE_WITH_UNIT( LENGTH_MEASURE( 0.00100000000000000 ), #31, '', '' );
#31 =  ( CONVERSION_BASED_UNIT( 'MILLIMETRE', #65 )LENGTH_UNIT(  )NAMED_UNIT( #68 ) );
#32 =  ( NAMED_UNIT( #70 )PLANE_ANGLE_UNIT(  )SI_UNIT( $, .RADIAN. ) );
#33 =  ( NAMED_UNIT( #70 )SI_UNIT( $, .STERADIAN. )SOLID_ANGLE_UNIT(  ) );
#35 = PRESENTATION_STYLE_ASSIGNMENT( ( #76 ) );
#36 = ADVANCED_FACE( '', ( #77 ), #78, .T. );
#37 = PRESENTATION_STYLE_ASSIGNMENT( ( #79 ) );
#38 = ADVANCED_FACE( '', ( #80 ), #81, .T. );
#39 = PRESENTATION_STYLE_ASSIGNMENT( ( #82 ) );
#40 = ADVANCED_FACE( '', ( #83 ), #84, .T. );
#41 = PRESENTATION_STYLE_ASSIGNMENT( ( #85 ) );
#42 = ADVANCED_FACE( '', ( #86, #87 ), #88, .T. );
#43 = PRESENTATION_STYLE_ASSIGNMENT( ( #89 ) );
#44 = ADVANCED_FACE( '', ( #90, #91 ), #92, .T. );
#45 = PRESENTATION_STYLE_ASSIGNMENT( ( #93 ) );
#46 = ADVANCED_FACE( '', ( #94 ), #95, .T. );
#47 = PRESENTATION_STYLE_ASSIGNMENT( ( #96 ) );
#48 = ADVANCED_FACE( '', ( #97, #98 ), #99, .T. );
#49 = PRESENTATION_STYLE_ASSIGNMENT( ( #100 ) );
#50 = ADVANCED_FACE( '', ( #101 ), #102, .T. );
#51 = PRESENTATION_STYLE_ASSIGNMENT( ( #103 ) );
#52 = ADVANCED_FACE( '', ( #104, #105 ), #106, .T. );
#53 = PRESENTATION_STYLE_ASSIGNMENT( ( #107 ) );
#54 = ADVANCED_FACE( '', ( #108 ), #109, .T. );
#55 = PRESENTATION_STYLE_ASSIGNMENT( ( #110 ) );
#56 = ADVANCED_FACE( '', ( #111 ), #112, .T. );
#57 = PRESENTATION_STYLE_ASSIGNMENT( ( #113 ) );
#58 = ADVANCED_FACE( '', ( #114 ), #115, .T. );
#59 = PRODUCT( '1', '1', 'PART-1-DESC', ( #116 ) );
#60 = PRODUCT_DEFINITION( 'NONE', 'NONE', #117, #2 );
#61 = MANIFOLD_SOLID_BREP( '1', #118 );
#62 = AXIS2_PLACEMENT_3D( '', #119, #120, #121 );
#65 = LENGTH_MEASURE_WITH_UNIT( LENGTH_MEASURE( 1.00000000000000 ), #122 );
#68 = DIMENSIONAL_EXPONENTS( 1.00000000000000, 0.000000000000000, 0.000000000000000, 0.000000000000000, 0.000000000000000, 0.000000000000000, 0.000000000000000 );
#70 = DIMENSIONAL_EXPONENTS( 0.000000000000000, 0.000000000000000, 0.000000000000000, 0.000000000000000, 0.000000000000000, 0.000000000000000, 0.000000000000000 );
#76 = SURFACE_STYLE_USAGE( .BOTH., #123 );
#77 = FACE_OUTER_BOUND( '', #124, .T. );
#78 = CONICAL_SURFACE( '', #125, 7.00000000000000, 0.785398163397448 );
#79 = SURFACE_STYLE_USAGE( .BOTH., #126 );
#80 = FACE_OUTER_BOUND( '', #127, .T. );
#81 = PLANE( '', #128 );
#82 = SURFACE_STYLE_USAGE( .BOTH., #129 );
#83 = FACE_OUTER_BOUND( '', #130, .T. );
#84 = PLANE( '', #131 );
#85 = SURFACE_STYLE_USAGE( .BOTH., #132 );
#86 = FACE_BOUND( '', #133, .T. );
#87 = FACE_OUTER_BOUND( '', #134, .T. );
#88 = CONICAL_SURFACE( '', #135, 8.00000000000000, 0.785398163397438 );
#89 = SURFACE_STYLE_USAGE( .BOTH., #136 );
#90 = FACE_OUTER_BOUND( '', #137, .T. );
#91 = FACE_OUTER_BOUND( '', #138, .T. );
#92 = CYLINDRICAL_SURFACE( '', #139, 7.50000000000000 );
#93 = SURFACE_STYLE_USAGE( .BOTH., #140 );
#94 = FACE_OUTER_BOUND( '', #141, .T. );
#95 = CONICAL_SURFACE( '', #142, 7.00000000000000, 0.785398163397448 );
#96 = SURFACE_STYLE_USAGE( .BOTH., #143 );
#97 = FACE_BOUND( '', #144, .T. );
#98 = FACE_OUTER_BOUND( '', #145, .T. );
#99 = PLANE( '', #146 );
#100 = SURFACE_STYLE_USAGE( .BOTH., #147 );
#101 = FACE_OUTER_BOUND( '', #148, .T. );
#102 = PLANE( '', #149 );
#103 = SURFACE_STYLE_USAGE( .BOTH., #150 );
#104 = FACE_OUTER_BOUND( '', #151, .T. );
#105 = FACE_OUTER_BOUND( '', #152, .T. );
#106 = CYLINDRICAL_SURFACE( '', #153, 8.00000000000000 );
#107 = SURFACE_STYLE_USAGE( .BOTH., #154 );
#108 = FACE_OUTER_BOUND( '', #155, .T. );
#109 = SPHERICAL_SURFACE( '', #156, 5.00000000000000 );
#110 = SURFACE_STYLE_USAGE( .BOTH., #157 );
#111 = FACE_OUTER_BOUND( '', #158, .T. );
#112 = PLANE( '', #159 );
#113 = SURFACE_STYLE_USAGE( .BOTH., #160 );
#114 = FACE_OUTER_BOUND( '', #161, .T. );
#115 = PLANE( '', #162 );
#116 = PRODUCT_CONTEXT( '', #22, 'mechanical' );
#117 = PRODUCT_DEFINITION_FORMATION_WITH_SPECIFIED_SOURCE( ' ', 'NONE', #59, .NOT_KNOWN. );
#118 = CLOSED_SHELL( '', ( #40, #46, #52, #38, #56, #58, #36, #50, #42, #44, #48, #54 ) );
#119 = CARTESIAN_POINT( '', ( 0.000000000000000, 0.000000000000000, 0.000000000000000 ) );
#120 = DIRECTION( '', ( 0.000000000000000, 0.000000000000000, 1.00000000000000 ) );
#121 = DIRECTION( '', ( 1.00000000000000, 0.000000000000000, 0.000000000000000 ) );
#122 =  ( LENGTH_UNIT(  )NAMED_UNIT( #68 )SI_UNIT( .MILLI., .METRE. ) );
#123 = SURFACE_SIDE_STYLE( '', ( #164 ) );
#124 = EDGE_LOOP( '', ( #165, #166, #167, #168 ) );
#125 = AXIS2_PLACEMENT_3D( '', #169, #170, #171 );
#126 = SURFACE_SIDE_STYLE( '', ( #172 ) );
#127 = EDGE_LOOP( '', ( #173, #174, #175, #176 ) );
#128 = AXIS2_PLACEMENT_3D( '', #177, #178, #179 );
#129 = SURFACE_SIDE_STYLE( '', ( #180 ) );
#130 = EDGE_LOOP( '', ( #181, #182 ) );
#131 = AXIS2_PLACEMENT_3D( '', #183, #184, #185 );
#132 = SURFACE_SIDE_STYLE( '', ( #186 ) );
#133 = EDGE_LOOP( '', ( #187 ) );
#134 = EDGE_LOOP( '', ( #188 ) );
#135 = AXIS2_PLACEMENT_3D( '', #189, #190, #191 );
#136 = SURFACE_SIDE_STYLE( '', ( #192 ) );
#137 = EDGE_LOOP( '', ( #193 ) );
#138 = EDGE_LOOP( '', ( #194 ) );
#139 = AXIS2_PLACEMENT_3D( '', #195, #196, #197 );
#140 = SURFACE_SIDE_STYLE( '', ( #198 ) );
#141 = EDGE_LOOP( '', ( #199, #200, #201, #202 ) );
#142 = AXIS2_PLACEMENT_3D( '', #203, #204, #205 );
#143 = SURFACE_SIDE_STYLE( '', ( #206 ) );
#144 = EDGE_LOOP( '', ( #207 ) );
#145 = EDGE_LOOP( '', ( #208 ) );
#146 = AXIS2_PLACEMENT_3D( '', #209, #210, #211 );
#147 = SURFACE_SIDE_STYLE( '', ( #212 ) );
#148 = EDGE_LOOP( '', ( #213, #214 ) );
#149 = AXIS2_PLACEMENT_3D( '', #215, #216, #217 );
#150 = SURFACE_SIDE_STYLE( '', ( #218 ) );
#151 = EDGE_LOOP( '', ( #219 ) );
#152 = EDGE_LOOP( '', ( #220, #221, #222, #223, #224, #225, #226, #227 ) );
#153 = AXIS2_PLACEMENT_3D( '', #228, #229, #230 );
#154 = SURFACE_SIDE_STYLE( '', ( #231 ) );
#155 = EDGE_LOOP( '', ( #232 ) );
#156 = AXIS2_PLACEMENT_3D( '', #233, #234, #235 );
#157 = SURFACE_SIDE_STYLE( '', ( #236 ) );
#158 = EDGE_LOOP( '', ( #237, #238, #239, #240, #241, #242 ) );
#159 = AXIS2_PLACEMENT_3D( '', #243, #244, #245 );
#160 = SURFACE_SIDE_STYLE( '', ( #246 ) );
#161 = EDGE_LOOP( '', ( #247, #248, #249, #250, #251, #252 ) );
#162 = AXIS2_PLACEMENT_3D( '', #253, #254, #255 );
#164 = SURFACE_STYLE_FILL_AREA( #256 );
#165 = ORIENTED_EDGE( '', *, *, #257, .F. );
#166 = ORIENTED_EDGE( '', *, *, #258, .F. );
#167 = ORIENTED_EDGE( '', *, *, #259, .F. );
#168 = ORIENTED_EDGE( '', *, *, #260, .F. );
#169 = CARTESIAN_POINT( '', ( 0.000000000000000, 0.000000000000000, 27.5000000000000 ) );
#170 = DIRECTION( '', ( -0.000000000000000, 0.000000000000000, -1.00000000000000 ) );
#171 = DIRECTION( '', ( -1.00000000000000, 0.000000000000000, 0.000000000000000 ) );
#172 = SURFACE_STYLE_FILL_AREA( #261 );
#173 = ORIENTED_EDGE( '', *, *, #262, .T. );
#174 = ORIENTED_EDGE( '', *, *, #263, .F. );
#175 = ORIENTED_EDGE( '', *, *, #264, .F. );
#176 = ORIENTED_EDGE( '', *, *, #265, .F. );
#177 = CARTESIAN_POINT( '', ( -1.25000000000000, -10.0000000000000, 25.5000000000000 ) );
#178 = DIRECTION( '', ( 0.000000000000000, 0.000000000000000, 1.00000000000000 ) );
#179 = DIRECTION( '', ( 1.00000000000000, 0.000000000000000, 0.000000000000000 ) );
#180 = SURFACE_STYLE_FILL_AREA( #266 );
#181 = ORIENTED_EDGE( '', *, *, #267, .T. );
#182 = ORIENTED_EDGE( '', *, *, #260, .T. );
#183 = CARTESIAN_POINT( '', ( 0.000000000000000, 0.000000000000000, 27.5000000000000 ) );
#184 = DIRECTION( '', ( 0.000000000000000, 0.000000000000000, 1.00000000000000 ) );
#185 = DIRECTION( '', ( 1.00000000000000, 0.000000000000000, 0.000000000000000 ) );
#186 = SURFACE_STYLE_FILL_AREA( #268 );
#187 = ORIENTED_EDGE( '', *, *, #269, .T. );
#188 = ORIENTED_EDGE( '', *, *, #270, .F. );
#189 = CARTESIAN_POINT( '', ( 0.000000000000000, 0.000000000000000, 5.00000000000000 ) );
#190 = DIRECTION( '', ( -0.000000000000000, -0.000000000000000, 1.00000000000000 ) );
#191 = DIRECTION( '', ( 1.00000000000000, 0.000000000000000, 0.000000000000000 ) );
#192 = SURFACE_STYLE_FILL_AREA( #271 );
#193 = ORIENTED_EDGE( '', *, *, #272, .T. );
#194 = ORIENTED_EDGE( '', *, *, #269, .F. );
#195 = CARTESIAN_POINT( '', ( 0.000000000000000, 0.000000000000000, 57.1500000000000 ) );
#196 = DIRECTION( '', ( -0.000000000000000, -0.000000000000000, -1.00000000000000 ) );
#197 = DIRECTION( '', ( 1.00000000000000, 0.000000000000000, 0.000000000000000 ) );
#198 = SURFACE_STYLE_FILL_AREA( #273 );
#199 = ORIENTED_EDGE( '', *, *, #274, .F. );
#200 = ORIENTED_EDGE( '', *, *, #275, .F. );
#201 = ORIENTED_EDGE( '', *, *, #276, .F. );
#202 = ORIENTED_EDGE( '', *, *, #277, .F. );
#203 = CARTESIAN_POINT( '', ( 0.000000000000000, 0.000000000000000, 27.5000000000000 ) );
#204 = DIRECTION( '', ( -0.000000000000000, 0.000000000000000, -1.00000000000000 ) );
#205 = DIRECTION( '', ( -1.00000000000000, 0.000000000000000, 0.000000000000000 ) );
#206 = SURFACE_STYLE_FILL_AREA( #278 );
#207 = ORIENTED_EDGE( '', *, *, #279, .T. );
#208 = ORIENTED_EDGE( '', *, *, #272, .F. );
#209 = CARTESIAN_POINT( '', ( 4.76969600708473, 0.000000000000000, 3.50000000000000 ) );
#210 = DIRECTION( '', ( 0.000000000000000, 0.000000000000000, -1.00000000000000 ) );
#211 = DIRECTION( '', ( -1.00000000000000, 0.000000000000000, 0.000000000000000 ) );
#212 = SURFACE_STYLE_FILL_AREA( #280 );
#213 = ORIENTED_EDGE( '', *, *, #281, .F. );
#214 = ORIENTED_EDGE( '', *, *, #277, .T. );
#215 = CARTESIAN_POINT( '', ( 0.000000000000000, 0.000000000000000, 27.5000000000000 ) );
#216 = DIRECTION( '', ( 0.000000000000000, 0.000000000000000, 1.00000000000000 ) );
#217 = DIRECTION( '', ( 1.00000000000000, 0.000000000000000, 0.000000000000000 ) );
#218 = SURFACE_STYLE_FILL_AREA( #282 );
#219 = ORIENTED_EDGE( '', *, *, #270, .T. );
#220 = ORIENTED_EDGE( '', *, *, #283, .T. );
#221 = ORIENTED_EDGE( '', *, *, #258, .T. );
#222 = ORIENTED_EDGE( '', *, *, #284, .T. );
#223 = ORIENTED_EDGE( '', *, *, #263, .T. );
#224 = ORIENTED_EDGE( '', *, *, #285, .T. );
#225 = ORIENTED_EDGE( '', *, *, #275, .T. );
#226 = ORIENTED_EDGE( '', *, *, #286, .T. );
#227 = ORIENTED_EDGE( '', *, *, #265, .T. );
#228 = CARTESIAN_POINT( '', ( 0.000000000000000, 0.000000000000000, 57.1500000000000 ) );
#229 = DIRECTION( '', ( -0.000000000000000, -0.000000000000000, -1.00000000000000 ) );
#230 = DIRECTION( '', ( 1.00000000000000, 0.000000000000000, 0.000000000000000 ) );
#231 = SURFACE_STYLE_FILL_AREA( #287 );
#232 = ORIENTED_EDGE( '', *, *, #279, .F. );
#233 = CARTESIAN_POINT( '', ( 0.000000000000000, 0.000000000000000, 5.00000000000000 ) );
#234 = DIRECTION( '', ( 0.000000000000000, 0.000000000000000, 1.00000000000000 ) );
#235 = DIRECTION( '', ( 1.00000000000000, 0.000000000000000, 0.000000000000000 ) );
#236 = SURFACE_STYLE_FILL_AREA( #288 );
#237 = ORIENTED_EDGE( '', *, *, #281, .T. );
#238 = ORIENTED_EDGE( '', *, *, #276, .T. );
#239 = ORIENTED_EDGE( '', *, *, #285, .F. );
#240 = ORIENTED_EDGE( '', *, *, #262, .F. );
#241 = ORIENTED_EDGE( '', *, *, #286, .F. );
#242 = ORIENTED_EDGE( '', *, *, #274, .T. );
#243 = CARTESIAN_POINT( '', ( 1.25000000000000, -10.0000000000000, 25.5000000000000 ) );
#244 = DIRECTION( '', ( -1.00000000000000, 0.000000000000000, 0.000000000000000 ) );
#245 = DIRECTION( '', ( 0.000000000000000, 0.000000000000000, 1.00000000000000 ) );
#246 = SURFACE_STYLE_FILL_AREA( #289 );
#247 = ORIENTED_EDGE( '', *, *, #267, .F. );
#248 = ORIENTED_EDGE( '', *, *, #259, .T. );
#249 = ORIENTED_EDGE( '', *, *, #283, .F. );
#250 = ORIENTED_EDGE( '', *, *, #264, .T. );
#251 = ORIENTED_EDGE( '', *, *, #284, .F. );
#252 = ORIENTED_EDGE( '', *, *, #257, .T. );
#253 = CARTESIAN_POINT( '', ( -1.25000000000000, -10.0000000000000, 27.5000000000000 ) );
#254 = DIRECTION( '', ( 1.00000000000000, 0.000000000000000, 0.000000000000000 ) );
#255 = DIRECTION( '', ( 0.000000000000000, 0.000000000000000, -1.00000000000000 ) );
#256 = FILL_AREA_STYLE( '', ( #290 ) );
#257 = EDGE_CURVE( '', #291, #292, #293, .T. );
#258 = EDGE_CURVE( '', #294, #291, #295, .F. );
#259 = EDGE_CURVE( '', #296, #294, #297, .T. );
#260 = EDGE_CURVE( '', #292, #296, #298, .T. );
#261 = FILL_AREA_STYLE( '', ( #299 ) );
#262 = EDGE_CURVE( '', #300, #301, #302, .T. );
#263 = EDGE_CURVE( '', #303, #301, #304, .F. );
#264 = EDGE_CURVE( '', #305, #303, #306, .T. );
#265 = EDGE_CURVE( '', #300, #305, #307, .F. );
#266 = FILL_AREA_STYLE( '', ( #308 ) );
#267 = EDGE_CURVE( '', #296, #292, #309, .T. );
#268 = FILL_AREA_STYLE( '', ( #310 ) );
#269 = EDGE_CURVE( '', #311, #311, #312, .T. );
#270 = EDGE_CURVE( '', #313, #313, #314, .T. );
#271 = FILL_AREA_STYLE( '', ( #315 ) );
#272 = EDGE_CURVE( '', #316, #316, #317, .T. );
#273 = FILL_AREA_STYLE( '', ( #318 ) );
#274 = EDGE_CURVE( '', #319, #320, #321, .T. );
#275 = EDGE_CURVE( '', #322, #319, #323, .F. );
#276 = EDGE_CURVE( '', #324, #322, #325, .T. );
#277 = EDGE_CURVE( '', #320, #324, #326, .T. );
#278 = FILL_AREA_STYLE( '', ( #327 ) );
#279 = EDGE_CURVE( '', #328, #328, #329, .T. );
#280 = FILL_AREA_STYLE( '', ( #330 ) );
#281 = EDGE_CURVE( '', #320, #324, #331, .T. );
#282 = FILL_AREA_STYLE( '', ( #332 ) );
#283 = EDGE_CURVE( '', #305, #294, #333, .T. );
#284 = EDGE_CURVE( '', #291, #303, #334, .F. );
#285 = EDGE_CURVE( '', #301, #322, #335, .T. );
#286 = EDGE_CURVE( '', #319, #300, #336, .F. );
#287 = FILL_AREA_STYLE( '', ( #337 ) );
#288 = FILL_AREA_STYLE( '', ( #338 ) );
#289 = FILL_AREA_STYLE( '', ( #339 ) );
#290 = FILL_AREA_STYLE_COLOUR( '', #340 );
#291 = VERTEX_POINT( '', #341 );
#292 = VERTEX_POINT( '', #342 );
#293 = B_SPLINE_CURVE_WITH_KNOTS( '', 3, ( #343, #344, #345, #346 ), .UNSPECIFIED., .F., .F., ( 4, 4 ), ( 0.000000000000000, 0.00142432665672917 ), .UNSPECIFIED. );
#294 = VERTEX_POINT( '', #347 );
#295 = CIRCLE( '', #348, 8.00000000000000 );
#296 = VERTEX_POINT( '', #349 );
#297 = B_SPLINE_CURVE_WITH_KNOTS( '', 3, ( #350, #351, #352, #353 ), .UNSPECIFIED., .F., .F., ( 4, 4 ), ( 0.000000000000000, 0.00142432665672917 ), .UNSPECIFIED. );
#298 = CIRCLE( '', #354, 7.00000000000000 );
#299 = FILL_AREA_STYLE_COLOUR( '', #355 );
#300 = VERTEX_POINT( '', #356 );
#301 = VERTEX_POINT( '', #357 );
#302 = LINE( '', #358, #359 );
#303 = VERTEX_POINT( '', #360 );
#304 = CIRCLE( '', #361, 8.00000000000000 );
#305 = VERTEX_POINT( '', #362 );
#306 = LINE( '', #363, #364 );
#307 = CIRCLE( '', #365, 8.00000000000000 );
#308 = FILL_AREA_STYLE_COLOUR( '', #366 );
#309 = LINE( '', #367, #368 );
#310 = FILL_AREA_STYLE_COLOUR( '', #369 );
#311 = VERTEX_POINT( '', #370 );
#312 = CIRCLE( '', #371, 7.50000000000000 );
#313 = VERTEX_POINT( '', #372 );
#314 = CIRCLE( '', #373, 8.00000000000000 );
#315 = FILL_AREA_STYLE_COLOUR( '', #374 );
#316 = VERTEX_POINT( '', #375 );
#317 = CIRCLE( '', #376, 7.50000000000000 );
#318 = FILL_AREA_STYLE_COLOUR( '', #377 );
#319 = VERTEX_POINT( '', #378 );
#320 = VERTEX_POINT( '', #379 );
#321 = B_SPLINE_CURVE_WITH_KNOTS( '', 3, ( #380, #381, #382, #383 ), .UNSPECIFIED., .F., .F., ( 4, 4 ), ( 0.000000000000000, 0.00142432665672917 ), .UNSPECIFIED. );
#322 = VERTEX_POINT( '', #384 );
#323 = CIRCLE( '', #385, 8.00000000000000 );
#324 = VERTEX_POINT( '', #386 );
#325 = B_SPLINE_CURVE_WITH_KNOTS( '', 3, ( #387, #388, #389, #390 ), .UNSPECIFIED., .F., .F., ( 4, 4 ), ( 0.000000000000000, 0.00142432665672917 ), .UNSPECIFIED. );
#326 = CIRCLE( '', #391, 7.00000000000000 );
#327 = FILL_AREA_STYLE_COLOUR( '', #392 );
#328 = VERTEX_POINT( '', #393 );
#329 = CIRCLE( '', #394, 4.76969600708473 );
#330 = FILL_AREA_STYLE_COLOUR( '', #395 );
#331 = LINE( '', #396, #397 );
#332 = FILL_AREA_STYLE_COLOUR( '', #398 );
#333 = LINE( '', #399, #400 );
#334 = LINE( '', #401, #402 );
#335 = LINE( '', #403, #404 );
#336 = LINE( '', #405, #406 );
#337 = FILL_AREA_STYLE_COLOUR( '', #407 );
#338 = FILL_AREA_STYLE_COLOUR( '', #408 );
#339 = FILL_AREA_STYLE_COLOUR( '', #409 );
#340 = COLOUR_RGB( '', 0.200000002980232, 0.200000002980232, 0.200000002980232 );
#341 = CARTESIAN_POINT( '', ( -1.25000000000000, 7.90174031463956, 26.5000000000000 ) );
#342 = CARTESIAN_POINT( '', ( -1.25000000000000, 6.88748865697796, 27.5000000000000 ) );
#343 = CARTESIAN_POINT( '', ( -1.25000000000000, 7.90174031463956, 26.5000000000000 ) );
#344 = CARTESIAN_POINT( '', ( -1.25000000000000, 7.56395529553140, 26.8336361878960 ) );
#345 = CARTESIAN_POINT( '', ( -1.25000000000000, 7.22591441934521, 27.1670137714952 ) );
#346 = CARTESIAN_POINT( '', ( -1.25000000000000, 6.88748865697796, 27.5000000000000 ) );
#347 = CARTESIAN_POINT( '', ( -1.25000000000000, -7.90174031463956, 26.5000000000000 ) );
#348 = AXIS2_PLACEMENT_3D( '', #410, #411, #412 );
#349 = CARTESIAN_POINT( '', ( -1.25000000000000, -6.88748865697796, 27.5000000000000 ) );
#350 = CARTESIAN_POINT( '', ( -1.25000000000000, -6.88748865697796, 27.5000000000000 ) );
#351 = CARTESIAN_POINT( '', ( -1.25000000000000, -7.22591441934521, 27.1670137714952 ) );
#352 = CARTESIAN_POINT( '', ( -1.25000000000000, -7.56395529553140, 26.8336361878960 ) );
#353 = CARTESIAN_POINT( '', ( -1.25000000000000, -7.90174031463956, 26.5000000000000 ) );
#354 = AXIS2_PLACEMENT_3D( '', #413, #414, #415 );
#355 = COLOUR_RGB( '', 0.200000002980232, 0.200000002980232, 0.200000002980232 );
#356 = CARTESIAN_POINT( '', ( 1.25000000000000, -7.90174031463956, 25.5000000000000 ) );
#357 = CARTESIAN_POINT( '', ( 1.25000000000000, 7.90174031463956, 25.5000000000000 ) );
#358 = CARTESIAN_POINT( '', ( 1.25000000000000, -10.0000000000000, 25.5000000000000 ) );
#359 = VECTOR( '', #416, 1000.00000000000 );
#360 = CARTESIAN_POINT( '', ( -1.25000000000000, 7.90174031463956, 25.5000000000000 ) );
#361 = AXIS2_PLACEMENT_3D( '', #417, #418, #419 );
#362 = CARTESIAN_POINT( '', ( -1.25000000000000, -7.90174031463956, 25.5000000000000 ) );
#363 = CARTESIAN_POINT( '', ( -1.25000000000000, -10.0000000000000, 25.5000000000000 ) );
#364 = VECTOR( '', #420, 1000.00000000000 );
#365 = AXIS2_PLACEMENT_3D( '', #421, #422, #423 );
#366 = COLOUR_RGB( '', 0.200000002980232, 0.200000002980232, 0.200000002980232 );
#367 = CARTESIAN_POINT( '', ( -1.25000000000000, -10.0000000000000, 27.5000000000000 ) );
#368 = VECTOR( '', #424, 1000.00000000000 );
#369 = COLOUR_RGB( '', 0.200000002980232, 0.200000002980232, 0.200000002980232 );
#370 = CARTESIAN_POINT( '', ( 7.50000000000000, 0.000000000000000, 4.50000000000000 ) );
#371 = AXIS2_PLACEMENT_3D( '', #425, #426, #427 );
#372 = CARTESIAN_POINT( '', ( 8.00000000000000, 0.000000000000000, 5.00000000000000 ) );
#373 = AXIS2_PLACEMENT_3D( '', #428, #429, #430 );
#374 = COLOUR_RGB( '', 0.200000002980232, 0.200000002980232, 0.200000002980232 );
#375 = CARTESIAN_POINT( '', ( 7.50000000000000, 0.000000000000000, 3.50000000000000 ) );
#376 = AXIS2_PLACEMENT_3D( '', #431, #432, #433 );
#377 = COLOUR_RGB( '', 0.200000002980232, 0.200000002980232, 0.200000002980232 );
#378 = CARTESIAN_POINT( '', ( 1.25000000000000, -7.90174031463956, 26.5000000000000 ) );
#379 = CARTESIAN_POINT( '', ( 1.25000000000000, -6.88748865697796, 27.5000000000000 ) );
#380 = CARTESIAN_POINT( '', ( 1.25000000000000, -7.90174031463956, 26.5000000000000 ) );
#381 = CARTESIAN_POINT( '', ( 1.25000000000000, -7.56395529553140, 26.8336361878960 ) );
#382 = CARTESIAN_POINT( '', ( 1.25000000000000, -7.22591441934521, 27.1670137714952 ) );
#383 = CARTESIAN_POINT( '', ( 1.25000000000000, -6.88748865697796, 27.5000000000000 ) );
#384 = CARTESIAN_POINT( '', ( 1.25000000000000, 7.90174031463956, 26.5000000000000 ) );
#385 = AXIS2_PLACEMENT_3D( '', #434, #435, #436 );
#386 = CARTESIAN_POINT( '', ( 1.25000000000000, 6.88748865697796, 27.5000000000000 ) );
#387 = CARTESIAN_POINT( '', ( 1.25000000000000, 6.88748865697796, 27.5000000000000 ) );
#388 = CARTESIAN_POINT( '', ( 1.25000000000000, 7.22591441934521, 27.1670137714952 ) );
#389 = CARTESIAN_POINT( '', ( 1.25000000000000, 7.56395529553140, 26.8336361878960 ) );
#390 = CARTESIAN_POINT( '', ( 1.25000000000000, 7.90174031463956, 26.5000000000000 ) );
#391 = AXIS2_PLACEMENT_3D( '', #437, #438, #439 );
#392 = COLOUR_RGB( '', 0.200000002980232, 0.200000002980232, 0.200000002980232 );
#393 = CARTESIAN_POINT( '', ( 4.76969600708473, 0.000000000000000, 3.50000000000000 ) );
#394 = AXIS2_PLACEMENT_3D( '', #440, #441, #442 );
#395 = COLOUR_RGB( '', 0.200000002980232, 0.200000002980232, 0.200000002980232 );
#396 = CARTESIAN_POINT( '', ( 1.25000000000000, -10.0000000000000, 27.5000000000000 ) );
#397 = VECTOR( '', #443, 1000.00000000000 );
#398 = COLOUR_RGB( '', 0.752941191196442, 0.752941191196442, 0.752941191196442 );
#399 = CARTESIAN_POINT( '', ( -1.25000000000000, -7.90174031463956, 57.1500000000000 ) );
#400 = VECTOR( '', #444, 1000.00000000000 );
#401 = CARTESIAN_POINT( '', ( -1.25000000000000, 7.90174031463956, 57.1500000000000 ) );
#402 = VECTOR( '', #445, 1000.00000000000 );
#403 = CARTESIAN_POINT( '', ( 1.25000000000000, 7.90174031463956, 57.1500000000000 ) );
#404 = VECTOR( '', #446, 1000.00000000000 );
#405 = CARTESIAN_POINT( '', ( 1.25000000000000, -7.90174031463956, 57.1500000000000 ) );
#406 = VECTOR( '', #447, 1000.00000000000 );
#407 = COLOUR_RGB( '', 0.200000002980232, 0.200000002980232, 0.200000002980232 );
#408 = COLOUR_RGB( '', 0.200000002980232, 0.200000002980232, 0.200000002980232 );
#409 = COLOUR_RGB( '', 0.200000002980232, 0.200000002980232, 0.200000002980232 );
#410 = CARTESIAN_POINT( '', ( 0.000000000000000, 0.000000000000000, 26.5000000000000 ) );
#411 = DIRECTION( '', ( 0.000000000000000, 0.000000000000000, 1.00000000000000 ) );
#412 = DIRECTION( '', ( 1.00000000000000, 0.000000000000000, 0.000000000000000 ) );
#413 = CARTESIAN_POINT( '', ( 0.000000000000000, 0.000000000000000, 27.5000000000000 ) );
#414 = DIRECTION( '', ( 0.000000000000000, 0.000000000000000, 1.00000000000000 ) );
#415 = DIRECTION( '', ( 1.00000000000000, 0.000000000000000, 0.000000000000000 ) );
#416 = DIRECTION( '', ( 0.000000000000000, 1.00000000000000, 0.000000000000000 ) );
#417 = CARTESIAN_POINT( '', ( 0.000000000000000, 0.000000000000000, 25.5000000000000 ) );
#418 = DIRECTION( '', ( 0.000000000000000, 0.000000000000000, 1.00000000000000 ) );
#419 = DIRECTION( '', ( 1.00000000000000, 0.000000000000000, 0.000000000000000 ) );
#420 = DIRECTION( '', ( 0.000000000000000, 1.00000000000000, 0.000000000000000 ) );
#421 = CARTESIAN_POINT( '', ( 0.000000000000000, 0.000000000000000, 25.5000000000000 ) );
#422 = DIRECTION( '', ( 0.000000000000000, 0.000000000000000, 1.00000000000000 ) );
#423 = DIRECTION( '', ( 1.00000000000000, 0.000000000000000, 0.000000000000000 ) );
#424 = DIRECTION( '', ( 0.000000000000000, 1.00000000000000, 0.000000000000000 ) );
#425 = CARTESIAN_POINT( '', ( 0.000000000000000, 0.000000000000000, 4.50000000000000 ) );
#426 = DIRECTION( '', ( 0.000000000000000, 0.000000000000000, 1.00000000000000 ) );
#427 = DIRECTION( '', ( 1.00000000000000, 0.000000000000000, 0.000000000000000 ) );
#428 = CARTESIAN_POINT( '', ( 0.000000000000000, 0.000000000000000, 5.00000000000000 ) );
#429 = DIRECTION( '', ( 0.000000000000000, 0.000000000000000, 1.00000000000000 ) );
#430 = DIRECTION( '', ( 1.00000000000000, 0.000000000000000, 0.000000000000000 ) );
#431 = CARTESIAN_POINT( '', ( 0.000000000000000, 0.000000000000000, 3.50000000000000 ) );
#432 = DIRECTION( '', ( 0.000000000000000, 0.000000000000000, 1.00000000000000 ) );
#433 = DIRECTION( '', ( 1.00000000000000, 0.000000000000000, 0.000000000000000 ) );
#434 = CARTESIAN_POINT( '', ( 0.000000000000000, 0.000000000000000, 26.5000000000000 ) );
#435 = DIRECTION( '', ( 0.000000000000000, 0.000000000000000, 1.00000000000000 ) );
#436 = DIRECTION( '', ( 1.00000000000000, 0.000000000000000, 0.000000000000000 ) );
#437 = CARTESIAN_POINT( '', ( 0.000000000000000, 0.000000000000000, 27.5000000000000 ) );
#438 = DIRECTION( '', ( 0.000000000000000, 0.000000000000000, 1.00000000000000 ) );
#439 = DIRECTION( '', ( 1.00000000000000, 0.000000000000000, 0.000000000000000 ) );
#440 = CARTESIAN_POINT( '', ( 0.000000000000000, 0.000000000000000, 3.50000000000000 ) );
#441 = DIRECTION( '', ( 0.000000000000000, 0.000000000000000, 1.00000000000000 ) );
#442 = DIRECTION( '', ( 1.00000000000000, 0.000000000000000, 0.000000000000000 ) );
#443 = DIRECTION( '', ( 0.000000000000000, 1.00000000000000, 0.000000000000000 ) );
#444 = DIRECTION( '', ( 0.000000000000000, 0.000000000000000, 1.00000000000000 ) );
#445 = DIRECTION( '', ( 0.000000000000000, 0.000000000000000, 1.00000000000000 ) );
#446 = DIRECTION( '', ( 0.000000000000000, 0.000000000000000, 1.00000000000000 ) );
#447 = DIRECTION( '', ( 0.000000000000000, 0.000000000000000, 1.00000000000000 ) );
ENDSEC;
END-ISO-10303-21;
