ISO-10303-21;
HEADER;
FILE_DESCRIPTION( ( 'Unknown' ), '1' );
FILE_NAME( '//SBS2003/HD_Usb/Disegni/08_LIB/Users_3D/PROD_GAMM_3D/APS-A/7747441_APS_24_AR.stp', 'Unknown', ( 'Unknown' ), ( 'Unknown' ), 'PSStep 14.0', 'Unknown', '  ' );
FILE_SCHEMA( ( 'AUTOMOTIVE_DESIGN { 1 0 10303 214 1 1 1 1 }' ) );
ENDSEC;
DATA;
#1 = MECHANICAL_DESIGN_GEOMETRIC_PRESENTATION_REPRESENTATION( ' ', ( #10, #11, #12, #13, #14, #15, #16, #17, #18, #19, #20, #21 ), #6 );
#2 = PRODUCT_DEFINITION_CONTEXT( '', #22, 'design' );
#3 = APPLICATION_PROTOCOL_DEFINITION( 'international standard', 'automotive_design', 2001, #22 );
#4 = PRODUCT_CATEGORY_RELATIONSHIP( 'NONE', 'NONE', #23, #24 );
#5 = SHAPE_DEFINITION_REPRESENTATION( #25, #26 );
#6 =  ( GEOMETRIC_REPRESENTATION_CONTEXT( 3 )GLOBAL_UNCERTAINTY_ASSIGNED_CONTEXT( ( #29 ) )GLOBAL_UNIT_ASSIGNED_CONTEXT( ( #31, #32, #33 ) )REPRESENTATION_CONTEXT( 'NONE', 'WORKSPACE' ) );
#10 = STYLED_ITEM( '', ( #35 ), #36 );
#11 = STYLED_ITEM( '', ( #37 ), #38 );
#12 = STYLED_ITEM( '', ( #39 ), #40 );
#13 = STYLED_ITEM( '', ( #41 ), #42 );
#14 = STYLED_ITEM( '', ( #43 ), #44 );
#15 = STYLED_ITEM( '', ( #45 ), #46 );
#16 = STYLED_ITEM( '', ( #47 ), #48 );
#17 = STYLED_ITEM( '', ( #49 ), #50 );
#18 = STYLED_ITEM( '', ( #51 ), #52 );
#19 = STYLED_ITEM( '', ( #53 ), #54 );
#20 = STYLED_ITEM( '', ( #55 ), #56 );
#21 = STYLED_ITEM( '', ( #57 ), #58 );
#22 = APPLICATION_CONTEXT( 'core data for automotive mechanical design processes' );
#23 = PRODUCT_CATEGORY( 'part', 'NONE' );
#24 = PRODUCT_RELATED_PRODUCT_CATEGORY( 'detail', ' ', ( #59 ) );
#25 = PRODUCT_DEFINITION_SHAPE( 'NONE', 'NONE', #60 );
#26 = ADVANCED_BREP_SHAPE_REPRESENTATION( '1', ( #61, #62 ), #6 );
#29 = UNCERTAINTY_MEASURE_WITH_UNIT( LENGTH_MEASURE( 0.00100000000000000 ), #31, '', '' );
#31 =  ( CONVERSION_BASED_UNIT( 'MILLIMETRE', #65 )LENGTH_UNIT(  )NAMED_UNIT( #68 ) );
#32 =  ( NAMED_UNIT( #70 )PLANE_ANGLE_UNIT(  )SI_UNIT( $, .RADIAN. ) );
#33 =  ( NAMED_UNIT( #70 )SI_UNIT( $, .STERADIAN. )SOLID_ANGLE_UNIT(  ) );
#35 = PRESENTATION_STYLE_ASSIGNMENT( ( #76 ) );
#36 = ADVANCED_FACE( '', ( #77, #78 ), #79, .T. );
#37 = PRESENTATION_STYLE_ASSIGNMENT( ( #80 ) );
#38 = ADVANCED_FACE( '', ( #81 ), #82, .T. );
#39 = PRESENTATION_STYLE_ASSIGNMENT( ( #83 ) );
#40 = ADVANCED_FACE( '', ( #84 ), #85, .T. );
#41 = PRESENTATION_STYLE_ASSIGNMENT( ( #86 ) );
#42 = ADVANCED_FACE( '', ( #87 ), #88, .T. );
#43 = PRESENTATION_STYLE_ASSIGNMENT( ( #89 ) );
#44 = ADVANCED_FACE( '', ( #90, #91 ), #92, .T. );
#45 = PRESENTATION_STYLE_ASSIGNMENT( ( #93 ) );
#46 = ADVANCED_FACE( '', ( #94 ), #95, .T. );
#47 = PRESENTATION_STYLE_ASSIGNMENT( ( #96 ) );
#48 = ADVANCED_FACE( '', ( #97 ), #98, .T. );
#49 = PRESENTATION_STYLE_ASSIGNMENT( ( #99 ) );
#50 = ADVANCED_FACE( '', ( #100, #101 ), #102, .T. );
#51 = PRESENTATION_STYLE_ASSIGNMENT( ( #103 ) );
#52 = ADVANCED_FACE( '', ( #104 ), #105, .T. );
#53 = PRESENTATION_STYLE_ASSIGNMENT( ( #106 ) );
#54 = ADVANCED_FACE( '', ( #107 ), #108, .T. );
#55 = PRESENTATION_STYLE_ASSIGNMENT( ( #109 ) );
#56 = ADVANCED_FACE( '', ( #110 ), #111, .T. );
#57 = PRESENTATION_STYLE_ASSIGNMENT( ( #112 ) );
#58 = ADVANCED_FACE( '', ( #113, #114 ), #115, .T. );
#59 = PRODUCT( '1', '1', 'PART-1-DESC', ( #116 ) );
#60 = PRODUCT_DEFINITION( 'NONE', 'NONE', #117, #2 );
#61 = MANIFOLD_SOLID_BREP( '1', #118 );
#62 = AXIS2_PLACEMENT_3D( '', #119, #120, #121 );
#65 = LENGTH_MEASURE_WITH_UNIT( LENGTH_MEASURE( 1.00000000000000 ), #122 );
#68 = DIMENSIONAL_EXPONENTS( 1.00000000000000, 0.000000000000000, 0.000000000000000, 0.000000000000000, 0.000000000000000, 0.000000000000000, 0.000000000000000 );
#70 = DIMENSIONAL_EXPONENTS( 0.000000000000000, 0.000000000000000, 0.000000000000000, 0.000000000000000, 0.000000000000000, 0.000000000000000, 0.000000000000000 );
#76 = SURFACE_STYLE_USAGE( .BOTH., #123 );
#77 = FACE_OUTER_BOUND( '', #124, .T. );
#78 = FACE_OUTER_BOUND( '', #125, .T. );
#79 = CYLINDRICAL_SURFACE( '', #126, 8.00000000000000 );
#80 = SURFACE_STYLE_USAGE( .BOTH., #127 );
#81 = FACE_OUTER_BOUND( '', #128, .T. );
#82 = CONICAL_SURFACE( '', #129, 7.00000000000000, 0.785398163397448 );
#83 = SURFACE_STYLE_USAGE( .BOTH., #130 );
#84 = FACE_OUTER_BOUND( '', #131, .T. );
#85 = CONICAL_SURFACE( '', #132, 7.00000000000000, 0.785398163397448 );
#86 = SURFACE_STYLE_USAGE( .BOTH., #133 );
#87 = FACE_OUTER_BOUND( '', #134, .T. );
#88 = PLANE( '', #135 );
#89 = SURFACE_STYLE_USAGE( .BOTH., #136 );
#90 = FACE_BOUND( '', #137, .T. );
#91 = FACE_OUTER_BOUND( '', #138, .T. );
#92 = PLANE( '', #139 );
#93 = SURFACE_STYLE_USAGE( .BOTH., #140 );
#94 = FACE_OUTER_BOUND( '', #141, .T. );
#95 = PLANE( '', #142 );
#96 = SURFACE_STYLE_USAGE( .BOTH., #143 );
#97 = FACE_OUTER_BOUND( '', #144, .T. );
#98 = PLANE( '', #145 );
#99 = SURFACE_STYLE_USAGE( .BOTH., #146 );
#100 = FACE_OUTER_BOUND( '', #147, .T. );
#101 = FACE_OUTER_BOUND( '', #148, .T. );
#102 = CYLINDRICAL_SURFACE( '', #149, 7.50000000000000 );
#103 = SURFACE_STYLE_USAGE( .BOTH., #150 );
#104 = FACE_OUTER_BOUND( '', #151, .T. );
#105 = PLANE( '', #152 );
#106 = SURFACE_STYLE_USAGE( .BOTH., #153 );
#107 = FACE_OUTER_BOUND( '', #154, .T. );
#108 = PLANE( '', #155 );
#109 = SURFACE_STYLE_USAGE( .BOTH., #156 );
#110 = FACE_OUTER_BOUND( '', #157, .T. );
#111 = SPHERICAL_SURFACE( '', #158, 5.00000000000000 );
#112 = SURFACE_STYLE_USAGE( .BOTH., #159 );
#113 = FACE_BOUND( '', #160, .T. );
#114 = FACE_OUTER_BOUND( '', #161, .T. );
#115 = CONICAL_SURFACE( '', #162, 8.00000000000000, 0.785398163397438 );
#116 = PRODUCT_CONTEXT( '', #22, 'mechanical' );
#117 = PRODUCT_DEFINITION_FORMATION_WITH_SPECIFIED_SOURCE( ' ', 'NONE', #59, .NOT_KNOWN. );
#118 = CLOSED_SHELL( '', ( #46, #38, #36, #42, #48, #52, #40, #54, #58, #50, #44, #56 ) );
#119 = CARTESIAN_POINT( '', ( 0.000000000000000, 0.000000000000000, 0.000000000000000 ) );
#120 = DIRECTION( '', ( 0.000000000000000, 0.000000000000000, 1.00000000000000 ) );
#121 = DIRECTION( '', ( 1.00000000000000, 0.000000000000000, 0.000000000000000 ) );
#122 =  ( LENGTH_UNIT(  )NAMED_UNIT( #68 )SI_UNIT( .MILLI., .METRE. ) );
#123 = SURFACE_SIDE_STYLE( '', ( #164 ) );
#124 = EDGE_LOOP( '', ( #165 ) );
#125 = EDGE_LOOP( '', ( #166, #167, #168, #169, #170, #171, #172, #173 ) );
#126 = AXIS2_PLACEMENT_3D( '', #174, #175, #176 );
#127 = SURFACE_SIDE_STYLE( '', ( #177 ) );
#128 = EDGE_LOOP( '', ( #178, #179, #180, #181 ) );
#129 = AXIS2_PLACEMENT_3D( '', #182, #183, #184 );
#130 = SURFACE_SIDE_STYLE( '', ( #185 ) );
#131 = EDGE_LOOP( '', ( #186, #187, #188, #189 ) );
#132 = AXIS2_PLACEMENT_3D( '', #190, #191, #192 );
#133 = SURFACE_SIDE_STYLE( '', ( #193 ) );
#134 = EDGE_LOOP( '', ( #194, #195, #196, #197 ) );
#135 = AXIS2_PLACEMENT_3D( '', #198, #199, #200 );
#136 = SURFACE_SIDE_STYLE( '', ( #201 ) );
#137 = EDGE_LOOP( '', ( #202 ) );
#138 = EDGE_LOOP( '', ( #203 ) );
#139 = AXIS2_PLACEMENT_3D( '', #204, #205, #206 );
#140 = SURFACE_SIDE_STYLE( '', ( #207 ) );
#141 = EDGE_LOOP( '', ( #208, #209 ) );
#142 = AXIS2_PLACEMENT_3D( '', #210, #211, #212 );
#143 = SURFACE_SIDE_STYLE( '', ( #213 ) );
#144 = EDGE_LOOP( '', ( #214, #215, #216, #217, #218, #219 ) );
#145 = AXIS2_PLACEMENT_3D( '', #220, #221, #222 );
#146 = SURFACE_SIDE_STYLE( '', ( #223 ) );
#147 = EDGE_LOOP( '', ( #224 ) );
#148 = EDGE_LOOP( '', ( #225 ) );
#149 = AXIS2_PLACEMENT_3D( '', #226, #227, #228 );
#150 = SURFACE_SIDE_STYLE( '', ( #229 ) );
#151 = EDGE_LOOP( '', ( #230, #231, #232, #233, #234, #235 ) );
#152 = AXIS2_PLACEMENT_3D( '', #236, #237, #238 );
#153 = SURFACE_SIDE_STYLE( '', ( #239 ) );
#154 = EDGE_LOOP( '', ( #240, #241 ) );
#155 = AXIS2_PLACEMENT_3D( '', #242, #243, #244 );
#156 = SURFACE_SIDE_STYLE( '', ( #245 ) );
#157 = EDGE_LOOP( '', ( #246 ) );
#158 = AXIS2_PLACEMENT_3D( '', #247, #248, #249 );
#159 = SURFACE_SIDE_STYLE( '', ( #250 ) );
#160 = EDGE_LOOP( '', ( #251 ) );
#161 = EDGE_LOOP( '', ( #252 ) );
#162 = AXIS2_PLACEMENT_3D( '', #253, #254, #255 );
#164 = SURFACE_STYLE_FILL_AREA( #256 );
#165 = ORIENTED_EDGE( '', *, *, #257, .T. );
#166 = ORIENTED_EDGE( '', *, *, #258, .T. );
#167 = ORIENTED_EDGE( '', *, *, #259, .T. );
#168 = ORIENTED_EDGE( '', *, *, #260, .T. );
#169 = ORIENTED_EDGE( '', *, *, #261, .T. );
#170 = ORIENTED_EDGE( '', *, *, #262, .T. );
#171 = ORIENTED_EDGE( '', *, *, #263, .T. );
#172 = ORIENTED_EDGE( '', *, *, #264, .T. );
#173 = ORIENTED_EDGE( '', *, *, #265, .T. );
#174 = CARTESIAN_POINT( '', ( 0.000000000000000, 0.000000000000000, 57.1500000000000 ) );
#175 = DIRECTION( '', ( -0.000000000000000, -0.000000000000000, -1.00000000000000 ) );
#176 = DIRECTION( '', ( 1.00000000000000, 0.000000000000000, 0.000000000000000 ) );
#177 = SURFACE_STYLE_FILL_AREA( #266 );
#178 = ORIENTED_EDGE( '', *, *, #267, .F. );
#179 = ORIENTED_EDGE( '', *, *, #263, .F. );
#180 = ORIENTED_EDGE( '', *, *, #268, .F. );
#181 = ORIENTED_EDGE( '', *, *, #269, .F. );
#182 = CARTESIAN_POINT( '', ( 0.000000000000000, 0.000000000000000, 27.5000000000000 ) );
#183 = DIRECTION( '', ( -0.000000000000000, 0.000000000000000, -1.00000000000000 ) );
#184 = DIRECTION( '', ( -1.00000000000000, 0.000000000000000, 0.000000000000000 ) );
#185 = SURFACE_STYLE_FILL_AREA( #270 );
#186 = ORIENTED_EDGE( '', *, *, #271, .F. );
#187 = ORIENTED_EDGE( '', *, *, #259, .F. );
#188 = ORIENTED_EDGE( '', *, *, #272, .F. );
#189 = ORIENTED_EDGE( '', *, *, #273, .F. );
#190 = CARTESIAN_POINT( '', ( 0.000000000000000, 0.000000000000000, 27.5000000000000 ) );
#191 = DIRECTION( '', ( -0.000000000000000, 0.000000000000000, -1.00000000000000 ) );
#192 = DIRECTION( '', ( -1.00000000000000, 0.000000000000000, 0.000000000000000 ) );
#193 = SURFACE_STYLE_FILL_AREA( #274 );
#194 = ORIENTED_EDGE( '', *, *, #275, .T. );
#195 = ORIENTED_EDGE( '', *, *, #261, .F. );
#196 = ORIENTED_EDGE( '', *, *, #276, .F. );
#197 = ORIENTED_EDGE( '', *, *, #265, .F. );
#198 = CARTESIAN_POINT( '', ( -1.25000000000000, -10.0000000000000, 25.5000000000000 ) );
#199 = DIRECTION( '', ( 0.000000000000000, 0.000000000000000, 1.00000000000000 ) );
#200 = DIRECTION( '', ( 1.00000000000000, 0.000000000000000, 0.000000000000000 ) );
#201 = SURFACE_STYLE_FILL_AREA( #277 );
#202 = ORIENTED_EDGE( '', *, *, #278, .T. );
#203 = ORIENTED_EDGE( '', *, *, #279, .F. );
#204 = CARTESIAN_POINT( '', ( 4.76969600708473, 0.000000000000000, 3.50000000000000 ) );
#205 = DIRECTION( '', ( 0.000000000000000, 0.000000000000000, -1.00000000000000 ) );
#206 = DIRECTION( '', ( -1.00000000000000, 0.000000000000000, 0.000000000000000 ) );
#207 = SURFACE_STYLE_FILL_AREA( #280 );
#208 = ORIENTED_EDGE( '', *, *, #281, .T. );
#209 = ORIENTED_EDGE( '', *, *, #273, .T. );
#210 = CARTESIAN_POINT( '', ( 0.000000000000000, 0.000000000000000, 27.5000000000000 ) );
#211 = DIRECTION( '', ( 0.000000000000000, 0.000000000000000, 1.00000000000000 ) );
#212 = DIRECTION( '', ( 1.00000000000000, 0.000000000000000, 0.000000000000000 ) );
#213 = SURFACE_STYLE_FILL_AREA( #282 );
#214 = ORIENTED_EDGE( '', *, *, #283, .T. );
#215 = ORIENTED_EDGE( '', *, *, #268, .T. );
#216 = ORIENTED_EDGE( '', *, *, #262, .F. );
#217 = ORIENTED_EDGE( '', *, *, #275, .F. );
#218 = ORIENTED_EDGE( '', *, *, #264, .F. );
#219 = ORIENTED_EDGE( '', *, *, #267, .T. );
#220 = CARTESIAN_POINT( '', ( 1.25000000000000, -10.0000000000000, 25.5000000000000 ) );
#221 = DIRECTION( '', ( -1.00000000000000, 0.000000000000000, 0.000000000000000 ) );
#222 = DIRECTION( '', ( 0.000000000000000, 0.000000000000000, 1.00000000000000 ) );
#223 = SURFACE_STYLE_FILL_AREA( #284 );
#224 = ORIENTED_EDGE( '', *, *, #279, .T. );
#225 = ORIENTED_EDGE( '', *, *, #285, .F. );
#226 = CARTESIAN_POINT( '', ( 0.000000000000000, 0.000000000000000, 57.1500000000000 ) );
#227 = DIRECTION( '', ( -0.000000000000000, -0.000000000000000, -1.00000000000000 ) );
#228 = DIRECTION( '', ( 1.00000000000000, 0.000000000000000, 0.000000000000000 ) );
#229 = SURFACE_STYLE_FILL_AREA( #286 );
#230 = ORIENTED_EDGE( '', *, *, #281, .F. );
#231 = ORIENTED_EDGE( '', *, *, #272, .T. );
#232 = ORIENTED_EDGE( '', *, *, #258, .F. );
#233 = ORIENTED_EDGE( '', *, *, #276, .T. );
#234 = ORIENTED_EDGE( '', *, *, #260, .F. );
#235 = ORIENTED_EDGE( '', *, *, #271, .T. );
#236 = CARTESIAN_POINT( '', ( -1.25000000000000, -10.0000000000000, 27.5000000000000 ) );
#237 = DIRECTION( '', ( 1.00000000000000, 0.000000000000000, 0.000000000000000 ) );
#238 = DIRECTION( '', ( 0.000000000000000, 0.000000000000000, -1.00000000000000 ) );
#239 = SURFACE_STYLE_FILL_AREA( #287 );
#240 = ORIENTED_EDGE( '', *, *, #283, .F. );
#241 = ORIENTED_EDGE( '', *, *, #269, .T. );
#242 = CARTESIAN_POINT( '', ( 0.000000000000000, 0.000000000000000, 27.5000000000000 ) );
#243 = DIRECTION( '', ( 0.000000000000000, 0.000000000000000, 1.00000000000000 ) );
#244 = DIRECTION( '', ( 1.00000000000000, 0.000000000000000, 0.000000000000000 ) );
#245 = SURFACE_STYLE_FILL_AREA( #288 );
#246 = ORIENTED_EDGE( '', *, *, #278, .F. );
#247 = CARTESIAN_POINT( '', ( 0.000000000000000, 0.000000000000000, 5.00000000000000 ) );
#248 = DIRECTION( '', ( 0.000000000000000, 0.000000000000000, 1.00000000000000 ) );
#249 = DIRECTION( '', ( 1.00000000000000, 0.000000000000000, 0.000000000000000 ) );
#250 = SURFACE_STYLE_FILL_AREA( #289 );
#251 = ORIENTED_EDGE( '', *, *, #285, .T. );
#252 = ORIENTED_EDGE( '', *, *, #257, .F. );
#253 = CARTESIAN_POINT( '', ( 0.000000000000000, 0.000000000000000, 5.00000000000000 ) );
#254 = DIRECTION( '', ( -0.000000000000000, -0.000000000000000, 1.00000000000000 ) );
#255 = DIRECTION( '', ( 1.00000000000000, 0.000000000000000, 0.000000000000000 ) );
#256 = FILL_AREA_STYLE( '', ( #290 ) );
#257 = EDGE_CURVE( '', #291, #291, #292, .T. );
#258 = EDGE_CURVE( '', #293, #294, #295, .T. );
#259 = EDGE_CURVE( '', #294, #296, #297, .F. );
#260 = EDGE_CURVE( '', #296, #298, #299, .F. );
#261 = EDGE_CURVE( '', #298, #300, #301, .F. );
#262 = EDGE_CURVE( '', #300, #302, #303, .T. );
#263 = EDGE_CURVE( '', #302, #304, #305, .F. );
#264 = EDGE_CURVE( '', #304, #306, #307, .F. );
#265 = EDGE_CURVE( '', #306, #293, #308, .F. );
#266 = FILL_AREA_STYLE( '', ( #309 ) );
#267 = EDGE_CURVE( '', #304, #310, #311, .T. );
#268 = EDGE_CURVE( '', #312, #302, #313, .T. );
#269 = EDGE_CURVE( '', #310, #312, #314, .T. );
#270 = FILL_AREA_STYLE( '', ( #315 ) );
#271 = EDGE_CURVE( '', #296, #316, #317, .T. );
#272 = EDGE_CURVE( '', #318, #294, #319, .T. );
#273 = EDGE_CURVE( '', #316, #318, #320, .T. );
#274 = FILL_AREA_STYLE( '', ( #321 ) );
#275 = EDGE_CURVE( '', #306, #300, #322, .T. );
#276 = EDGE_CURVE( '', #293, #298, #323, .T. );
#277 = FILL_AREA_STYLE( '', ( #324 ) );
#278 = EDGE_CURVE( '', #325, #325, #326, .T. );
#279 = EDGE_CURVE( '', #327, #327, #328, .T. );
#280 = FILL_AREA_STYLE( '', ( #329 ) );
#281 = EDGE_CURVE( '', #318, #316, #330, .T. );
#282 = FILL_AREA_STYLE( '', ( #331 ) );
#283 = EDGE_CURVE( '', #310, #312, #332, .T. );
#284 = FILL_AREA_STYLE( '', ( #333 ) );
#285 = EDGE_CURVE( '', #334, #334, #335, .T. );
#286 = FILL_AREA_STYLE( '', ( #336 ) );
#287 = FILL_AREA_STYLE( '', ( #337 ) );
#288 = FILL_AREA_STYLE( '', ( #338 ) );
#289 = FILL_AREA_STYLE( '', ( #339 ) );
#290 = FILL_AREA_STYLE_COLOUR( '', #340 );
#291 = VERTEX_POINT( '', #341 );
#292 = CIRCLE( '', #342, 8.00000000000000 );
#293 = VERTEX_POINT( '', #343 );
#294 = VERTEX_POINT( '', #344 );
#295 = LINE( '', #345, #346 );
#296 = VERTEX_POINT( '', #347 );
#297 = CIRCLE( '', #348, 8.00000000000000 );
#298 = VERTEX_POINT( '', #349 );
#299 = LINE( '', #350, #351 );
#300 = VERTEX_POINT( '', #352 );
#301 = CIRCLE( '', #353, 8.00000000000000 );
#302 = VERTEX_POINT( '', #354 );
#303 = LINE( '', #355, #356 );
#304 = VERTEX_POINT( '', #357 );
#305 = CIRCLE( '', #358, 8.00000000000000 );
#306 = VERTEX_POINT( '', #359 );
#307 = LINE( '', #360, #361 );
#308 = CIRCLE( '', #362, 8.00000000000000 );
#309 = FILL_AREA_STYLE_COLOUR( '', #363 );
#310 = VERTEX_POINT( '', #364 );
#311 = B_SPLINE_CURVE_WITH_KNOTS( '', 3, ( #365, #366, #367, #368 ), .UNSPECIFIED., .F., .F., ( 4, 4 ), ( 0.000000000000000, 0.00142432665672917 ), .UNSPECIFIED. );
#312 = VERTEX_POINT( '', #369 );
#313 = B_SPLINE_CURVE_WITH_KNOTS( '', 3, ( #370, #371, #372, #373 ), .UNSPECIFIED., .F., .F., ( 4, 4 ), ( 0.000000000000000, 0.00142432665672917 ), .UNSPECIFIED. );
#314 = CIRCLE( '', #374, 7.00000000000000 );
#315 = FILL_AREA_STYLE_COLOUR( '', #375 );
#316 = VERTEX_POINT( '', #376 );
#317 = B_SPLINE_CURVE_WITH_KNOTS( '', 3, ( #377, #378, #379, #380 ), .UNSPECIFIED., .F., .F., ( 4, 4 ), ( 0.000000000000000, 0.00142432665672917 ), .UNSPECIFIED. );
#318 = VERTEX_POINT( '', #381 );
#319 = B_SPLINE_CURVE_WITH_KNOTS( '', 3, ( #382, #383, #384, #385 ), .UNSPECIFIED., .F., .F., ( 4, 4 ), ( 0.000000000000000, 0.00142432665672917 ), .UNSPECIFIED. );
#320 = CIRCLE( '', #386, 7.00000000000000 );
#321 = FILL_AREA_STYLE_COLOUR( '', #387 );
#322 = LINE( '', #388, #389 );
#323 = LINE( '', #390, #391 );
#324 = FILL_AREA_STYLE_COLOUR( '', #392 );
#325 = VERTEX_POINT( '', #393 );
#326 = CIRCLE( '', #394, 4.76969600708473 );
#327 = VERTEX_POINT( '', #395 );
#328 = CIRCLE( '', #396, 7.50000000000000 );
#329 = FILL_AREA_STYLE_COLOUR( '', #397 );
#330 = LINE( '', #398, #399 );
#331 = FILL_AREA_STYLE_COLOUR( '', #400 );
#332 = LINE( '', #401, #402 );
#333 = FILL_AREA_STYLE_COLOUR( '', #403 );
#334 = VERTEX_POINT( '', #404 );
#335 = CIRCLE( '', #405, 7.50000000000000 );
#336 = FILL_AREA_STYLE_COLOUR( '', #406 );
#337 = FILL_AREA_STYLE_COLOUR( '', #407 );
#338 = FILL_AREA_STYLE_COLOUR( '', #408 );
#339 = FILL_AREA_STYLE_COLOUR( '', #409 );
#340 = COLOUR_RGB( '', 0.752941191196442, 0.752941191196442, 0.752941191196442 );
#341 = CARTESIAN_POINT( '', ( 8.00000000000000, 0.000000000000000, 5.00000000000000 ) );
#342 = AXIS2_PLACEMENT_3D( '', #410, #411, #412 );
#343 = CARTESIAN_POINT( '', ( -1.25000000000000, -7.90174031463956, 25.5000000000000 ) );
#344 = CARTESIAN_POINT( '', ( -1.25000000000000, -7.90174031463956, 26.5000000000000 ) );
#345 = CARTESIAN_POINT( '', ( -1.25000000000000, -7.90174031463956, 57.1500000000000 ) );
#346 = VECTOR( '', #413, 1000.00000000000 );
#347 = CARTESIAN_POINT( '', ( -1.25000000000000, 7.90174031463956, 26.5000000000000 ) );
#348 = AXIS2_PLACEMENT_3D( '', #414, #415, #416 );
#349 = CARTESIAN_POINT( '', ( -1.25000000000000, 7.90174031463956, 25.5000000000000 ) );
#350 = CARTESIAN_POINT( '', ( -1.25000000000000, 7.90174031463956, 57.1500000000000 ) );
#351 = VECTOR( '', #417, 1000.00000000000 );
#352 = CARTESIAN_POINT( '', ( 1.25000000000000, 7.90174031463956, 25.5000000000000 ) );
#353 = AXIS2_PLACEMENT_3D( '', #418, #419, #420 );
#354 = CARTESIAN_POINT( '', ( 1.25000000000000, 7.90174031463956, 26.5000000000000 ) );
#355 = CARTESIAN_POINT( '', ( 1.25000000000000, 7.90174031463956, 57.1500000000000 ) );
#356 = VECTOR( '', #421, 1000.00000000000 );
#357 = CARTESIAN_POINT( '', ( 1.25000000000000, -7.90174031463956, 26.5000000000000 ) );
#358 = AXIS2_PLACEMENT_3D( '', #422, #423, #424 );
#359 = CARTESIAN_POINT( '', ( 1.25000000000000, -7.90174031463956, 25.5000000000000 ) );
#360 = CARTESIAN_POINT( '', ( 1.25000000000000, -7.90174031463956, 57.1500000000000 ) );
#361 = VECTOR( '', #425, 1000.00000000000 );
#362 = AXIS2_PLACEMENT_3D( '', #426, #427, #428 );
#363 = COLOUR_RGB( '', 0.200000002980232, 0.200000002980232, 0.200000002980232 );
#364 = CARTESIAN_POINT( '', ( 1.25000000000000, -6.88748865697796, 27.5000000000000 ) );
#365 = CARTESIAN_POINT( '', ( 1.25000000000000, -7.90174031463956, 26.5000000000000 ) );
#366 = CARTESIAN_POINT( '', ( 1.25000000000000, -7.56395529553140, 26.8336361878960 ) );
#367 = CARTESIAN_POINT( '', ( 1.25000000000000, -7.22591441934521, 27.1670137714952 ) );
#368 = CARTESIAN_POINT( '', ( 1.25000000000000, -6.88748865697796, 27.5000000000000 ) );
#369 = CARTESIAN_POINT( '', ( 1.25000000000000, 6.88748865697796, 27.5000000000000 ) );
#370 = CARTESIAN_POINT( '', ( 1.25000000000000, 6.88748865697796, 27.5000000000000 ) );
#371 = CARTESIAN_POINT( '', ( 1.25000000000000, 7.22591441934521, 27.1670137714952 ) );
#372 = CARTESIAN_POINT( '', ( 1.25000000000000, 7.56395529553140, 26.8336361878960 ) );
#373 = CARTESIAN_POINT( '', ( 1.25000000000000, 7.90174031463956, 26.5000000000000 ) );
#374 = AXIS2_PLACEMENT_3D( '', #429, #430, #431 );
#375 = COLOUR_RGB( '', 0.200000002980232, 0.200000002980232, 0.200000002980232 );
#376 = CARTESIAN_POINT( '', ( -1.25000000000000, 6.88748865697796, 27.5000000000000 ) );
#377 = CARTESIAN_POINT( '', ( -1.25000000000000, 7.90174031463956, 26.5000000000000 ) );
#378 = CARTESIAN_POINT( '', ( -1.25000000000000, 7.56395529553140, 26.8336361878960 ) );
#379 = CARTESIAN_POINT( '', ( -1.25000000000000, 7.22591441934521, 27.1670137714952 ) );
#380 = CARTESIAN_POINT( '', ( -1.25000000000000, 6.88748865697796, 27.5000000000000 ) );
#381 = CARTESIAN_POINT( '', ( -1.25000000000000, -6.88748865697796, 27.5000000000000 ) );
#382 = CARTESIAN_POINT( '', ( -1.25000000000000, -6.88748865697796, 27.5000000000000 ) );
#383 = CARTESIAN_POINT( '', ( -1.25000000000000, -7.22591441934521, 27.1670137714952 ) );
#384 = CARTESIAN_POINT( '', ( -1.25000000000000, -7.56395529553140, 26.8336361878960 ) );
#385 = CARTESIAN_POINT( '', ( -1.25000000000000, -7.90174031463956, 26.5000000000000 ) );
#386 = AXIS2_PLACEMENT_3D( '', #432, #433, #434 );
#387 = COLOUR_RGB( '', 0.200000002980232, 0.200000002980232, 0.200000002980232 );
#388 = CARTESIAN_POINT( '', ( 1.25000000000000, -10.0000000000000, 25.5000000000000 ) );
#389 = VECTOR( '', #435, 1000.00000000000 );
#390 = CARTESIAN_POINT( '', ( -1.25000000000000, -10.0000000000000, 25.5000000000000 ) );
#391 = VECTOR( '', #436, 1000.00000000000 );
#392 = COLOUR_RGB( '', 0.200000002980232, 0.200000002980232, 0.200000002980232 );
#393 = CARTESIAN_POINT( '', ( 4.76969600708473, 0.000000000000000, 3.50000000000000 ) );
#394 = AXIS2_PLACEMENT_3D( '', #437, #438, #439 );
#395 = CARTESIAN_POINT( '', ( 7.50000000000000, 0.000000000000000, 3.50000000000000 ) );
#396 = AXIS2_PLACEMENT_3D( '', #440, #441, #442 );
#397 = COLOUR_RGB( '', 0.200000002980232, 0.200000002980232, 0.200000002980232 );
#398 = CARTESIAN_POINT( '', ( -1.25000000000000, -10.0000000000000, 27.5000000000000 ) );
#399 = VECTOR( '', #443, 1000.00000000000 );
#400 = COLOUR_RGB( '', 0.200000002980232, 0.200000002980232, 0.200000002980232 );
#401 = CARTESIAN_POINT( '', ( 1.25000000000000, -10.0000000000000, 27.5000000000000 ) );
#402 = VECTOR( '', #444, 1000.00000000000 );
#403 = COLOUR_RGB( '', 0.200000002980232, 0.200000002980232, 0.200000002980232 );
#404 = CARTESIAN_POINT( '', ( 7.50000000000000, 0.000000000000000, 4.50000000000000 ) );
#405 = AXIS2_PLACEMENT_3D( '', #445, #446, #447 );
#406 = COLOUR_RGB( '', 0.200000002980232, 0.200000002980232, 0.200000002980232 );
#407 = COLOUR_RGB( '', 0.200000002980232, 0.200000002980232, 0.200000002980232 );
#408 = COLOUR_RGB( '', 0.200000002980232, 0.200000002980232, 0.200000002980232 );
#409 = COLOUR_RGB( '', 0.200000002980232, 0.200000002980232, 0.200000002980232 );
#410 = CARTESIAN_POINT( '', ( 0.000000000000000, 0.000000000000000, 5.00000000000000 ) );
#411 = DIRECTION( '', ( 0.000000000000000, 0.000000000000000, 1.00000000000000 ) );
#412 = DIRECTION( '', ( 1.00000000000000, 0.000000000000000, 0.000000000000000 ) );
#413 = DIRECTION( '', ( 0.000000000000000, 0.000000000000000, 1.00000000000000 ) );
#414 = CARTESIAN_POINT( '', ( 0.000000000000000, 0.000000000000000, 26.5000000000000 ) );
#415 = DIRECTION( '', ( 0.000000000000000, 0.000000000000000, 1.00000000000000 ) );
#416 = DIRECTION( '', ( 1.00000000000000, 0.000000000000000, 0.000000000000000 ) );
#417 = DIRECTION( '', ( 0.000000000000000, 0.000000000000000, 1.00000000000000 ) );
#418 = CARTESIAN_POINT( '', ( 0.000000000000000, 0.000000000000000, 25.5000000000000 ) );
#419 = DIRECTION( '', ( 0.000000000000000, 0.000000000000000, 1.00000000000000 ) );
#420 = DIRECTION( '', ( 1.00000000000000, 0.000000000000000, 0.000000000000000 ) );
#421 = DIRECTION( '', ( 0.000000000000000, 0.000000000000000, 1.00000000000000 ) );
#422 = CARTESIAN_POINT( '', ( 0.000000000000000, 0.000000000000000, 26.5000000000000 ) );
#423 = DIRECTION( '', ( 0.000000000000000, 0.000000000000000, 1.00000000000000 ) );
#424 = DIRECTION( '', ( 1.00000000000000, 0.000000000000000, 0.000000000000000 ) );
#425 = DIRECTION( '', ( 0.000000000000000, 0.000000000000000, 1.00000000000000 ) );
#426 = CARTESIAN_POINT( '', ( 0.000000000000000, 0.000000000000000, 25.5000000000000 ) );
#427 = DIRECTION( '', ( 0.000000000000000, 0.000000000000000, 1.00000000000000 ) );
#428 = DIRECTION( '', ( 1.00000000000000, 0.000000000000000, 0.000000000000000 ) );
#429 = CARTESIAN_POINT( '', ( 0.000000000000000, 0.000000000000000, 27.5000000000000 ) );
#430 = DIRECTION( '', ( 0.000000000000000, 0.000000000000000, 1.00000000000000 ) );
#431 = DIRECTION( '', ( 1.00000000000000, 0.000000000000000, 0.000000000000000 ) );
#432 = CARTESIAN_POINT( '', ( 0.000000000000000, 0.000000000000000, 27.5000000000000 ) );
#433 = DIRECTION( '', ( 0.000000000000000, 0.000000000000000, 1.00000000000000 ) );
#434 = DIRECTION( '', ( 1.00000000000000, 0.000000000000000, 0.000000000000000 ) );
#435 = DIRECTION( '', ( 0.000000000000000, 1.00000000000000, 0.000000000000000 ) );
#436 = DIRECTION( '', ( 0.000000000000000, 1.00000000000000, 0.000000000000000 ) );
#437 = CARTESIAN_POINT( '', ( 0.000000000000000, 0.000000000000000, 3.50000000000000 ) );
#438 = DIRECTION( '', ( 0.000000000000000, 0.000000000000000, 1.00000000000000 ) );
#439 = DIRECTION( '', ( 1.00000000000000, 0.000000000000000, 0.000000000000000 ) );
#440 = CARTESIAN_POINT( '', ( 0.000000000000000, 0.000000000000000, 3.50000000000000 ) );
#441 = DIRECTION( '', ( 0.000000000000000, 0.000000000000000, 1.00000000000000 ) );
#442 = DIRECTION( '', ( 1.00000000000000, 0.000000000000000, 0.000000000000000 ) );
#443 = DIRECTION( '', ( 0.000000000000000, 1.00000000000000, 0.000000000000000 ) );
#444 = DIRECTION( '', ( 0.000000000000000, 1.00000000000000, 0.000000000000000 ) );
#445 = CARTESIAN_POINT( '', ( 0.000000000000000, 0.000000000000000, 4.50000000000000 ) );
#446 = DIRECTION( '', ( 0.000000000000000, 0.000000000000000, 1.00000000000000 ) );
#447 = DIRECTION( '', ( 1.00000000000000, 0.000000000000000, 0.000000000000000 ) );
ENDSEC;
END-ISO-10303-21;
