ISO-10303-21;
HEADER;
FILE_DESCRIPTION( ( 'Unknown' ), '1' );
FILE_NAME( '//SBS2003/HD_Usb/Disegni/08_LIB/Users_3D/PROD_GAMM_3D/APS-I/7747505_APS_7_I.stp', 'Unknown', ( 'Unknown' ), ( 'Unknown' ), 'PSStep 14.0', 'Unknown', '  ' );
FILE_SCHEMA( ( 'AUTOMOTIVE_DESIGN { 1 0 10303 214 1 1 1 1 }' ) );
ENDSEC;
DATA;
#1 = MECHANICAL_DESIGN_GEOMETRIC_PRESENTATION_REPRESENTATION( ' ', ( #10, #11, #12, #13, #14, #15, #16, #17, #18, #19, #20, #21 ), #6 );
#2 = PRODUCT_DEFINITION_CONTEXT( '', #22, 'design' );
#3 = APPLICATION_PROTOCOL_DEFINITION( 'international standard', 'automotive_design', 2001, #22 );
#4 = PRODUCT_CATEGORY_RELATIONSHIP( 'NONE', 'NONE', #23, #24 );
#5 = SHAPE_DEFINITION_REPRESENTATION( #25, #26 );
#6 =  ( GEOMETRIC_REPRESENTATION_CONTEXT( 3 )GLOBAL_UNCERTAINTY_ASSIGNED_CONTEXT( ( #29 ) )GLOBAL_UNIT_ASSIGNED_CONTEXT( ( #31, #32, #33 ) )REPRESENTATION_CONTEXT( 'NONE', 'WORKSPACE' ) );
#10 = STYLED_ITEM( '', ( #35 ), #36 );
#11 = STYLED_ITEM( '', ( #37 ), #38 );
#12 = STYLED_ITEM( '', ( #39 ), #40 );
#13 = STYLED_ITEM( '', ( #41 ), #42 );
#14 = STYLED_ITEM( '', ( #43 ), #44 );
#15 = STYLED_ITEM( '', ( #45 ), #46 );
#16 = STYLED_ITEM( '', ( #47 ), #48 );
#17 = STYLED_ITEM( '', ( #49 ), #50 );
#18 = STYLED_ITEM( '', ( #51 ), #52 );
#19 = STYLED_ITEM( '', ( #53 ), #54 );
#20 = STYLED_ITEM( '', ( #55 ), #56 );
#21 = STYLED_ITEM( '', ( #57 ), #58 );
#22 = APPLICATION_CONTEXT( 'core data for automotive mechanical design processes' );
#23 = PRODUCT_CATEGORY( 'part', 'NONE' );
#24 = PRODUCT_RELATED_PRODUCT_CATEGORY( 'detail', ' ', ( #59 ) );
#25 = PRODUCT_DEFINITION_SHAPE( 'NONE', 'NONE', #60 );
#26 = ADVANCED_BREP_SHAPE_REPRESENTATION( '1', ( #61, #62 ), #6 );
#29 = UNCERTAINTY_MEASURE_WITH_UNIT( LENGTH_MEASURE( 0.00100000000000000 ), #31, '', '' );
#31 =  ( CONVERSION_BASED_UNIT( 'MILLIMETRE', #65 )LENGTH_UNIT(  )NAMED_UNIT( #68 ) );
#32 =  ( NAMED_UNIT( #70 )PLANE_ANGLE_UNIT(  )SI_UNIT( $, .RADIAN. ) );
#33 =  ( NAMED_UNIT( #70 )SI_UNIT( $, .STERADIAN. )SOLID_ANGLE_UNIT(  ) );
#35 = PRESENTATION_STYLE_ASSIGNMENT( ( #76 ) );
#36 = ADVANCED_FACE( '', ( #77, #78 ), #79, .T. );
#37 = PRESENTATION_STYLE_ASSIGNMENT( ( #80 ) );
#38 = ADVANCED_FACE( '', ( #81 ), #82, .T. );
#39 = PRESENTATION_STYLE_ASSIGNMENT( ( #83 ) );
#40 = ADVANCED_FACE( '', ( #84, #85 ), #86, .T. );
#41 = PRESENTATION_STYLE_ASSIGNMENT( ( #87 ) );
#42 = ADVANCED_FACE( '', ( #88, #89 ), #90, .T. );
#43 = PRESENTATION_STYLE_ASSIGNMENT( ( #91 ) );
#44 = ADVANCED_FACE( '', ( #92 ), #93, .T. );
#45 = PRESENTATION_STYLE_ASSIGNMENT( ( #94 ) );
#46 = ADVANCED_FACE( '', ( #95, #96 ), #97, .T. );
#47 = PRESENTATION_STYLE_ASSIGNMENT( ( #98 ) );
#48 = ADVANCED_FACE( '', ( #99 ), #100, .T. );
#49 = PRESENTATION_STYLE_ASSIGNMENT( ( #101 ) );
#50 = ADVANCED_FACE( '', ( #102 ), #103, .T. );
#51 = PRESENTATION_STYLE_ASSIGNMENT( ( #104 ) );
#52 = ADVANCED_FACE( '', ( #105 ), #106, .T. );
#53 = PRESENTATION_STYLE_ASSIGNMENT( ( #107 ) );
#54 = ADVANCED_FACE( '', ( #108 ), #109, .T. );
#55 = PRESENTATION_STYLE_ASSIGNMENT( ( #110 ) );
#56 = ADVANCED_FACE( '', ( #111 ), #112, .T. );
#57 = PRESENTATION_STYLE_ASSIGNMENT( ( #113 ) );
#58 = ADVANCED_FACE( '', ( #114 ), #115, .T. );
#59 = PRODUCT( '1', '1', 'PART-1-DESC', ( #116 ) );
#60 = PRODUCT_DEFINITION( 'NONE', 'NONE', #117, #2 );
#61 = MANIFOLD_SOLID_BREP( '1', #118 );
#62 = AXIS2_PLACEMENT_3D( '', #119, #120, #121 );
#65 = LENGTH_MEASURE_WITH_UNIT( LENGTH_MEASURE( 1.00000000000000 ), #122 );
#68 = DIMENSIONAL_EXPONENTS( 1.00000000000000, 0.000000000000000, 0.000000000000000, 0.000000000000000, 0.000000000000000, 0.000000000000000, 0.000000000000000 );
#70 = DIMENSIONAL_EXPONENTS( 0.000000000000000, 0.000000000000000, 0.000000000000000, 0.000000000000000, 0.000000000000000, 0.000000000000000, 0.000000000000000 );
#76 = SURFACE_STYLE_USAGE( .BOTH., #123 );
#77 = FACE_BOUND( '', #124, .T. );
#78 = FACE_OUTER_BOUND( '', #125, .T. );
#79 = PLANE( '', #126 );
#80 = SURFACE_STYLE_USAGE( .BOTH., #127 );
#81 = FACE_OUTER_BOUND( '', #128, .T. );
#82 = CONICAL_SURFACE( '', #129, 1.20000000000000, 0.785398163397446 );
#83 = SURFACE_STYLE_USAGE( .BOTH., #130 );
#84 = FACE_BOUND( '', #131, .T. );
#85 = FACE_OUTER_BOUND( '', #132, .T. );
#86 = CONICAL_SURFACE( '', #133, 1.50000000000000, 0.785398163397449 );
#87 = SURFACE_STYLE_USAGE( .BOTH., #134 );
#88 = FACE_OUTER_BOUND( '', #135, .T. );
#89 = FACE_OUTER_BOUND( '', #136, .T. );
#90 = CYLINDRICAL_SURFACE( '', #137, 1.50000000000000 );
#91 = SURFACE_STYLE_USAGE( .BOTH., #138 );
#92 = FACE_OUTER_BOUND( '', #139, .T. );
#93 = PLANE( '', #140 );
#94 = SURFACE_STYLE_USAGE( .BOTH., #141 );
#95 = FACE_OUTER_BOUND( '', #142, .T. );
#96 = FACE_OUTER_BOUND( '', #143, .T. );
#97 = CYLINDRICAL_SURFACE( '', #144, 1.00000000000000 );
#98 = SURFACE_STYLE_USAGE( .BOTH., #145 );
#99 = FACE_OUTER_BOUND( '', #146, .T. );
#100 = CONICAL_SURFACE( '', #147, 1.20000000000000, 0.785398163397446 );
#101 = SURFACE_STYLE_USAGE( .BOTH., #148 );
#102 = FACE_OUTER_BOUND( '', #149, .T. );
#103 = PLANE( '', #150 );
#104 = SURFACE_STYLE_USAGE( .BOTH., #151 );
#105 = FACE_OUTER_BOUND( '', #152, .T. );
#106 = PLANE( '', #153 );
#107 = SURFACE_STYLE_USAGE( .BOTH., #154 );
#108 = FACE_OUTER_BOUND( '', #155, .T. );
#109 = SPHERICAL_SURFACE( '', #156, 0.750000000000000 );
#110 = SURFACE_STYLE_USAGE( .BOTH., #157 );
#111 = FACE_OUTER_BOUND( '', #158, .T. );
#112 = PLANE( '', #159 );
#113 = SURFACE_STYLE_USAGE( .BOTH., #160 );
#114 = FACE_OUTER_BOUND( '', #161, .T. );
#115 = PLANE( '', #162 );
#116 = PRODUCT_CONTEXT( '', #22, 'mechanical' );
#117 = PRODUCT_DEFINITION_FORMATION_WITH_SPECIFIED_SOURCE( ' ', 'NONE', #59, .NOT_KNOWN. );
#118 = CLOSED_SHELL( '', ( #44, #48, #42, #52, #50, #56, #38, #58, #40, #46, #36, #54 ) );
#119 = CARTESIAN_POINT( '', ( 0.000000000000000, 0.000000000000000, 0.000000000000000 ) );
#120 = DIRECTION( '', ( 0.000000000000000, 0.000000000000000, 1.00000000000000 ) );
#121 = DIRECTION( '', ( 1.00000000000000, 0.000000000000000, 0.000000000000000 ) );
#122 =  ( LENGTH_UNIT(  )NAMED_UNIT( #68 )SI_UNIT( .MILLI., .METRE. ) );
#123 = SURFACE_SIDE_STYLE( '', ( #164 ) );
#124 = EDGE_LOOP( '', ( #165 ) );
#125 = EDGE_LOOP( '', ( #166 ) );
#126 = AXIS2_PLACEMENT_3D( '', #167, #168, #169 );
#127 = SURFACE_SIDE_STYLE( '', ( #170 ) );
#128 = EDGE_LOOP( '', ( #171, #172, #173, #174 ) );
#129 = AXIS2_PLACEMENT_3D( '', #175, #176, #177 );
#130 = SURFACE_SIDE_STYLE( '', ( #178 ) );
#131 = EDGE_LOOP( '', ( #179 ) );
#132 = EDGE_LOOP( '', ( #180 ) );
#133 = AXIS2_PLACEMENT_3D( '', #181, #182, #183 );
#134 = SURFACE_SIDE_STYLE( '', ( #184 ) );
#135 = EDGE_LOOP( '', ( #185 ) );
#136 = EDGE_LOOP( '', ( #186, #187, #188, #189, #190, #191, #192, #193 ) );
#137 = AXIS2_PLACEMENT_3D( '', #194, #195, #196 );
#138 = SURFACE_SIDE_STYLE( '', ( #197 ) );
#139 = EDGE_LOOP( '', ( #198, #199 ) );
#140 = AXIS2_PLACEMENT_3D( '', #200, #201, #202 );
#141 = SURFACE_SIDE_STYLE( '', ( #203 ) );
#142 = EDGE_LOOP( '', ( #204 ) );
#143 = EDGE_LOOP( '', ( #205 ) );
#144 = AXIS2_PLACEMENT_3D( '', #206, #207, #208 );
#145 = SURFACE_SIDE_STYLE( '', ( #209 ) );
#146 = EDGE_LOOP( '', ( #210, #211, #212, #213 ) );
#147 = AXIS2_PLACEMENT_3D( '', #214, #215, #216 );
#148 = SURFACE_SIDE_STYLE( '', ( #217 ) );
#149 = EDGE_LOOP( '', ( #218, #219, #220, #221, #222, #223 ) );
#150 = AXIS2_PLACEMENT_3D( '', #224, #225, #226 );
#151 = SURFACE_SIDE_STYLE( '', ( #227 ) );
#152 = EDGE_LOOP( '', ( #228, #229, #230, #231 ) );
#153 = AXIS2_PLACEMENT_3D( '', #232, #233, #234 );
#154 = SURFACE_SIDE_STYLE( '', ( #235 ) );
#155 = EDGE_LOOP( '', ( #236 ) );
#156 = AXIS2_PLACEMENT_3D( '', #237, #238, #239 );
#157 = SURFACE_SIDE_STYLE( '', ( #240 ) );
#158 = EDGE_LOOP( '', ( #241, #242, #243, #244, #245, #246 ) );
#159 = AXIS2_PLACEMENT_3D( '', #247, #248, #249 );
#160 = SURFACE_SIDE_STYLE( '', ( #250 ) );
#161 = EDGE_LOOP( '', ( #251, #252 ) );
#162 = AXIS2_PLACEMENT_3D( '', #253, #254, #255 );
#164 = SURFACE_STYLE_FILL_AREA( #256 );
#165 = ORIENTED_EDGE( '', *, *, #257, .T. );
#166 = ORIENTED_EDGE( '', *, *, #258, .F. );
#167 = CARTESIAN_POINT( '', ( 0.707106781186548, 0.000000000000000, 0.500000000000000 ) );
#168 = DIRECTION( '', ( 0.000000000000000, 0.000000000000000, -1.00000000000000 ) );
#169 = DIRECTION( '', ( -1.00000000000000, 0.000000000000000, 0.000000000000000 ) );
#170 = SURFACE_STYLE_FILL_AREA( #259 );
#171 = ORIENTED_EDGE( '', *, *, #260, .F. );
#172 = ORIENTED_EDGE( '', *, *, #261, .F. );
#173 = ORIENTED_EDGE( '', *, *, #262, .F. );
#174 = ORIENTED_EDGE( '', *, *, #263, .F. );
#175 = CARTESIAN_POINT( '', ( 0.000000000000000, 0.000000000000000, 7.50000000000000 ) );
#176 = DIRECTION( '', ( -0.000000000000000, 0.000000000000000, -1.00000000000000 ) );
#177 = DIRECTION( '', ( -1.00000000000000, 0.000000000000000, 0.000000000000000 ) );
#178 = SURFACE_STYLE_FILL_AREA( #264 );
#179 = ORIENTED_EDGE( '', *, *, #265, .T. );
#180 = ORIENTED_EDGE( '', *, *, #266, .F. );
#181 = CARTESIAN_POINT( '', ( 0.000000000000000, 0.000000000000000, 1.50000000000000 ) );
#182 = DIRECTION( '', ( -0.000000000000000, -0.000000000000000, 1.00000000000000 ) );
#183 = DIRECTION( '', ( 1.00000000000000, 0.000000000000000, 0.000000000000000 ) );
#184 = SURFACE_STYLE_FILL_AREA( #267 );
#185 = ORIENTED_EDGE( '', *, *, #266, .T. );
#186 = ORIENTED_EDGE( '', *, *, #268, .T. );
#187 = ORIENTED_EDGE( '', *, *, #261, .T. );
#188 = ORIENTED_EDGE( '', *, *, #269, .T. );
#189 = ORIENTED_EDGE( '', *, *, #270, .T. );
#190 = ORIENTED_EDGE( '', *, *, #271, .T. );
#191 = ORIENTED_EDGE( '', *, *, #272, .T. );
#192 = ORIENTED_EDGE( '', *, *, #273, .T. );
#193 = ORIENTED_EDGE( '', *, *, #274, .T. );
#194 = CARTESIAN_POINT( '', ( 0.000000000000000, 0.000000000000000, 57.1500000000000 ) );
#195 = DIRECTION( '', ( -0.000000000000000, -0.000000000000000, -1.00000000000000 ) );
#196 = DIRECTION( '', ( 1.00000000000000, 0.000000000000000, 0.000000000000000 ) );
#197 = SURFACE_STYLE_FILL_AREA( #275 );
#198 = ORIENTED_EDGE( '', *, *, #276, .T. );
#199 = ORIENTED_EDGE( '', *, *, #263, .T. );
#200 = CARTESIAN_POINT( '', ( 0.000000000000000, 0.000000000000000, 7.50000000000000 ) );
#201 = DIRECTION( '', ( 0.000000000000000, 0.000000000000000, 1.00000000000000 ) );
#202 = DIRECTION( '', ( 1.00000000000000, 0.000000000000000, 0.000000000000000 ) );
#203 = SURFACE_STYLE_FILL_AREA( #277 );
#204 = ORIENTED_EDGE( '', *, *, #258, .T. );
#205 = ORIENTED_EDGE( '', *, *, #265, .F. );
#206 = CARTESIAN_POINT( '', ( 0.000000000000000, 0.000000000000000, 57.1500000000000 ) );
#207 = DIRECTION( '', ( -0.000000000000000, -0.000000000000000, -1.00000000000000 ) );
#208 = DIRECTION( '', ( 1.00000000000000, 0.000000000000000, 0.000000000000000 ) );
#209 = SURFACE_STYLE_FILL_AREA( #278 );
#210 = ORIENTED_EDGE( '', *, *, #279, .F. );
#211 = ORIENTED_EDGE( '', *, *, #272, .F. );
#212 = ORIENTED_EDGE( '', *, *, #280, .F. );
#213 = ORIENTED_EDGE( '', *, *, #281, .F. );
#214 = CARTESIAN_POINT( '', ( 0.000000000000000, 0.000000000000000, 7.50000000000000 ) );
#215 = DIRECTION( '', ( -0.000000000000000, 0.000000000000000, -1.00000000000000 ) );
#216 = DIRECTION( '', ( -1.00000000000000, 0.000000000000000, 0.000000000000000 ) );
#217 = SURFACE_STYLE_FILL_AREA( #282 );
#218 = ORIENTED_EDGE( '', *, *, #283, .T. );
#219 = ORIENTED_EDGE( '', *, *, #280, .T. );
#220 = ORIENTED_EDGE( '', *, *, #271, .F. );
#221 = ORIENTED_EDGE( '', *, *, #284, .F. );
#222 = ORIENTED_EDGE( '', *, *, #273, .F. );
#223 = ORIENTED_EDGE( '', *, *, #279, .T. );
#224 = CARTESIAN_POINT( '', ( 0.250000000000000, -10.0000000000000, 7.00000000000000 ) );
#225 = DIRECTION( '', ( -1.00000000000000, 0.000000000000000, 1.08420217248550E-016 ) );
#226 = DIRECTION( '', ( 1.08420217248550E-016, 0.000000000000000, 1.00000000000000 ) );
#227 = SURFACE_STYLE_FILL_AREA( #285 );
#228 = ORIENTED_EDGE( '', *, *, #284, .T. );
#229 = ORIENTED_EDGE( '', *, *, #270, .F. );
#230 = ORIENTED_EDGE( '', *, *, #286, .F. );
#231 = ORIENTED_EDGE( '', *, *, #274, .F. );
#232 = CARTESIAN_POINT( '', ( -0.250000000000000, -10.0000000000000, 7.00000000000000 ) );
#233 = DIRECTION( '', ( 0.000000000000000, 0.000000000000000, 1.00000000000000 ) );
#234 = DIRECTION( '', ( 1.00000000000000, 0.000000000000000, 0.000000000000000 ) );
#235 = SURFACE_STYLE_FILL_AREA( #287 );
#236 = ORIENTED_EDGE( '', *, *, #257, .F. );
#237 = CARTESIAN_POINT( '', ( 0.000000000000000, 0.000000000000000, 0.750000000000000 ) );
#238 = DIRECTION( '', ( 0.000000000000000, 0.000000000000000, 1.00000000000000 ) );
#239 = DIRECTION( '', ( 1.00000000000000, 0.000000000000000, 0.000000000000000 ) );
#240 = SURFACE_STYLE_FILL_AREA( #288 );
#241 = ORIENTED_EDGE( '', *, *, #276, .F. );
#242 = ORIENTED_EDGE( '', *, *, #262, .T. );
#243 = ORIENTED_EDGE( '', *, *, #268, .F. );
#244 = ORIENTED_EDGE( '', *, *, #286, .T. );
#245 = ORIENTED_EDGE( '', *, *, #269, .F. );
#246 = ORIENTED_EDGE( '', *, *, #260, .T. );
#247 = CARTESIAN_POINT( '', ( -0.250000000000000, -10.0000000000000, 7.50000000000000 ) );
#248 = DIRECTION( '', ( 1.00000000000000, 0.000000000000000, -1.08420217248550E-016 ) );
#249 = DIRECTION( '', ( -1.08420217248550E-016, 0.000000000000000, -1.00000000000000 ) );
#250 = SURFACE_STYLE_FILL_AREA( #289 );
#251 = ORIENTED_EDGE( '', *, *, #283, .F. );
#252 = ORIENTED_EDGE( '', *, *, #281, .T. );
#253 = CARTESIAN_POINT( '', ( 0.000000000000000, 0.000000000000000, 7.50000000000000 ) );
#254 = DIRECTION( '', ( 0.000000000000000, 0.000000000000000, 1.00000000000000 ) );
#255 = DIRECTION( '', ( 1.00000000000000, 0.000000000000000, 0.000000000000000 ) );
#256 = FILL_AREA_STYLE( '', ( #290 ) );
#257 = EDGE_CURVE( '', #291, #291, #292, .T. );
#258 = EDGE_CURVE( '', #293, #293, #294, .T. );
#259 = FILL_AREA_STYLE( '', ( #295 ) );
#260 = EDGE_CURVE( '', #296, #297, #298, .T. );
#261 = EDGE_CURVE( '', #299, #296, #300, .F. );
#262 = EDGE_CURVE( '', #301, #299, #302, .T. );
#263 = EDGE_CURVE( '', #297, #301, #303, .T. );
#264 = FILL_AREA_STYLE( '', ( #304 ) );
#265 = EDGE_CURVE( '', #305, #305, #306, .T. );
#266 = EDGE_CURVE( '', #307, #307, #308, .T. );
#267 = FILL_AREA_STYLE( '', ( #309 ) );
#268 = EDGE_CURVE( '', #310, #299, #311, .T. );
#269 = EDGE_CURVE( '', #296, #312, #313, .F. );
#270 = EDGE_CURVE( '', #312, #314, #315, .F. );
#271 = EDGE_CURVE( '', #314, #316, #317, .T. );
#272 = EDGE_CURVE( '', #316, #318, #319, .F. );
#273 = EDGE_CURVE( '', #318, #320, #321, .F. );
#274 = EDGE_CURVE( '', #320, #310, #322, .F. );
#275 = FILL_AREA_STYLE( '', ( #323 ) );
#276 = EDGE_CURVE( '', #301, #297, #324, .T. );
#277 = FILL_AREA_STYLE( '', ( #325 ) );
#278 = FILL_AREA_STYLE( '', ( #326 ) );
#279 = EDGE_CURVE( '', #318, #327, #328, .T. );
#280 = EDGE_CURVE( '', #329, #316, #330, .T. );
#281 = EDGE_CURVE( '', #327, #329, #331, .T. );
#282 = FILL_AREA_STYLE( '', ( #332 ) );
#283 = EDGE_CURVE( '', #327, #329, #333, .T. );
#284 = EDGE_CURVE( '', #320, #314, #334, .T. );
#285 = FILL_AREA_STYLE( '', ( #335 ) );
#286 = EDGE_CURVE( '', #310, #312, #336, .T. );
#287 = FILL_AREA_STYLE( '', ( #337 ) );
#288 = FILL_AREA_STYLE( '', ( #338 ) );
#289 = FILL_AREA_STYLE( '', ( #339 ) );
#290 = FILL_AREA_STYLE_COLOUR( '', #340 );
#291 = VERTEX_POINT( '', #341 );
#292 = CIRCLE( '', #342, 0.707106781186548 );
#293 = VERTEX_POINT( '', #343 );
#294 = CIRCLE( '', #344, 1.00000000000000 );
#295 = FILL_AREA_STYLE_COLOUR( '', #345 );
#296 = VERTEX_POINT( '', #346 );
#297 = VERTEX_POINT( '', #347 );
#298 = B_SPLINE_CURVE_WITH_KNOTS( '', 3, ( #348, #349, #350, #351 ), .UNSPECIFIED., .F., .F., ( 4, 4 ), ( 0.000000000000000, 0.000428064153498906 ), .UNSPECIFIED. );
#299 = VERTEX_POINT( '', #352 );
#300 = CIRCLE( '', #353, 1.50000000000000 );
#301 = VERTEX_POINT( '', #354 );
#302 = B_SPLINE_CURVE_WITH_KNOTS( '', 3, ( #355, #356, #357, #358 ), .UNSPECIFIED., .F., .F., ( 4, 4 ), ( 0.000000000000000, 0.000428064153498906 ), .UNSPECIFIED. );
#303 = CIRCLE( '', #359, 1.20000000000000 );
#304 = FILL_AREA_STYLE_COLOUR( '', #360 );
#305 = VERTEX_POINT( '', #361 );
#306 = CIRCLE( '', #362, 1.00000000000000 );
#307 = VERTEX_POINT( '', #363 );
#308 = CIRCLE( '', #364, 1.50000000000000 );
#309 = FILL_AREA_STYLE_COLOUR( '', #365 );
#310 = VERTEX_POINT( '', #366 );
#311 = LINE( '', #367, #368 );
#312 = VERTEX_POINT( '', #369 );
#313 = LINE( '', #370, #371 );
#314 = VERTEX_POINT( '', #372 );
#315 = CIRCLE( '', #373, 1.50000000000000 );
#316 = VERTEX_POINT( '', #374 );
#317 = LINE( '', #375, #376 );
#318 = VERTEX_POINT( '', #377 );
#319 = CIRCLE( '', #378, 1.50000000000000 );
#320 = VERTEX_POINT( '', #379 );
#321 = LINE( '', #380, #381 );
#322 = CIRCLE( '', #382, 1.50000000000000 );
#323 = FILL_AREA_STYLE_COLOUR( '', #383 );
#324 = LINE( '', #384, #385 );
#325 = FILL_AREA_STYLE_COLOUR( '', #386 );
#326 = FILL_AREA_STYLE_COLOUR( '', #387 );
#327 = VERTEX_POINT( '', #388 );
#328 = B_SPLINE_CURVE_WITH_KNOTS( '', 3, ( #389, #390, #391, #392 ), .UNSPECIFIED., .F., .F., ( 4, 4 ), ( 0.000000000000000, 0.000428064153498904 ), .UNSPECIFIED. );
#329 = VERTEX_POINT( '', #393 );
#330 = B_SPLINE_CURVE_WITH_KNOTS( '', 3, ( #394, #395, #396, #397 ), .UNSPECIFIED., .F., .F., ( 4, 4 ), ( 0.000000000000000, 0.000428064153498904 ), .UNSPECIFIED. );
#331 = CIRCLE( '', #398, 1.20000000000000 );
#332 = FILL_AREA_STYLE_COLOUR( '', #399 );
#333 = LINE( '', #400, #401 );
#334 = LINE( '', #402, #403 );
#335 = FILL_AREA_STYLE_COLOUR( '', #404 );
#336 = LINE( '', #405, #406 );
#337 = FILL_AREA_STYLE_COLOUR( '', #407 );
#338 = FILL_AREA_STYLE_COLOUR( '', #408 );
#339 = FILL_AREA_STYLE_COLOUR( '', #409 );
#340 = COLOUR_RGB( '', 0.800000011920929, 0.800000011920929, 0.800000011920929 );
#341 = CARTESIAN_POINT( '', ( 0.707106781186548, 0.000000000000000, 0.500000000000000 ) );
#342 = AXIS2_PLACEMENT_3D( '', #410, #411, #412 );
#343 = CARTESIAN_POINT( '', ( 1.00000000000000, 0.000000000000000, 0.500000000000000 ) );
#344 = AXIS2_PLACEMENT_3D( '', #413, #414, #415 );
#345 = COLOUR_RGB( '', 0.800000011920929, 0.800000011920929, 0.800000011920929 );
#346 = CARTESIAN_POINT( '', ( -0.249999999999995, 1.47901994577491, 7.20000000000000 ) );
#347 = CARTESIAN_POINT( '', ( -0.250000000000000, 1.17366945943055, 7.50000000000000 ) );
#348 = CARTESIAN_POINT( '', ( -0.249999999999995, 1.47901994577491, 7.20000000000000 ) );
#349 = CARTESIAN_POINT( '', ( -0.249999999999995, 1.37741620859435, 7.30018263590354 ) );
#350 = CARTESIAN_POINT( '', ( -0.250000000000000, 1.27567808359702, 7.40022966101440 ) );
#351 = CARTESIAN_POINT( '', ( -0.250000000000000, 1.17366945943055, 7.50000000000000 ) );
#352 = CARTESIAN_POINT( '', ( -0.249999999999995, -1.47901994577491, 7.20000000000000 ) );
#353 = AXIS2_PLACEMENT_3D( '', #416, #417, #418 );
#354 = CARTESIAN_POINT( '', ( -0.250000000000000, -1.17366945943055, 7.50000000000000 ) );
#355 = CARTESIAN_POINT( '', ( -0.250000000000000, -1.17366945943055, 7.50000000000000 ) );
#356 = CARTESIAN_POINT( '', ( -0.250000000000000, -1.27567808359702, 7.40022966101440 ) );
#357 = CARTESIAN_POINT( '', ( -0.250000000000000, -1.37741620859435, 7.30018263590354 ) );
#358 = CARTESIAN_POINT( '', ( -0.250000000000000, -1.47901994577490, 7.20000000000000 ) );
#359 = AXIS2_PLACEMENT_3D( '', #419, #420, #421 );
#360 = COLOUR_RGB( '', 0.800000011920929, 0.800000011920929, 0.800000011920929 );
#361 = CARTESIAN_POINT( '', ( 1.00000000000000, 0.000000000000000, 1.00000000000000 ) );
#362 = AXIS2_PLACEMENT_3D( '', #422, #423, #424 );
#363 = CARTESIAN_POINT( '', ( 1.50000000000000, 0.000000000000000, 1.50000000000000 ) );
#364 = AXIS2_PLACEMENT_3D( '', #425, #426, #427 );
#365 = COLOUR_RGB( '', 0.752941191196442, 0.752941191196442, 0.752941191196442 );
#366 = CARTESIAN_POINT( '', ( -0.250000000000000, -1.47901994577490, 7.00000000000000 ) );
#367 = CARTESIAN_POINT( '', ( -0.249999999999995, -1.47901994577491, 57.1500000000000 ) );
#368 = VECTOR( '', #428, 1000.00000000000 );
#369 = CARTESIAN_POINT( '', ( -0.250000000000000, 1.47901994577490, 7.00000000000000 ) );
#370 = CARTESIAN_POINT( '', ( -0.249999999999995, 1.47901994577491, 57.1500000000000 ) );
#371 = VECTOR( '', #429, 1000.00000000000 );
#372 = CARTESIAN_POINT( '', ( 0.250000000000000, 1.47901994577490, 7.00000000000000 ) );
#373 = AXIS2_PLACEMENT_3D( '', #430, #431, #432 );
#374 = CARTESIAN_POINT( '', ( 0.250000000000006, 1.47901994577490, 7.20000000000000 ) );
#375 = CARTESIAN_POINT( '', ( 0.250000000000006, 1.47901994577490, 57.1500000000000 ) );
#376 = VECTOR( '', #433, 1000.00000000000 );
#377 = CARTESIAN_POINT( '', ( 0.250000000000006, -1.47901994577490, 7.20000000000000 ) );
#378 = AXIS2_PLACEMENT_3D( '', #434, #435, #436 );
#379 = CARTESIAN_POINT( '', ( 0.250000000000000, -1.47901994577490, 7.00000000000000 ) );
#380 = CARTESIAN_POINT( '', ( 0.250000000000006, -1.47901994577490, 57.1500000000000 ) );
#381 = VECTOR( '', #437, 1000.00000000000 );
#382 = AXIS2_PLACEMENT_3D( '', #438, #439, #440 );
#383 = COLOUR_RGB( '', 0.800000011920929, 0.800000011920929, 0.800000011920929 );
#384 = CARTESIAN_POINT( '', ( -0.250000000000000, -10.0000000000000, 7.50000000000000 ) );
#385 = VECTOR( '', #441, 1000.00000000000 );
#386 = COLOUR_RGB( '', 0.800000011920929, 0.800000011920929, 0.800000011920929 );
#387 = COLOUR_RGB( '', 0.800000011920929, 0.800000011920929, 0.800000011920929 );
#388 = CARTESIAN_POINT( '', ( 0.250000000000000, -1.17366945943055, 7.50000000000000 ) );
#389 = CARTESIAN_POINT( '', ( 0.250000000000006, -1.47901994577490, 7.20000000000000 ) );
#390 = CARTESIAN_POINT( '', ( 0.250000000000006, -1.37741620859435, 7.30018263590354 ) );
#391 = CARTESIAN_POINT( '', ( 0.250000000000000, -1.27567808359702, 7.40022966101440 ) );
#392 = CARTESIAN_POINT( '', ( 0.250000000000000, -1.17366945943055, 7.50000000000000 ) );
#393 = CARTESIAN_POINT( '', ( 0.250000000000000, 1.17366945943055, 7.50000000000000 ) );
#394 = CARTESIAN_POINT( '', ( 0.250000000000000, 1.17366945943055, 7.50000000000000 ) );
#395 = CARTESIAN_POINT( '', ( 0.250000000000000, 1.27567808359702, 7.40022966101440 ) );
#396 = CARTESIAN_POINT( '', ( 0.250000000000000, 1.37741620859435, 7.30018263590354 ) );
#397 = CARTESIAN_POINT( '', ( 0.250000000000000, 1.47901994577490, 7.20000000000000 ) );
#398 = AXIS2_PLACEMENT_3D( '', #442, #443, #444 );
#399 = COLOUR_RGB( '', 0.800000011920929, 0.800000011920929, 0.800000011920929 );
#400 = CARTESIAN_POINT( '', ( 0.250000000000000, -10.0000000000000, 7.50000000000000 ) );
#401 = VECTOR( '', #445, 1000.00000000000 );
#402 = CARTESIAN_POINT( '', ( 0.250000000000000, -10.0000000000000, 7.00000000000000 ) );
#403 = VECTOR( '', #446, 1000.00000000000 );
#404 = COLOUR_RGB( '', 0.800000011920929, 0.800000011920929, 0.800000011920929 );
#405 = CARTESIAN_POINT( '', ( -0.250000000000000, -10.0000000000000, 7.00000000000000 ) );
#406 = VECTOR( '', #447, 1000.00000000000 );
#407 = COLOUR_RGB( '', 0.800000011920929, 0.800000011920929, 0.800000011920929 );
#408 = COLOUR_RGB( '', 0.800000011920929, 0.800000011920929, 0.800000011920929 );
#409 = COLOUR_RGB( '', 0.800000011920929, 0.800000011920929, 0.800000011920929 );
#410 = CARTESIAN_POINT( '', ( 0.000000000000000, 0.000000000000000, 0.500000000000000 ) );
#411 = DIRECTION( '', ( 0.000000000000000, 0.000000000000000, 1.00000000000000 ) );
#412 = DIRECTION( '', ( 1.00000000000000, 0.000000000000000, 0.000000000000000 ) );
#413 = CARTESIAN_POINT( '', ( 0.000000000000000, 0.000000000000000, 0.500000000000000 ) );
#414 = DIRECTION( '', ( 0.000000000000000, 0.000000000000000, 1.00000000000000 ) );
#415 = DIRECTION( '', ( 1.00000000000000, 0.000000000000000, 0.000000000000000 ) );
#416 = CARTESIAN_POINT( '', ( 0.000000000000000, 0.000000000000000, 7.20000000000000 ) );
#417 = DIRECTION( '', ( 0.000000000000000, 0.000000000000000, 1.00000000000000 ) );
#418 = DIRECTION( '', ( 1.00000000000000, 0.000000000000000, 0.000000000000000 ) );
#419 = CARTESIAN_POINT( '', ( 0.000000000000000, 0.000000000000000, 7.50000000000000 ) );
#420 = DIRECTION( '', ( 0.000000000000000, 0.000000000000000, 1.00000000000000 ) );
#421 = DIRECTION( '', ( 1.00000000000000, 0.000000000000000, 0.000000000000000 ) );
#422 = CARTESIAN_POINT( '', ( 0.000000000000000, 0.000000000000000, 1.00000000000000 ) );
#423 = DIRECTION( '', ( 0.000000000000000, 0.000000000000000, 1.00000000000000 ) );
#424 = DIRECTION( '', ( 1.00000000000000, 0.000000000000000, 0.000000000000000 ) );
#425 = CARTESIAN_POINT( '', ( 0.000000000000000, 0.000000000000000, 1.50000000000000 ) );
#426 = DIRECTION( '', ( 0.000000000000000, 0.000000000000000, 1.00000000000000 ) );
#427 = DIRECTION( '', ( 1.00000000000000, 0.000000000000000, 0.000000000000000 ) );
#428 = DIRECTION( '', ( 0.000000000000000, 0.000000000000000, 1.00000000000000 ) );
#429 = DIRECTION( '', ( 0.000000000000000, 0.000000000000000, 1.00000000000000 ) );
#430 = CARTESIAN_POINT( '', ( 0.000000000000000, 0.000000000000000, 7.00000000000000 ) );
#431 = DIRECTION( '', ( 0.000000000000000, 0.000000000000000, 1.00000000000000 ) );
#432 = DIRECTION( '', ( 1.00000000000000, 0.000000000000000, 0.000000000000000 ) );
#433 = DIRECTION( '', ( 0.000000000000000, 0.000000000000000, 1.00000000000000 ) );
#434 = CARTESIAN_POINT( '', ( 0.000000000000000, 0.000000000000000, 7.20000000000000 ) );
#435 = DIRECTION( '', ( 0.000000000000000, 0.000000000000000, 1.00000000000000 ) );
#436 = DIRECTION( '', ( 1.00000000000000, 0.000000000000000, 0.000000000000000 ) );
#437 = DIRECTION( '', ( 0.000000000000000, 0.000000000000000, 1.00000000000000 ) );
#438 = CARTESIAN_POINT( '', ( 0.000000000000000, 0.000000000000000, 7.00000000000000 ) );
#439 = DIRECTION( '', ( 0.000000000000000, 0.000000000000000, 1.00000000000000 ) );
#440 = DIRECTION( '', ( 1.00000000000000, 0.000000000000000, 0.000000000000000 ) );
#441 = DIRECTION( '', ( 0.000000000000000, 1.00000000000000, 0.000000000000000 ) );
#442 = CARTESIAN_POINT( '', ( 0.000000000000000, 0.000000000000000, 7.50000000000000 ) );
#443 = DIRECTION( '', ( 0.000000000000000, 0.000000000000000, 1.00000000000000 ) );
#444 = DIRECTION( '', ( 1.00000000000000, 0.000000000000000, 0.000000000000000 ) );
#445 = DIRECTION( '', ( 0.000000000000000, 1.00000000000000, 0.000000000000000 ) );
#446 = DIRECTION( '', ( 0.000000000000000, 1.00000000000000, 0.000000000000000 ) );
#447 = DIRECTION( '', ( 0.000000000000000, 1.00000000000000, 0.000000000000000 ) );
ENDSEC;
END-ISO-10303-21;
