ISO-10303-21;
HEADER;
FILE_DESCRIPTION( ( 'Unknown' ), '1' );
FILE_NAME( '//SBS2003/HD_Usb/Disegni/08_LIB/Users_3D/PROD_GAMM_3D/APS-I/7747506_APS_7_IR.stp', 'Unknown', ( 'Unknown' ), ( 'Unknown' ), 'PSStep 14.0', 'Unknown', '  ' );
FILE_SCHEMA( ( 'AUTOMOTIVE_DESIGN { 1 0 10303 214 1 1 1 1 }' ) );
ENDSEC;
DATA;
#1 = MECHANICAL_DESIGN_GEOMETRIC_PRESENTATION_REPRESENTATION( ' ', ( #10, #11, #12, #13, #14, #15, #16, #17, #18, #19, #20, #21 ), #6 );
#2 = PRODUCT_DEFINITION_CONTEXT( '', #22, 'design' );
#3 = APPLICATION_PROTOCOL_DEFINITION( 'international standard', 'automotive_design', 2001, #22 );
#4 = PRODUCT_CATEGORY_RELATIONSHIP( 'NONE', 'NONE', #23, #24 );
#5 = SHAPE_DEFINITION_REPRESENTATION( #25, #26 );
#6 =  ( GEOMETRIC_REPRESENTATION_CONTEXT( 3 )GLOBAL_UNCERTAINTY_ASSIGNED_CONTEXT( ( #29 ) )GLOBAL_UNIT_ASSIGNED_CONTEXT( ( #31, #32, #33 ) )REPRESENTATION_CONTEXT( 'NONE', 'WORKSPACE' ) );
#10 = STYLED_ITEM( '', ( #35 ), #36 );
#11 = STYLED_ITEM( '', ( #37 ), #38 );
#12 = STYLED_ITEM( '', ( #39 ), #40 );
#13 = STYLED_ITEM( '', ( #41 ), #42 );
#14 = STYLED_ITEM( '', ( #43 ), #44 );
#15 = STYLED_ITEM( '', ( #45 ), #46 );
#16 = STYLED_ITEM( '', ( #47 ), #48 );
#17 = STYLED_ITEM( '', ( #49 ), #50 );
#18 = STYLED_ITEM( '', ( #51 ), #52 );
#19 = STYLED_ITEM( '', ( #53 ), #54 );
#20 = STYLED_ITEM( '', ( #55 ), #56 );
#21 = STYLED_ITEM( '', ( #57 ), #58 );
#22 = APPLICATION_CONTEXT( 'core data for automotive mechanical design processes' );
#23 = PRODUCT_CATEGORY( 'part', 'NONE' );
#24 = PRODUCT_RELATED_PRODUCT_CATEGORY( 'detail', ' ', ( #59 ) );
#25 = PRODUCT_DEFINITION_SHAPE( 'NONE', 'NONE', #60 );
#26 = ADVANCED_BREP_SHAPE_REPRESENTATION( '1', ( #61, #62 ), #6 );
#29 = UNCERTAINTY_MEASURE_WITH_UNIT( LENGTH_MEASURE( 0.00100000000000000 ), #31, '', '' );
#31 =  ( CONVERSION_BASED_UNIT( 'MILLIMETRE', #65 )LENGTH_UNIT(  )NAMED_UNIT( #68 ) );
#32 =  ( NAMED_UNIT( #70 )PLANE_ANGLE_UNIT(  )SI_UNIT( $, .RADIAN. ) );
#33 =  ( NAMED_UNIT( #70 )SI_UNIT( $, .STERADIAN. )SOLID_ANGLE_UNIT(  ) );
#35 = PRESENTATION_STYLE_ASSIGNMENT( ( #76 ) );
#36 = ADVANCED_FACE( '', ( #77 ), #78, .T. );
#37 = PRESENTATION_STYLE_ASSIGNMENT( ( #79 ) );
#38 = ADVANCED_FACE( '', ( #80 ), #81, .T. );
#39 = PRESENTATION_STYLE_ASSIGNMENT( ( #82 ) );
#40 = ADVANCED_FACE( '', ( #83 ), #84, .T. );
#41 = PRESENTATION_STYLE_ASSIGNMENT( ( #85 ) );
#42 = ADVANCED_FACE( '', ( #86, #87 ), #88, .T. );
#43 = PRESENTATION_STYLE_ASSIGNMENT( ( #89 ) );
#44 = ADVANCED_FACE( '', ( #90, #91 ), #92, .T. );
#45 = PRESENTATION_STYLE_ASSIGNMENT( ( #93 ) );
#46 = ADVANCED_FACE( '', ( #94, #95 ), #96, .T. );
#47 = PRESENTATION_STYLE_ASSIGNMENT( ( #97 ) );
#48 = ADVANCED_FACE( '', ( #98 ), #99, .T. );
#49 = PRESENTATION_STYLE_ASSIGNMENT( ( #100 ) );
#50 = ADVANCED_FACE( '', ( #101 ), #102, .T. );
#51 = PRESENTATION_STYLE_ASSIGNMENT( ( #103 ) );
#52 = ADVANCED_FACE( '', ( #104 ), #105, .T. );
#53 = PRESENTATION_STYLE_ASSIGNMENT( ( #106 ) );
#54 = ADVANCED_FACE( '', ( #107, #108 ), #109, .T. );
#55 = PRESENTATION_STYLE_ASSIGNMENT( ( #110 ) );
#56 = ADVANCED_FACE( '', ( #111 ), #112, .T. );
#57 = PRESENTATION_STYLE_ASSIGNMENT( ( #113 ) );
#58 = ADVANCED_FACE( '', ( #114 ), #115, .T. );
#59 = PRODUCT( '1', '1', 'PART-1-DESC', ( #116 ) );
#60 = PRODUCT_DEFINITION( 'NONE', 'NONE', #117, #2 );
#61 = MANIFOLD_SOLID_BREP( '1', #118 );
#62 = AXIS2_PLACEMENT_3D( '', #119, #120, #121 );
#65 = LENGTH_MEASURE_WITH_UNIT( LENGTH_MEASURE( 1.00000000000000 ), #122 );
#68 = DIMENSIONAL_EXPONENTS( 1.00000000000000, 0.000000000000000, 0.000000000000000, 0.000000000000000, 0.000000000000000, 0.000000000000000, 0.000000000000000 );
#70 = DIMENSIONAL_EXPONENTS( 0.000000000000000, 0.000000000000000, 0.000000000000000, 0.000000000000000, 0.000000000000000, 0.000000000000000, 0.000000000000000 );
#76 = SURFACE_STYLE_USAGE( .BOTH., #123 );
#77 = FACE_OUTER_BOUND( '', #124, .T. );
#78 = PLANE( '', #125 );
#79 = SURFACE_STYLE_USAGE( .BOTH., #126 );
#80 = FACE_OUTER_BOUND( '', #127, .T. );
#81 = PLANE( '', #128 );
#82 = SURFACE_STYLE_USAGE( .BOTH., #129 );
#83 = FACE_OUTER_BOUND( '', #130, .T. );
#84 = CONICAL_SURFACE( '', #131, 1.20000000000000, 0.785398163397446 );
#85 = SURFACE_STYLE_USAGE( .BOTH., #132 );
#86 = FACE_BOUND( '', #133, .T. );
#87 = FACE_OUTER_BOUND( '', #134, .T. );
#88 = CONICAL_SURFACE( '', #135, 1.50000000000000, 0.785398163397449 );
#89 = SURFACE_STYLE_USAGE( .BOTH., #136 );
#90 = FACE_OUTER_BOUND( '', #137, .T. );
#91 = FACE_OUTER_BOUND( '', #138, .T. );
#92 = CYLINDRICAL_SURFACE( '', #139, 1.00000000000000 );
#93 = SURFACE_STYLE_USAGE( .BOTH., #140 );
#94 = FACE_BOUND( '', #141, .T. );
#95 = FACE_OUTER_BOUND( '', #142, .T. );
#96 = PLANE( '', #143 );
#97 = SURFACE_STYLE_USAGE( .BOTH., #144 );
#98 = FACE_OUTER_BOUND( '', #145, .T. );
#99 = PLANE( '', #146 );
#100 = SURFACE_STYLE_USAGE( .BOTH., #147 );
#101 = FACE_OUTER_BOUND( '', #148, .T. );
#102 = PLANE( '', #149 );
#103 = SURFACE_STYLE_USAGE( .BOTH., #150 );
#104 = FACE_OUTER_BOUND( '', #151, .T. );
#105 = CONICAL_SURFACE( '', #152, 1.20000000000000, 0.785398163397446 );
#106 = SURFACE_STYLE_USAGE( .BOTH., #153 );
#107 = FACE_OUTER_BOUND( '', #154, .T. );
#108 = FACE_OUTER_BOUND( '', #155, .T. );
#109 = CYLINDRICAL_SURFACE( '', #156, 1.50000000000000 );
#110 = SURFACE_STYLE_USAGE( .BOTH., #157 );
#111 = FACE_OUTER_BOUND( '', #158, .T. );
#112 = SPHERICAL_SURFACE( '', #159, 0.750000000000000 );
#113 = SURFACE_STYLE_USAGE( .BOTH., #160 );
#114 = FACE_OUTER_BOUND( '', #161, .T. );
#115 = PLANE( '', #162 );
#116 = PRODUCT_CONTEXT( '', #22, 'mechanical' );
#117 = PRODUCT_DEFINITION_FORMATION_WITH_SPECIFIED_SOURCE( ' ', 'NONE', #59, .NOT_KNOWN. );
#118 = CLOSED_SHELL( '', ( #58, #52, #54, #48, #38, #36, #40, #50, #42, #44, #46, #56 ) );
#119 = CARTESIAN_POINT( '', ( 0.000000000000000, 0.000000000000000, 0.000000000000000 ) );
#120 = DIRECTION( '', ( 0.000000000000000, 0.000000000000000, 1.00000000000000 ) );
#121 = DIRECTION( '', ( 1.00000000000000, 0.000000000000000, 0.000000000000000 ) );
#122 =  ( LENGTH_UNIT(  )NAMED_UNIT( #68 )SI_UNIT( .MILLI., .METRE. ) );
#123 = SURFACE_SIDE_STYLE( '', ( #164 ) );
#124 = EDGE_LOOP( '', ( #165, #166, #167, #168, #169, #170 ) );
#125 = AXIS2_PLACEMENT_3D( '', #171, #172, #173 );
#126 = SURFACE_SIDE_STYLE( '', ( #174 ) );
#127 = EDGE_LOOP( '', ( #175, #176, #177, #178, #179, #180 ) );
#128 = AXIS2_PLACEMENT_3D( '', #181, #182, #183 );
#129 = SURFACE_SIDE_STYLE( '', ( #184 ) );
#130 = EDGE_LOOP( '', ( #185, #186, #187, #188 ) );
#131 = AXIS2_PLACEMENT_3D( '', #189, #190, #191 );
#132 = SURFACE_SIDE_STYLE( '', ( #192 ) );
#133 = EDGE_LOOP( '', ( #193 ) );
#134 = EDGE_LOOP( '', ( #194 ) );
#135 = AXIS2_PLACEMENT_3D( '', #195, #196, #197 );
#136 = SURFACE_SIDE_STYLE( '', ( #198 ) );
#137 = EDGE_LOOP( '', ( #199 ) );
#138 = EDGE_LOOP( '', ( #200 ) );
#139 = AXIS2_PLACEMENT_3D( '', #201, #202, #203 );
#140 = SURFACE_SIDE_STYLE( '', ( #204 ) );
#141 = EDGE_LOOP( '', ( #205 ) );
#142 = EDGE_LOOP( '', ( #206 ) );
#143 = AXIS2_PLACEMENT_3D( '', #207, #208, #209 );
#144 = SURFACE_SIDE_STYLE( '', ( #210 ) );
#145 = EDGE_LOOP( '', ( #211, #212, #213, #214 ) );
#146 = AXIS2_PLACEMENT_3D( '', #215, #216, #217 );
#147 = SURFACE_SIDE_STYLE( '', ( #218 ) );
#148 = EDGE_LOOP( '', ( #219, #220 ) );
#149 = AXIS2_PLACEMENT_3D( '', #221, #222, #223 );
#150 = SURFACE_SIDE_STYLE( '', ( #224 ) );
#151 = EDGE_LOOP( '', ( #225, #226, #227, #228 ) );
#152 = AXIS2_PLACEMENT_3D( '', #229, #230, #231 );
#153 = SURFACE_SIDE_STYLE( '', ( #232 ) );
#154 = EDGE_LOOP( '', ( #233 ) );
#155 = EDGE_LOOP( '', ( #234, #235, #236, #237, #238, #239, #240, #241 ) );
#156 = AXIS2_PLACEMENT_3D( '', #242, #243, #244 );
#157 = SURFACE_SIDE_STYLE( '', ( #245 ) );
#158 = EDGE_LOOP( '', ( #246 ) );
#159 = AXIS2_PLACEMENT_3D( '', #247, #248, #249 );
#160 = SURFACE_SIDE_STYLE( '', ( #250 ) );
#161 = EDGE_LOOP( '', ( #251, #252 ) );
#162 = AXIS2_PLACEMENT_3D( '', #253, #254, #255 );
#164 = SURFACE_STYLE_FILL_AREA( #256 );
#165 = ORIENTED_EDGE( '', *, *, #257, .F. );
#166 = ORIENTED_EDGE( '', *, *, #258, .T. );
#167 = ORIENTED_EDGE( '', *, *, #259, .F. );
#168 = ORIENTED_EDGE( '', *, *, #260, .T. );
#169 = ORIENTED_EDGE( '', *, *, #261, .F. );
#170 = ORIENTED_EDGE( '', *, *, #262, .T. );
#171 = CARTESIAN_POINT( '', ( -0.250000000000000, -10.0000000000000, 7.50000000000000 ) );
#172 = DIRECTION( '', ( 1.00000000000000, 0.000000000000000, -1.08420217248550E-016 ) );
#173 = DIRECTION( '', ( -1.08420217248550E-016, 0.000000000000000, -1.00000000000000 ) );
#174 = SURFACE_STYLE_FILL_AREA( #263 );
#175 = ORIENTED_EDGE( '', *, *, #264, .T. );
#176 = ORIENTED_EDGE( '', *, *, #265, .T. );
#177 = ORIENTED_EDGE( '', *, *, #266, .F. );
#178 = ORIENTED_EDGE( '', *, *, #267, .F. );
#179 = ORIENTED_EDGE( '', *, *, #268, .F. );
#180 = ORIENTED_EDGE( '', *, *, #269, .T. );
#181 = CARTESIAN_POINT( '', ( 0.250000000000000, -10.0000000000000, 7.00000000000000 ) );
#182 = DIRECTION( '', ( -1.00000000000000, 0.000000000000000, 1.08420217248550E-016 ) );
#183 = DIRECTION( '', ( 1.08420217248550E-016, 0.000000000000000, 1.00000000000000 ) );
#184 = SURFACE_STYLE_FILL_AREA( #270 );
#185 = ORIENTED_EDGE( '', *, *, #262, .F. );
#186 = ORIENTED_EDGE( '', *, *, #271, .F. );
#187 = ORIENTED_EDGE( '', *, *, #258, .F. );
#188 = ORIENTED_EDGE( '', *, *, #272, .F. );
#189 = CARTESIAN_POINT( '', ( 0.000000000000000, 0.000000000000000, 7.50000000000000 ) );
#190 = DIRECTION( '', ( -0.000000000000000, 0.000000000000000, -1.00000000000000 ) );
#191 = DIRECTION( '', ( -1.00000000000000, 0.000000000000000, 0.000000000000000 ) );
#192 = SURFACE_STYLE_FILL_AREA( #273 );
#193 = ORIENTED_EDGE( '', *, *, #274, .T. );
#194 = ORIENTED_EDGE( '', *, *, #275, .F. );
#195 = CARTESIAN_POINT( '', ( 0.000000000000000, 0.000000000000000, 1.50000000000000 ) );
#196 = DIRECTION( '', ( -0.000000000000000, -0.000000000000000, 1.00000000000000 ) );
#197 = DIRECTION( '', ( 1.00000000000000, 0.000000000000000, 0.000000000000000 ) );
#198 = SURFACE_STYLE_FILL_AREA( #276 );
#199 = ORIENTED_EDGE( '', *, *, #277, .T. );
#200 = ORIENTED_EDGE( '', *, *, #274, .F. );
#201 = CARTESIAN_POINT( '', ( 0.000000000000000, 0.000000000000000, 57.1500000000000 ) );
#202 = DIRECTION( '', ( -0.000000000000000, -0.000000000000000, -1.00000000000000 ) );
#203 = DIRECTION( '', ( 1.00000000000000, 0.000000000000000, 0.000000000000000 ) );
#204 = SURFACE_STYLE_FILL_AREA( #278 );
#205 = ORIENTED_EDGE( '', *, *, #279, .T. );
#206 = ORIENTED_EDGE( '', *, *, #277, .F. );
#207 = CARTESIAN_POINT( '', ( 0.707106781186548, 0.000000000000000, 0.500000000000000 ) );
#208 = DIRECTION( '', ( 0.000000000000000, 0.000000000000000, -1.00000000000000 ) );
#209 = DIRECTION( '', ( -1.00000000000000, 0.000000000000000, 0.000000000000000 ) );
#210 = SURFACE_STYLE_FILL_AREA( #280 );
#211 = ORIENTED_EDGE( '', *, *, #267, .T. );
#212 = ORIENTED_EDGE( '', *, *, #281, .F. );
#213 = ORIENTED_EDGE( '', *, *, #260, .F. );
#214 = ORIENTED_EDGE( '', *, *, #282, .F. );
#215 = CARTESIAN_POINT( '', ( -0.250000000000000, -10.0000000000000, 7.00000000000000 ) );
#216 = DIRECTION( '', ( 0.000000000000000, 0.000000000000000, 1.00000000000000 ) );
#217 = DIRECTION( '', ( 1.00000000000000, 0.000000000000000, 0.000000000000000 ) );
#218 = SURFACE_STYLE_FILL_AREA( #283 );
#219 = ORIENTED_EDGE( '', *, *, #264, .F. );
#220 = ORIENTED_EDGE( '', *, *, #284, .T. );
#221 = CARTESIAN_POINT( '', ( 0.000000000000000, 0.000000000000000, 7.50000000000000 ) );
#222 = DIRECTION( '', ( 0.000000000000000, 0.000000000000000, 1.00000000000000 ) );
#223 = DIRECTION( '', ( 1.00000000000000, 0.000000000000000, 0.000000000000000 ) );
#224 = SURFACE_STYLE_FILL_AREA( #285 );
#225 = ORIENTED_EDGE( '', *, *, #269, .F. );
#226 = ORIENTED_EDGE( '', *, *, #286, .F. );
#227 = ORIENTED_EDGE( '', *, *, #265, .F. );
#228 = ORIENTED_EDGE( '', *, *, #284, .F. );
#229 = CARTESIAN_POINT( '', ( 0.000000000000000, 0.000000000000000, 7.50000000000000 ) );
#230 = DIRECTION( '', ( -0.000000000000000, 0.000000000000000, -1.00000000000000 ) );
#231 = DIRECTION( '', ( -1.00000000000000, 0.000000000000000, 0.000000000000000 ) );
#232 = SURFACE_STYLE_FILL_AREA( #287 );
#233 = ORIENTED_EDGE( '', *, *, #275, .T. );
#234 = ORIENTED_EDGE( '', *, *, #259, .T. );
#235 = ORIENTED_EDGE( '', *, *, #271, .T. );
#236 = ORIENTED_EDGE( '', *, *, #261, .T. );
#237 = ORIENTED_EDGE( '', *, *, #281, .T. );
#238 = ORIENTED_EDGE( '', *, *, #266, .T. );
#239 = ORIENTED_EDGE( '', *, *, #286, .T. );
#240 = ORIENTED_EDGE( '', *, *, #268, .T. );
#241 = ORIENTED_EDGE( '', *, *, #282, .T. );
#242 = CARTESIAN_POINT( '', ( 0.000000000000000, 0.000000000000000, 57.1500000000000 ) );
#243 = DIRECTION( '', ( -0.000000000000000, -0.000000000000000, -1.00000000000000 ) );
#244 = DIRECTION( '', ( 1.00000000000000, 0.000000000000000, 0.000000000000000 ) );
#245 = SURFACE_STYLE_FILL_AREA( #288 );
#246 = ORIENTED_EDGE( '', *, *, #279, .F. );
#247 = CARTESIAN_POINT( '', ( 0.000000000000000, 0.000000000000000, 0.750000000000000 ) );
#248 = DIRECTION( '', ( 0.000000000000000, 0.000000000000000, 1.00000000000000 ) );
#249 = DIRECTION( '', ( 1.00000000000000, 0.000000000000000, 0.000000000000000 ) );
#250 = SURFACE_STYLE_FILL_AREA( #289 );
#251 = ORIENTED_EDGE( '', *, *, #257, .T. );
#252 = ORIENTED_EDGE( '', *, *, #272, .T. );
#253 = CARTESIAN_POINT( '', ( 0.000000000000000, 0.000000000000000, 7.50000000000000 ) );
#254 = DIRECTION( '', ( 0.000000000000000, 0.000000000000000, 1.00000000000000 ) );
#255 = DIRECTION( '', ( 1.00000000000000, 0.000000000000000, 0.000000000000000 ) );
#256 = FILL_AREA_STYLE( '', ( #290 ) );
#257 = EDGE_CURVE( '', #291, #292, #293, .T. );
#258 = EDGE_CURVE( '', #291, #294, #295, .T. );
#259 = EDGE_CURVE( '', #296, #294, #297, .T. );
#260 = EDGE_CURVE( '', #296, #298, #299, .T. );
#261 = EDGE_CURVE( '', #300, #298, #301, .F. );
#262 = EDGE_CURVE( '', #300, #292, #302, .T. );
#263 = FILL_AREA_STYLE( '', ( #303 ) );
#264 = EDGE_CURVE( '', #304, #305, #306, .T. );
#265 = EDGE_CURVE( '', #305, #307, #308, .T. );
#266 = EDGE_CURVE( '', #309, #307, #310, .T. );
#267 = EDGE_CURVE( '', #311, #309, #312, .T. );
#268 = EDGE_CURVE( '', #313, #311, #314, .F. );
#269 = EDGE_CURVE( '', #313, #304, #315, .T. );
#270 = FILL_AREA_STYLE( '', ( #316 ) );
#271 = EDGE_CURVE( '', #294, #300, #317, .F. );
#272 = EDGE_CURVE( '', #292, #291, #318, .T. );
#273 = FILL_AREA_STYLE( '', ( #319 ) );
#274 = EDGE_CURVE( '', #320, #320, #321, .T. );
#275 = EDGE_CURVE( '', #322, #322, #323, .T. );
#276 = FILL_AREA_STYLE( '', ( #324 ) );
#277 = EDGE_CURVE( '', #325, #325, #326, .T. );
#278 = FILL_AREA_STYLE( '', ( #327 ) );
#279 = EDGE_CURVE( '', #328, #328, #329, .T. );
#280 = FILL_AREA_STYLE( '', ( #330 ) );
#281 = EDGE_CURVE( '', #298, #309, #331, .F. );
#282 = EDGE_CURVE( '', #311, #296, #332, .F. );
#283 = FILL_AREA_STYLE( '', ( #333 ) );
#284 = EDGE_CURVE( '', #304, #305, #334, .T. );
#285 = FILL_AREA_STYLE( '', ( #335 ) );
#286 = EDGE_CURVE( '', #307, #313, #336, .F. );
#287 = FILL_AREA_STYLE( '', ( #337 ) );
#288 = FILL_AREA_STYLE( '', ( #338 ) );
#289 = FILL_AREA_STYLE( '', ( #339 ) );
#290 = FILL_AREA_STYLE_COLOUR( '', #340 );
#291 = VERTEX_POINT( '', #341 );
#292 = VERTEX_POINT( '', #342 );
#293 = LINE( '', #343, #344 );
#294 = VERTEX_POINT( '', #345 );
#295 = B_SPLINE_CURVE_WITH_KNOTS( '', 3, ( #346, #347, #348, #349 ), .UNSPECIFIED., .F., .F., ( 4, 4 ), ( 0.000000000000000, 0.000428064153498906 ), .UNSPECIFIED. );
#296 = VERTEX_POINT( '', #350 );
#297 = LINE( '', #351, #352 );
#298 = VERTEX_POINT( '', #353 );
#299 = LINE( '', #354, #355 );
#300 = VERTEX_POINT( '', #356 );
#301 = LINE( '', #357, #358 );
#302 = B_SPLINE_CURVE_WITH_KNOTS( '', 3, ( #359, #360, #361, #362 ), .UNSPECIFIED., .F., .F., ( 4, 4 ), ( 0.000000000000000, 0.000428064153498906 ), .UNSPECIFIED. );
#303 = FILL_AREA_STYLE_COLOUR( '', #363 );
#304 = VERTEX_POINT( '', #364 );
#305 = VERTEX_POINT( '', #365 );
#306 = LINE( '', #366, #367 );
#307 = VERTEX_POINT( '', #368 );
#308 = B_SPLINE_CURVE_WITH_KNOTS( '', 3, ( #369, #370, #371, #372 ), .UNSPECIFIED., .F., .F., ( 4, 4 ), ( 0.000000000000000, 0.000428064153498904 ), .UNSPECIFIED. );
#309 = VERTEX_POINT( '', #373 );
#310 = LINE( '', #374, #375 );
#311 = VERTEX_POINT( '', #376 );
#312 = LINE( '', #377, #378 );
#313 = VERTEX_POINT( '', #379 );
#314 = LINE( '', #380, #381 );
#315 = B_SPLINE_CURVE_WITH_KNOTS( '', 3, ( #382, #383, #384, #385 ), .UNSPECIFIED., .F., .F., ( 4, 4 ), ( 0.000000000000000, 0.000428064153498904 ), .UNSPECIFIED. );
#316 = FILL_AREA_STYLE_COLOUR( '', #386 );
#317 = CIRCLE( '', #387, 1.50000000000000 );
#318 = CIRCLE( '', #388, 1.20000000000000 );
#319 = FILL_AREA_STYLE_COLOUR( '', #389 );
#320 = VERTEX_POINT( '', #390 );
#321 = CIRCLE( '', #391, 1.00000000000000 );
#322 = VERTEX_POINT( '', #392 );
#323 = CIRCLE( '', #393, 1.50000000000000 );
#324 = FILL_AREA_STYLE_COLOUR( '', #394 );
#325 = VERTEX_POINT( '', #395 );
#326 = CIRCLE( '', #396, 1.00000000000000 );
#327 = FILL_AREA_STYLE_COLOUR( '', #397 );
#328 = VERTEX_POINT( '', #398 );
#329 = CIRCLE( '', #399, 0.707106781186548 );
#330 = FILL_AREA_STYLE_COLOUR( '', #400 );
#331 = CIRCLE( '', #401, 1.50000000000000 );
#332 = CIRCLE( '', #402, 1.50000000000000 );
#333 = FILL_AREA_STYLE_COLOUR( '', #403 );
#334 = CIRCLE( '', #404, 1.20000000000000 );
#335 = FILL_AREA_STYLE_COLOUR( '', #405 );
#336 = CIRCLE( '', #406, 1.50000000000000 );
#337 = FILL_AREA_STYLE_COLOUR( '', #407 );
#338 = FILL_AREA_STYLE_COLOUR( '', #408 );
#339 = FILL_AREA_STYLE_COLOUR( '', #409 );
#340 = COLOUR_RGB( '', 0.800000011920929, 0.800000011920929, 0.800000011920929 );
#341 = CARTESIAN_POINT( '', ( -0.250000000000000, -1.17366945943055, 7.50000000000000 ) );
#342 = CARTESIAN_POINT( '', ( -0.250000000000000, 1.17366945943055, 7.50000000000000 ) );
#343 = CARTESIAN_POINT( '', ( -0.250000000000000, -10.0000000000000, 7.50000000000000 ) );
#344 = VECTOR( '', #410, 1000.00000000000 );
#345 = CARTESIAN_POINT( '', ( -0.249999999999995, -1.47901994577491, 7.20000000000000 ) );
#346 = CARTESIAN_POINT( '', ( -0.250000000000000, -1.17366945943055, 7.50000000000000 ) );
#347 = CARTESIAN_POINT( '', ( -0.250000000000000, -1.27567808359702, 7.40022966101440 ) );
#348 = CARTESIAN_POINT( '', ( -0.250000000000000, -1.37741620859435, 7.30018263590354 ) );
#349 = CARTESIAN_POINT( '', ( -0.250000000000000, -1.47901994577490, 7.20000000000000 ) );
#350 = CARTESIAN_POINT( '', ( -0.250000000000000, -1.47901994577490, 7.00000000000000 ) );
#351 = CARTESIAN_POINT( '', ( -0.249999999999995, -1.47901994577491, 57.1500000000000 ) );
#352 = VECTOR( '', #411, 1000.00000000000 );
#353 = CARTESIAN_POINT( '', ( -0.250000000000000, 1.47901994577490, 7.00000000000000 ) );
#354 = CARTESIAN_POINT( '', ( -0.250000000000000, -10.0000000000000, 7.00000000000000 ) );
#355 = VECTOR( '', #412, 1000.00000000000 );
#356 = CARTESIAN_POINT( '', ( -0.249999999999995, 1.47901994577491, 7.20000000000000 ) );
#357 = CARTESIAN_POINT( '', ( -0.249999999999995, 1.47901994577491, 57.1500000000000 ) );
#358 = VECTOR( '', #413, 1000.00000000000 );
#359 = CARTESIAN_POINT( '', ( -0.249999999999995, 1.47901994577491, 7.20000000000000 ) );
#360 = CARTESIAN_POINT( '', ( -0.249999999999995, 1.37741620859435, 7.30018263590354 ) );
#361 = CARTESIAN_POINT( '', ( -0.250000000000000, 1.27567808359702, 7.40022966101440 ) );
#362 = CARTESIAN_POINT( '', ( -0.250000000000000, 1.17366945943055, 7.50000000000000 ) );
#363 = COLOUR_RGB( '', 0.800000011920929, 0.800000011920929, 0.800000011920929 );
#364 = CARTESIAN_POINT( '', ( 0.250000000000000, -1.17366945943055, 7.50000000000000 ) );
#365 = CARTESIAN_POINT( '', ( 0.250000000000000, 1.17366945943055, 7.50000000000000 ) );
#366 = CARTESIAN_POINT( '', ( 0.250000000000000, -10.0000000000000, 7.50000000000000 ) );
#367 = VECTOR( '', #414, 1000.00000000000 );
#368 = CARTESIAN_POINT( '', ( 0.250000000000006, 1.47901994577490, 7.20000000000000 ) );
#369 = CARTESIAN_POINT( '', ( 0.250000000000000, 1.17366945943055, 7.50000000000000 ) );
#370 = CARTESIAN_POINT( '', ( 0.250000000000000, 1.27567808359702, 7.40022966101440 ) );
#371 = CARTESIAN_POINT( '', ( 0.250000000000000, 1.37741620859435, 7.30018263590354 ) );
#372 = CARTESIAN_POINT( '', ( 0.250000000000000, 1.47901994577490, 7.20000000000000 ) );
#373 = CARTESIAN_POINT( '', ( 0.250000000000000, 1.47901994577490, 7.00000000000000 ) );
#374 = CARTESIAN_POINT( '', ( 0.250000000000006, 1.47901994577490, 57.1500000000000 ) );
#375 = VECTOR( '', #415, 1000.00000000000 );
#376 = CARTESIAN_POINT( '', ( 0.250000000000000, -1.47901994577490, 7.00000000000000 ) );
#377 = CARTESIAN_POINT( '', ( 0.250000000000000, -10.0000000000000, 7.00000000000000 ) );
#378 = VECTOR( '', #416, 1000.00000000000 );
#379 = CARTESIAN_POINT( '', ( 0.250000000000006, -1.47901994577490, 7.20000000000000 ) );
#380 = CARTESIAN_POINT( '', ( 0.250000000000006, -1.47901994577490, 57.1500000000000 ) );
#381 = VECTOR( '', #417, 1000.00000000000 );
#382 = CARTESIAN_POINT( '', ( 0.250000000000006, -1.47901994577490, 7.20000000000000 ) );
#383 = CARTESIAN_POINT( '', ( 0.250000000000006, -1.37741620859435, 7.30018263590354 ) );
#384 = CARTESIAN_POINT( '', ( 0.250000000000000, -1.27567808359702, 7.40022966101440 ) );
#385 = CARTESIAN_POINT( '', ( 0.250000000000000, -1.17366945943055, 7.50000000000000 ) );
#386 = COLOUR_RGB( '', 0.800000011920929, 0.800000011920929, 0.800000011920929 );
#387 = AXIS2_PLACEMENT_3D( '', #418, #419, #420 );
#388 = AXIS2_PLACEMENT_3D( '', #421, #422, #423 );
#389 = COLOUR_RGB( '', 0.800000011920929, 0.800000011920929, 0.800000011920929 );
#390 = CARTESIAN_POINT( '', ( 1.00000000000000, 0.000000000000000, 1.00000000000000 ) );
#391 = AXIS2_PLACEMENT_3D( '', #424, #425, #426 );
#392 = CARTESIAN_POINT( '', ( 1.50000000000000, 0.000000000000000, 1.50000000000000 ) );
#393 = AXIS2_PLACEMENT_3D( '', #427, #428, #429 );
#394 = COLOUR_RGB( '', 0.800000011920929, 0.800000011920929, 0.800000011920929 );
#395 = CARTESIAN_POINT( '', ( 1.00000000000000, 0.000000000000000, 0.500000000000000 ) );
#396 = AXIS2_PLACEMENT_3D( '', #430, #431, #432 );
#397 = COLOUR_RGB( '', 0.800000011920929, 0.800000011920929, 0.800000011920929 );
#398 = CARTESIAN_POINT( '', ( 0.707106781186548, 0.000000000000000, 0.500000000000000 ) );
#399 = AXIS2_PLACEMENT_3D( '', #433, #434, #435 );
#400 = COLOUR_RGB( '', 0.800000011920929, 0.800000011920929, 0.800000011920929 );
#401 = AXIS2_PLACEMENT_3D( '', #436, #437, #438 );
#402 = AXIS2_PLACEMENT_3D( '', #439, #440, #441 );
#403 = COLOUR_RGB( '', 0.800000011920929, 0.800000011920929, 0.800000011920929 );
#404 = AXIS2_PLACEMENT_3D( '', #442, #443, #444 );
#405 = COLOUR_RGB( '', 0.800000011920929, 0.800000011920929, 0.800000011920929 );
#406 = AXIS2_PLACEMENT_3D( '', #445, #446, #447 );
#407 = COLOUR_RGB( '', 0.752941191196442, 0.752941191196442, 0.752941191196442 );
#408 = COLOUR_RGB( '', 0.800000011920929, 0.800000011920929, 0.800000011920929 );
#409 = COLOUR_RGB( '', 0.800000011920929, 0.800000011920929, 0.800000011920929 );
#410 = DIRECTION( '', ( 0.000000000000000, 1.00000000000000, 0.000000000000000 ) );
#411 = DIRECTION( '', ( 0.000000000000000, 0.000000000000000, 1.00000000000000 ) );
#412 = DIRECTION( '', ( 0.000000000000000, 1.00000000000000, 0.000000000000000 ) );
#413 = DIRECTION( '', ( 0.000000000000000, 0.000000000000000, 1.00000000000000 ) );
#414 = DIRECTION( '', ( 0.000000000000000, 1.00000000000000, 0.000000000000000 ) );
#415 = DIRECTION( '', ( 0.000000000000000, 0.000000000000000, 1.00000000000000 ) );
#416 = DIRECTION( '', ( 0.000000000000000, 1.00000000000000, 0.000000000000000 ) );
#417 = DIRECTION( '', ( 0.000000000000000, 0.000000000000000, 1.00000000000000 ) );
#418 = CARTESIAN_POINT( '', ( 0.000000000000000, 0.000000000000000, 7.20000000000000 ) );
#419 = DIRECTION( '', ( 0.000000000000000, 0.000000000000000, 1.00000000000000 ) );
#420 = DIRECTION( '', ( 1.00000000000000, 0.000000000000000, 0.000000000000000 ) );
#421 = CARTESIAN_POINT( '', ( 0.000000000000000, 0.000000000000000, 7.50000000000000 ) );
#422 = DIRECTION( '', ( 0.000000000000000, 0.000000000000000, 1.00000000000000 ) );
#423 = DIRECTION( '', ( 1.00000000000000, 0.000000000000000, 0.000000000000000 ) );
#424 = CARTESIAN_POINT( '', ( 0.000000000000000, 0.000000000000000, 1.00000000000000 ) );
#425 = DIRECTION( '', ( 0.000000000000000, 0.000000000000000, 1.00000000000000 ) );
#426 = DIRECTION( '', ( 1.00000000000000, 0.000000000000000, 0.000000000000000 ) );
#427 = CARTESIAN_POINT( '', ( 0.000000000000000, 0.000000000000000, 1.50000000000000 ) );
#428 = DIRECTION( '', ( 0.000000000000000, 0.000000000000000, 1.00000000000000 ) );
#429 = DIRECTION( '', ( 1.00000000000000, 0.000000000000000, 0.000000000000000 ) );
#430 = CARTESIAN_POINT( '', ( 0.000000000000000, 0.000000000000000, 0.500000000000000 ) );
#431 = DIRECTION( '', ( 0.000000000000000, 0.000000000000000, 1.00000000000000 ) );
#432 = DIRECTION( '', ( 1.00000000000000, 0.000000000000000, 0.000000000000000 ) );
#433 = CARTESIAN_POINT( '', ( 0.000000000000000, 0.000000000000000, 0.500000000000000 ) );
#434 = DIRECTION( '', ( 0.000000000000000, 0.000000000000000, 1.00000000000000 ) );
#435 = DIRECTION( '', ( 1.00000000000000, 0.000000000000000, 0.000000000000000 ) );
#436 = CARTESIAN_POINT( '', ( 0.000000000000000, 0.000000000000000, 7.00000000000000 ) );
#437 = DIRECTION( '', ( 0.000000000000000, 0.000000000000000, 1.00000000000000 ) );
#438 = DIRECTION( '', ( 1.00000000000000, 0.000000000000000, 0.000000000000000 ) );
#439 = CARTESIAN_POINT( '', ( 0.000000000000000, 0.000000000000000, 7.00000000000000 ) );
#440 = DIRECTION( '', ( 0.000000000000000, 0.000000000000000, 1.00000000000000 ) );
#441 = DIRECTION( '', ( 1.00000000000000, 0.000000000000000, 0.000000000000000 ) );
#442 = CARTESIAN_POINT( '', ( 0.000000000000000, 0.000000000000000, 7.50000000000000 ) );
#443 = DIRECTION( '', ( 0.000000000000000, 0.000000000000000, 1.00000000000000 ) );
#444 = DIRECTION( '', ( 1.00000000000000, 0.000000000000000, 0.000000000000000 ) );
#445 = CARTESIAN_POINT( '', ( 0.000000000000000, 0.000000000000000, 7.20000000000000 ) );
#446 = DIRECTION( '', ( 0.000000000000000, 0.000000000000000, 1.00000000000000 ) );
#447 = DIRECTION( '', ( 1.00000000000000, 0.000000000000000, 0.000000000000000 ) );
ENDSEC;
END-ISO-10303-21;
