ISO-10303-21;
HEADER;
FILE_DESCRIPTION( ( 'Unknown' ), '1' );
FILE_NAME( '//SBS2003/HD_Usb/Disegni/08_LIB/Users_3D/PROD_GAMM_3D/APS-I/7747515_APS_12_I.stp', 'Unknown', ( 'Unknown' ), ( 'Unknown' ), 'PSStep 14.0', 'Unknown', '  ' );
FILE_SCHEMA( ( 'AUTOMOTIVE_DESIGN { 1 0 10303 214 1 1 1 1 }' ) );
ENDSEC;
DATA;
#1 = MECHANICAL_DESIGN_GEOMETRIC_PRESENTATION_REPRESENTATION( ' ', ( #10, #11, #12, #13, #14, #15, #16, #17, #18, #19, #20, #21 ), #6 );
#2 = PRODUCT_DEFINITION_CONTEXT( '', #22, 'design' );
#3 = APPLICATION_PROTOCOL_DEFINITION( 'international standard', 'automotive_design', 2001, #22 );
#4 = PRODUCT_CATEGORY_RELATIONSHIP( 'NONE', 'NONE', #23, #24 );
#5 = SHAPE_DEFINITION_REPRESENTATION( #25, #26 );
#6 =  ( GEOMETRIC_REPRESENTATION_CONTEXT( 3 )GLOBAL_UNCERTAINTY_ASSIGNED_CONTEXT( ( #29 ) )GLOBAL_UNIT_ASSIGNED_CONTEXT( ( #31, #32, #33 ) )REPRESENTATION_CONTEXT( 'NONE', 'WORKSPACE' ) );
#10 = STYLED_ITEM( '', ( #35 ), #36 );
#11 = STYLED_ITEM( '', ( #37 ), #38 );
#12 = STYLED_ITEM( '', ( #39 ), #40 );
#13 = STYLED_ITEM( '', ( #41 ), #42 );
#14 = STYLED_ITEM( '', ( #43 ), #44 );
#15 = STYLED_ITEM( '', ( #45 ), #46 );
#16 = STYLED_ITEM( '', ( #47 ), #48 );
#17 = STYLED_ITEM( '', ( #49 ), #50 );
#18 = STYLED_ITEM( '', ( #51 ), #52 );
#19 = STYLED_ITEM( '', ( #53 ), #54 );
#20 = STYLED_ITEM( '', ( #55 ), #56 );
#21 = STYLED_ITEM( '', ( #57 ), #58 );
#22 = APPLICATION_CONTEXT( 'core data for automotive mechanical design processes' );
#23 = PRODUCT_CATEGORY( 'part', 'NONE' );
#24 = PRODUCT_RELATED_PRODUCT_CATEGORY( 'detail', ' ', ( #59 ) );
#25 = PRODUCT_DEFINITION_SHAPE( 'NONE', 'NONE', #60 );
#26 = ADVANCED_BREP_SHAPE_REPRESENTATION( '1', ( #61, #62 ), #6 );
#29 = UNCERTAINTY_MEASURE_WITH_UNIT( LENGTH_MEASURE( 0.00100000000000000 ), #31, '', '' );
#31 =  ( CONVERSION_BASED_UNIT( 'MILLIMETRE', #65 )LENGTH_UNIT(  )NAMED_UNIT( #68 ) );
#32 =  ( NAMED_UNIT( #70 )PLANE_ANGLE_UNIT(  )SI_UNIT( $, .RADIAN. ) );
#33 =  ( NAMED_UNIT( #70 )SI_UNIT( $, .STERADIAN. )SOLID_ANGLE_UNIT(  ) );
#35 = PRESENTATION_STYLE_ASSIGNMENT( ( #76 ) );
#36 = ADVANCED_FACE( '', ( #77, #78 ), #79, .T. );
#37 = PRESENTATION_STYLE_ASSIGNMENT( ( #80 ) );
#38 = ADVANCED_FACE( '', ( #81 ), #82, .T. );
#39 = PRESENTATION_STYLE_ASSIGNMENT( ( #83 ) );
#40 = ADVANCED_FACE( '', ( #84, #85 ), #86, .T. );
#41 = PRESENTATION_STYLE_ASSIGNMENT( ( #87 ) );
#42 = ADVANCED_FACE( '', ( #88 ), #89, .T. );
#43 = PRESENTATION_STYLE_ASSIGNMENT( ( #90 ) );
#44 = ADVANCED_FACE( '', ( #91 ), #92, .T. );
#45 = PRESENTATION_STYLE_ASSIGNMENT( ( #93 ) );
#46 = ADVANCED_FACE( '', ( #94 ), #95, .T. );
#47 = PRESENTATION_STYLE_ASSIGNMENT( ( #96 ) );
#48 = ADVANCED_FACE( '', ( #97 ), #98, .T. );
#49 = PRESENTATION_STYLE_ASSIGNMENT( ( #99 ) );
#50 = ADVANCED_FACE( '', ( #100, #101 ), #102, .T. );
#51 = PRESENTATION_STYLE_ASSIGNMENT( ( #103 ) );
#52 = ADVANCED_FACE( '', ( #104 ), #105, .T. );
#53 = PRESENTATION_STYLE_ASSIGNMENT( ( #106 ) );
#54 = ADVANCED_FACE( '', ( #107 ), #108, .T. );
#55 = PRESENTATION_STYLE_ASSIGNMENT( ( #109 ) );
#56 = ADVANCED_FACE( '', ( #110, #111 ), #112, .T. );
#57 = PRESENTATION_STYLE_ASSIGNMENT( ( #113 ) );
#58 = ADVANCED_FACE( '', ( #114 ), #115, .T. );
#59 = PRODUCT( '1', '1', 'PART-1-DESC', ( #116 ) );
#60 = PRODUCT_DEFINITION( 'NONE', 'NONE', #117, #2 );
#61 = MANIFOLD_SOLID_BREP( '1', #118 );
#62 = AXIS2_PLACEMENT_3D( '', #119, #120, #121 );
#65 = LENGTH_MEASURE_WITH_UNIT( LENGTH_MEASURE( 1.00000000000000 ), #122 );
#68 = DIMENSIONAL_EXPONENTS( 1.00000000000000, 0.000000000000000, 0.000000000000000, 0.000000000000000, 0.000000000000000, 0.000000000000000, 0.000000000000000 );
#70 = DIMENSIONAL_EXPONENTS( 0.000000000000000, 0.000000000000000, 0.000000000000000, 0.000000000000000, 0.000000000000000, 0.000000000000000, 0.000000000000000 );
#76 = SURFACE_STYLE_USAGE( .BOTH., #123 );
#77 = FACE_BOUND( '', #124, .T. );
#78 = FACE_OUTER_BOUND( '', #125, .T. );
#79 = CONICAL_SURFACE( '', #126, 2.50000000000000, 0.785398163397442 );
#80 = SURFACE_STYLE_USAGE( .BOTH., #127 );
#81 = FACE_OUTER_BOUND( '', #128, .T. );
#82 = PLANE( '', #129 );
#83 = SURFACE_STYLE_USAGE( .BOTH., #130 );
#84 = FACE_OUTER_BOUND( '', #131, .T. );
#85 = FACE_OUTER_BOUND( '', #132, .T. );
#86 = CYLINDRICAL_SURFACE( '', #133, 2.50000000000000 );
#87 = SURFACE_STYLE_USAGE( .BOTH., #134 );
#88 = FACE_OUTER_BOUND( '', #135, .T. );
#89 = PLANE( '', #136 );
#90 = SURFACE_STYLE_USAGE( .BOTH., #137 );
#91 = FACE_OUTER_BOUND( '', #138, .T. );
#92 = PLANE( '', #139 );
#93 = SURFACE_STYLE_USAGE( .BOTH., #140 );
#94 = FACE_OUTER_BOUND( '', #141, .T. );
#95 = CONICAL_SURFACE( '', #142, 2.00000000000000, 0.785398163397448 );
#96 = SURFACE_STYLE_USAGE( .BOTH., #143 );
#97 = FACE_OUTER_BOUND( '', #144, .T. );
#98 = CONICAL_SURFACE( '', #145, 2.00000000000000, 0.785398163397448 );
#99 = SURFACE_STYLE_USAGE( .BOTH., #146 );
#100 = FACE_BOUND( '', #147, .T. );
#101 = FACE_OUTER_BOUND( '', #148, .T. );
#102 = PLANE( '', #149 );
#103 = SURFACE_STYLE_USAGE( .BOTH., #150 );
#104 = FACE_OUTER_BOUND( '', #151, .T. );
#105 = SPHERICAL_SURFACE( '', #152, 1.50000000000000 );
#106 = SURFACE_STYLE_USAGE( .BOTH., #153 );
#107 = FACE_OUTER_BOUND( '', #154, .T. );
#108 = PLANE( '', #155 );
#109 = SURFACE_STYLE_USAGE( .BOTH., #156 );
#110 = FACE_OUTER_BOUND( '', #157, .T. );
#111 = FACE_OUTER_BOUND( '', #158, .T. );
#112 = CYLINDRICAL_SURFACE( '', #159, 2.00000000000000 );
#113 = SURFACE_STYLE_USAGE( .BOTH., #160 );
#114 = FACE_OUTER_BOUND( '', #161, .T. );
#115 = PLANE( '', #162 );
#116 = PRODUCT_CONTEXT( '', #22, 'mechanical' );
#117 = PRODUCT_DEFINITION_FORMATION_WITH_SPECIFIED_SOURCE( ' ', 'NONE', #59, .NOT_KNOWN. );
#118 = CLOSED_SHELL( '', ( #38, #48, #40, #42, #44, #58, #46, #54, #36, #56, #50, #52 ) );
#119 = CARTESIAN_POINT( '', ( 0.000000000000000, 0.000000000000000, 0.000000000000000 ) );
#120 = DIRECTION( '', ( 0.000000000000000, 0.000000000000000, 1.00000000000000 ) );
#121 = DIRECTION( '', ( 1.00000000000000, 0.000000000000000, 0.000000000000000 ) );
#122 =  ( LENGTH_UNIT(  )NAMED_UNIT( #68 )SI_UNIT( .MILLI., .METRE. ) );
#123 = SURFACE_SIDE_STYLE( '', ( #164 ) );
#124 = EDGE_LOOP( '', ( #165 ) );
#125 = EDGE_LOOP( '', ( #166 ) );
#126 = AXIS2_PLACEMENT_3D( '', #167, #168, #169 );
#127 = SURFACE_SIDE_STYLE( '', ( #170 ) );
#128 = EDGE_LOOP( '', ( #171, #172 ) );
#129 = AXIS2_PLACEMENT_3D( '', #173, #174, #175 );
#130 = SURFACE_SIDE_STYLE( '', ( #176 ) );
#131 = EDGE_LOOP( '', ( #177 ) );
#132 = EDGE_LOOP( '', ( #178, #179, #180, #181, #182, #183, #184, #185 ) );
#133 = AXIS2_PLACEMENT_3D( '', #186, #187, #188 );
#134 = SURFACE_SIDE_STYLE( '', ( #189 ) );
#135 = EDGE_LOOP( '', ( #190, #191, #192, #193 ) );
#136 = AXIS2_PLACEMENT_3D( '', #194, #195, #196 );
#137 = SURFACE_SIDE_STYLE( '', ( #197 ) );
#138 = EDGE_LOOP( '', ( #198, #199, #200, #201, #202, #203 ) );
#139 = AXIS2_PLACEMENT_3D( '', #204, #205, #206 );
#140 = SURFACE_SIDE_STYLE( '', ( #207 ) );
#141 = EDGE_LOOP( '', ( #208, #209, #210, #211 ) );
#142 = AXIS2_PLACEMENT_3D( '', #212, #213, #214 );
#143 = SURFACE_SIDE_STYLE( '', ( #215 ) );
#144 = EDGE_LOOP( '', ( #216, #217, #218, #219 ) );
#145 = AXIS2_PLACEMENT_3D( '', #220, #221, #222 );
#146 = SURFACE_SIDE_STYLE( '', ( #223 ) );
#147 = EDGE_LOOP( '', ( #224 ) );
#148 = EDGE_LOOP( '', ( #225 ) );
#149 = AXIS2_PLACEMENT_3D( '', #226, #227, #228 );
#150 = SURFACE_SIDE_STYLE( '', ( #229 ) );
#151 = EDGE_LOOP( '', ( #230 ) );
#152 = AXIS2_PLACEMENT_3D( '', #231, #232, #233 );
#153 = SURFACE_SIDE_STYLE( '', ( #234 ) );
#154 = EDGE_LOOP( '', ( #235, #236 ) );
#155 = AXIS2_PLACEMENT_3D( '', #237, #238, #239 );
#156 = SURFACE_SIDE_STYLE( '', ( #240 ) );
#157 = EDGE_LOOP( '', ( #241 ) );
#158 = EDGE_LOOP( '', ( #242 ) );
#159 = AXIS2_PLACEMENT_3D( '', #243, #244, #245 );
#160 = SURFACE_SIDE_STYLE( '', ( #246 ) );
#161 = EDGE_LOOP( '', ( #247, #248, #249, #250, #251, #252 ) );
#162 = AXIS2_PLACEMENT_3D( '', #253, #254, #255 );
#164 = SURFACE_STYLE_FILL_AREA( #256 );
#165 = ORIENTED_EDGE( '', *, *, #257, .T. );
#166 = ORIENTED_EDGE( '', *, *, #258, .F. );
#167 = CARTESIAN_POINT( '', ( 0.000000000000000, 0.000000000000000, 1.90000000000000 ) );
#168 = DIRECTION( '', ( -0.000000000000000, -0.000000000000000, 1.00000000000000 ) );
#169 = DIRECTION( '', ( 1.00000000000000, 0.000000000000000, 0.000000000000000 ) );
#170 = SURFACE_STYLE_FILL_AREA( #259 );
#171 = ORIENTED_EDGE( '', *, *, #260, .T. );
#172 = ORIENTED_EDGE( '', *, *, #261, .T. );
#173 = CARTESIAN_POINT( '', ( 0.000000000000000, 0.000000000000000, 12.9000000000000 ) );
#174 = DIRECTION( '', ( 0.000000000000000, 0.000000000000000, 1.00000000000000 ) );
#175 = DIRECTION( '', ( 1.00000000000000, 0.000000000000000, 0.000000000000000 ) );
#176 = SURFACE_STYLE_FILL_AREA( #262 );
#177 = ORIENTED_EDGE( '', *, *, #258, .T. );
#178 = ORIENTED_EDGE( '', *, *, #263, .T. );
#179 = ORIENTED_EDGE( '', *, *, #264, .T. );
#180 = ORIENTED_EDGE( '', *, *, #265, .T. );
#181 = ORIENTED_EDGE( '', *, *, #266, .T. );
#182 = ORIENTED_EDGE( '', *, *, #267, .T. );
#183 = ORIENTED_EDGE( '', *, *, #268, .T. );
#184 = ORIENTED_EDGE( '', *, *, #269, .T. );
#185 = ORIENTED_EDGE( '', *, *, #270, .T. );
#186 = CARTESIAN_POINT( '', ( 0.000000000000000, 0.000000000000000, 57.1500000000000 ) );
#187 = DIRECTION( '', ( -0.000000000000000, -0.000000000000000, -1.00000000000000 ) );
#188 = DIRECTION( '', ( 1.00000000000000, 0.000000000000000, 0.000000000000000 ) );
#189 = SURFACE_STYLE_FILL_AREA( #271 );
#190 = ORIENTED_EDGE( '', *, *, #272, .T. );
#191 = ORIENTED_EDGE( '', *, *, #266, .F. );
#192 = ORIENTED_EDGE( '', *, *, #273, .F. );
#193 = ORIENTED_EDGE( '', *, *, #270, .F. );
#194 = CARTESIAN_POINT( '', ( -0.500000000000000, -10.0000000000000, 11.9000000000000 ) );
#195 = DIRECTION( '', ( 0.000000000000000, 0.000000000000000, 1.00000000000000 ) );
#196 = DIRECTION( '', ( 1.00000000000000, 0.000000000000000, 0.000000000000000 ) );
#197 = SURFACE_STYLE_FILL_AREA( #274 );
#198 = ORIENTED_EDGE( '', *, *, #275, .T. );
#199 = ORIENTED_EDGE( '', *, *, #276, .T. );
#200 = ORIENTED_EDGE( '', *, *, #267, .F. );
#201 = ORIENTED_EDGE( '', *, *, #272, .F. );
#202 = ORIENTED_EDGE( '', *, *, #269, .F. );
#203 = ORIENTED_EDGE( '', *, *, #277, .T. );
#204 = CARTESIAN_POINT( '', ( 0.500000000000000, -10.0000000000000, 11.9000000000000 ) );
#205 = DIRECTION( '', ( -1.00000000000000, 0.000000000000000, 0.000000000000000 ) );
#206 = DIRECTION( '', ( 0.000000000000000, 0.000000000000000, 1.00000000000000 ) );
#207 = SURFACE_STYLE_FILL_AREA( #278 );
#208 = ORIENTED_EDGE( '', *, *, #279, .F. );
#209 = ORIENTED_EDGE( '', *, *, #264, .F. );
#210 = ORIENTED_EDGE( '', *, *, #280, .F. );
#211 = ORIENTED_EDGE( '', *, *, #261, .F. );
#212 = CARTESIAN_POINT( '', ( 0.000000000000000, 0.000000000000000, 12.9000000000000 ) );
#213 = DIRECTION( '', ( -0.000000000000000, 0.000000000000000, -1.00000000000000 ) );
#214 = DIRECTION( '', ( -1.00000000000000, 0.000000000000000, 0.000000000000000 ) );
#215 = SURFACE_STYLE_FILL_AREA( #281 );
#216 = ORIENTED_EDGE( '', *, *, #277, .F. );
#217 = ORIENTED_EDGE( '', *, *, #268, .F. );
#218 = ORIENTED_EDGE( '', *, *, #276, .F. );
#219 = ORIENTED_EDGE( '', *, *, #282, .F. );
#220 = CARTESIAN_POINT( '', ( 0.000000000000000, 0.000000000000000, 12.9000000000000 ) );
#221 = DIRECTION( '', ( -0.000000000000000, 0.000000000000000, -1.00000000000000 ) );
#222 = DIRECTION( '', ( -1.00000000000000, 0.000000000000000, 0.000000000000000 ) );
#223 = SURFACE_STYLE_FILL_AREA( #283 );
#224 = ORIENTED_EDGE( '', *, *, #284, .T. );
#225 = ORIENTED_EDGE( '', *, *, #285, .F. );
#226 = CARTESIAN_POINT( '', ( 1.37477270848675, 0.000000000000000, 0.900000000000000 ) );
#227 = DIRECTION( '', ( 0.000000000000000, 0.000000000000000, -1.00000000000000 ) );
#228 = DIRECTION( '', ( -1.00000000000000, 0.000000000000000, 0.000000000000000 ) );
#229 = SURFACE_STYLE_FILL_AREA( #286 );
#230 = ORIENTED_EDGE( '', *, *, #284, .F. );
#231 = CARTESIAN_POINT( '', ( 0.000000000000000, 0.000000000000000, 1.50000000000000 ) );
#232 = DIRECTION( '', ( 0.000000000000000, 0.000000000000000, 1.00000000000000 ) );
#233 = DIRECTION( '', ( 1.00000000000000, 0.000000000000000, 0.000000000000000 ) );
#234 = SURFACE_STYLE_FILL_AREA( #287 );
#235 = ORIENTED_EDGE( '', *, *, #275, .F. );
#236 = ORIENTED_EDGE( '', *, *, #282, .T. );
#237 = CARTESIAN_POINT( '', ( 0.000000000000000, 0.000000000000000, 12.9000000000000 ) );
#238 = DIRECTION( '', ( 0.000000000000000, 0.000000000000000, 1.00000000000000 ) );
#239 = DIRECTION( '', ( 1.00000000000000, 0.000000000000000, 0.000000000000000 ) );
#240 = SURFACE_STYLE_FILL_AREA( #288 );
#241 = ORIENTED_EDGE( '', *, *, #285, .T. );
#242 = ORIENTED_EDGE( '', *, *, #257, .F. );
#243 = CARTESIAN_POINT( '', ( 0.000000000000000, 0.000000000000000, 57.1500000000000 ) );
#244 = DIRECTION( '', ( -0.000000000000000, -0.000000000000000, -1.00000000000000 ) );
#245 = DIRECTION( '', ( 1.00000000000000, 0.000000000000000, 0.000000000000000 ) );
#246 = SURFACE_STYLE_FILL_AREA( #289 );
#247 = ORIENTED_EDGE( '', *, *, #260, .F. );
#248 = ORIENTED_EDGE( '', *, *, #280, .T. );
#249 = ORIENTED_EDGE( '', *, *, #263, .F. );
#250 = ORIENTED_EDGE( '', *, *, #273, .T. );
#251 = ORIENTED_EDGE( '', *, *, #265, .F. );
#252 = ORIENTED_EDGE( '', *, *, #279, .T. );
#253 = CARTESIAN_POINT( '', ( -0.500000000000000, -10.0000000000000, 12.9000000000000 ) );
#254 = DIRECTION( '', ( 1.00000000000000, 0.000000000000000, 0.000000000000000 ) );
#255 = DIRECTION( '', ( 0.000000000000000, 0.000000000000000, -1.00000000000000 ) );
#256 = FILL_AREA_STYLE( '', ( #290 ) );
#257 = EDGE_CURVE( '', #291, #291, #292, .T. );
#258 = EDGE_CURVE( '', #293, #293, #294, .T. );
#259 = FILL_AREA_STYLE( '', ( #295 ) );
#260 = EDGE_CURVE( '', #296, #297, #298, .T. );
#261 = EDGE_CURVE( '', #297, #296, #299, .T. );
#262 = FILL_AREA_STYLE( '', ( #300 ) );
#263 = EDGE_CURVE( '', #301, #302, #303, .T. );
#264 = EDGE_CURVE( '', #302, #304, #305, .F. );
#265 = EDGE_CURVE( '', #304, #306, #307, .F. );
#266 = EDGE_CURVE( '', #306, #308, #309, .F. );
#267 = EDGE_CURVE( '', #308, #310, #311, .T. );
#268 = EDGE_CURVE( '', #310, #312, #313, .F. );
#269 = EDGE_CURVE( '', #312, #314, #315, .F. );
#270 = EDGE_CURVE( '', #314, #301, #316, .F. );
#271 = FILL_AREA_STYLE( '', ( #317 ) );
#272 = EDGE_CURVE( '', #314, #308, #318, .T. );
#273 = EDGE_CURVE( '', #301, #306, #319, .T. );
#274 = FILL_AREA_STYLE( '', ( #320 ) );
#275 = EDGE_CURVE( '', #321, #322, #323, .T. );
#276 = EDGE_CURVE( '', #322, #310, #324, .T. );
#277 = EDGE_CURVE( '', #312, #321, #325, .T. );
#278 = FILL_AREA_STYLE( '', ( #326 ) );
#279 = EDGE_CURVE( '', #304, #297, #327, .T. );
#280 = EDGE_CURVE( '', #296, #302, #328, .T. );
#281 = FILL_AREA_STYLE( '', ( #329 ) );
#282 = EDGE_CURVE( '', #321, #322, #330, .T. );
#283 = FILL_AREA_STYLE( '', ( #331 ) );
#284 = EDGE_CURVE( '', #332, #332, #333, .T. );
#285 = EDGE_CURVE( '', #334, #334, #335, .T. );
#286 = FILL_AREA_STYLE( '', ( #336 ) );
#287 = FILL_AREA_STYLE( '', ( #337 ) );
#288 = FILL_AREA_STYLE( '', ( #338 ) );
#289 = FILL_AREA_STYLE( '', ( #339 ) );
#290 = FILL_AREA_STYLE_COLOUR( '', #340 );
#291 = VERTEX_POINT( '', #341 );
#292 = CIRCLE( '', #342, 2.00000000000000 );
#293 = VERTEX_POINT( '', #343 );
#294 = CIRCLE( '', #344, 2.50000000000000 );
#295 = FILL_AREA_STYLE_COLOUR( '', #345 );
#296 = VERTEX_POINT( '', #346 );
#297 = VERTEX_POINT( '', #347 );
#298 = LINE( '', #348, #349 );
#299 = CIRCLE( '', #350, 2.00000000000000 );
#300 = FILL_AREA_STYLE_COLOUR( '', #351 );
#301 = VERTEX_POINT( '', #352 );
#302 = VERTEX_POINT( '', #353 );
#303 = LINE( '', #354, #355 );
#304 = VERTEX_POINT( '', #356 );
#305 = CIRCLE( '', #357, 2.50000000000000 );
#306 = VERTEX_POINT( '', #358 );
#307 = LINE( '', #359, #360 );
#308 = VERTEX_POINT( '', #361 );
#309 = CIRCLE( '', #362, 2.50000000000000 );
#310 = VERTEX_POINT( '', #363 );
#311 = LINE( '', #364, #365 );
#312 = VERTEX_POINT( '', #366 );
#313 = CIRCLE( '', #367, 2.50000000000000 );
#314 = VERTEX_POINT( '', #368 );
#315 = LINE( '', #369, #370 );
#316 = CIRCLE( '', #371, 2.50000000000000 );
#317 = FILL_AREA_STYLE_COLOUR( '', #372 );
#318 = LINE( '', #373, #374 );
#319 = LINE( '', #375, #376 );
#320 = FILL_AREA_STYLE_COLOUR( '', #377 );
#321 = VERTEX_POINT( '', #378 );
#322 = VERTEX_POINT( '', #379 );
#323 = LINE( '', #380, #381 );
#324 = B_SPLINE_CURVE_WITH_KNOTS( '', 3, ( #382, #383, #384, #385 ), .UNSPECIFIED., .F., .F., ( 4, 4 ), ( 0.000000000000000, 0.000716356768303939 ), .UNSPECIFIED. );
#325 = B_SPLINE_CURVE_WITH_KNOTS( '', 3, ( #386, #387, #388, #389 ), .UNSPECIFIED., .F., .F., ( 4, 4 ), ( 0.000000000000000, 0.000716356768303939 ), .UNSPECIFIED. );
#326 = FILL_AREA_STYLE_COLOUR( '', #390 );
#327 = B_SPLINE_CURVE_WITH_KNOTS( '', 3, ( #391, #392, #393, #394 ), .UNSPECIFIED., .F., .F., ( 4, 4 ), ( 0.000000000000000, 0.000716356768303939 ), .UNSPECIFIED. );
#328 = B_SPLINE_CURVE_WITH_KNOTS( '', 3, ( #395, #396, #397, #398 ), .UNSPECIFIED., .F., .F., ( 4, 4 ), ( 0.000000000000000, 0.000716356768303939 ), .UNSPECIFIED. );
#329 = FILL_AREA_STYLE_COLOUR( '', #399 );
#330 = CIRCLE( '', #400, 2.00000000000000 );
#331 = FILL_AREA_STYLE_COLOUR( '', #401 );
#332 = VERTEX_POINT( '', #402 );
#333 = CIRCLE( '', #403, 1.37477270848675 );
#334 = VERTEX_POINT( '', #404 );
#335 = CIRCLE( '', #405, 2.00000000000000 );
#336 = FILL_AREA_STYLE_COLOUR( '', #406 );
#337 = FILL_AREA_STYLE_COLOUR( '', #407 );
#338 = FILL_AREA_STYLE_COLOUR( '', #408 );
#339 = FILL_AREA_STYLE_COLOUR( '', #409 );
#340 = COLOUR_RGB( '', 0.800000011920929, 0.800000011920929, 0.800000011920929 );
#341 = CARTESIAN_POINT( '', ( 2.00000000000000, 0.000000000000000, 1.40000000000000 ) );
#342 = AXIS2_PLACEMENT_3D( '', #410, #411, #412 );
#343 = CARTESIAN_POINT( '', ( 2.50000000000000, 0.000000000000000, 1.90000000000000 ) );
#344 = AXIS2_PLACEMENT_3D( '', #413, #414, #415 );
#345 = COLOUR_RGB( '', 0.800000011920929, 0.800000011920929, 0.800000011920929 );
#346 = CARTESIAN_POINT( '', ( -0.500000000000000, -1.93649167310371, 12.9000000000000 ) );
#347 = CARTESIAN_POINT( '', ( -0.500000000000000, 1.93649167310371, 12.9000000000000 ) );
#348 = CARTESIAN_POINT( '', ( -0.500000000000000, -10.0000000000000, 12.9000000000000 ) );
#349 = VECTOR( '', #416, 1000.00000000000 );
#350 = AXIS2_PLACEMENT_3D( '', #417, #418, #419 );
#351 = COLOUR_RGB( '', 0.752941191196442, 0.752941191196442, 0.752941191196442 );
#352 = CARTESIAN_POINT( '', ( -0.500000000000000, -2.44948974278318, 11.9000000000000 ) );
#353 = CARTESIAN_POINT( '', ( -0.500000000000000, -2.44948974278318, 12.4000000000000 ) );
#354 = CARTESIAN_POINT( '', ( -0.500000000000000, -2.44948974278318, 57.1500000000000 ) );
#355 = VECTOR( '', #420, 1000.00000000000 );
#356 = CARTESIAN_POINT( '', ( -0.500000000000000, 2.44948974278318, 12.4000000000000 ) );
#357 = AXIS2_PLACEMENT_3D( '', #421, #422, #423 );
#358 = CARTESIAN_POINT( '', ( -0.500000000000000, 2.44948974278318, 11.9000000000000 ) );
#359 = CARTESIAN_POINT( '', ( -0.500000000000000, 2.44948974278318, 57.1500000000000 ) );
#360 = VECTOR( '', #424, 1000.00000000000 );
#361 = CARTESIAN_POINT( '', ( 0.500000000000000, 2.44948974278318, 11.9000000000000 ) );
#362 = AXIS2_PLACEMENT_3D( '', #425, #426, #427 );
#363 = CARTESIAN_POINT( '', ( 0.500000000000000, 2.44948974278318, 12.4000000000000 ) );
#364 = CARTESIAN_POINT( '', ( 0.500000000000000, 2.44948974278318, 57.1500000000000 ) );
#365 = VECTOR( '', #428, 1000.00000000000 );
#366 = CARTESIAN_POINT( '', ( 0.500000000000000, -2.44948974278318, 12.4000000000000 ) );
#367 = AXIS2_PLACEMENT_3D( '', #429, #430, #431 );
#368 = CARTESIAN_POINT( '', ( 0.500000000000000, -2.44948974278318, 11.9000000000000 ) );
#369 = CARTESIAN_POINT( '', ( 0.500000000000000, -2.44948974278318, 57.1500000000000 ) );
#370 = VECTOR( '', #432, 1000.00000000000 );
#371 = AXIS2_PLACEMENT_3D( '', #433, #434, #435 );
#372 = COLOUR_RGB( '', 0.800000011920929, 0.800000011920929, 0.800000011920929 );
#373 = CARTESIAN_POINT( '', ( 0.500000000000000, -10.0000000000000, 11.9000000000000 ) );
#374 = VECTOR( '', #436, 1000.00000000000 );
#375 = CARTESIAN_POINT( '', ( -0.500000000000000, -10.0000000000000, 11.9000000000000 ) );
#376 = VECTOR( '', #437, 1000.00000000000 );
#377 = COLOUR_RGB( '', 0.800000011920929, 0.800000011920929, 0.800000011920929 );
#378 = CARTESIAN_POINT( '', ( 0.500000000000000, -1.93649167310371, 12.9000000000000 ) );
#379 = CARTESIAN_POINT( '', ( 0.500000000000000, 1.93649167310371, 12.9000000000000 ) );
#380 = CARTESIAN_POINT( '', ( 0.500000000000000, -10.0000000000000, 12.9000000000000 ) );
#381 = VECTOR( '', #438, 1000.00000000000 );
#382 = CARTESIAN_POINT( '', ( 0.500000000000000, 1.93649167310371, 12.9000000000000 ) );
#383 = CARTESIAN_POINT( '', ( 0.500000000000000, 2.10804030474391, 12.7338987516482 ) );
#384 = CARTESIAN_POINT( '', ( 0.500000000000000, 2.27892860747272, 12.5671151005842 ) );
#385 = CARTESIAN_POINT( '', ( 0.500000000000000, 2.44948974278318, 12.4000000000000 ) );
#386 = CARTESIAN_POINT( '', ( 0.500000000000000, -2.44948974278318, 12.4000000000000 ) );
#387 = CARTESIAN_POINT( '', ( 0.500000000000000, -2.27892860747272, 12.5671151005842 ) );
#388 = CARTESIAN_POINT( '', ( 0.500000000000000, -2.10804030474391, 12.7338987516482 ) );
#389 = CARTESIAN_POINT( '', ( 0.500000000000000, -1.93649167310371, 12.9000000000000 ) );
#390 = COLOUR_RGB( '', 0.800000011920929, 0.800000011920929, 0.800000011920929 );
#391 = CARTESIAN_POINT( '', ( -0.500000000000000, 2.44948974278318, 12.4000000000000 ) );
#392 = CARTESIAN_POINT( '', ( -0.500000000000000, 2.27892860747272, 12.5671151005842 ) );
#393 = CARTESIAN_POINT( '', ( -0.500000000000000, 2.10804030474391, 12.7338987516482 ) );
#394 = CARTESIAN_POINT( '', ( -0.500000000000000, 1.93649167310371, 12.9000000000000 ) );
#395 = CARTESIAN_POINT( '', ( -0.500000000000000, -1.93649167310371, 12.9000000000000 ) );
#396 = CARTESIAN_POINT( '', ( -0.500000000000000, -2.10804030474391, 12.7338987516482 ) );
#397 = CARTESIAN_POINT( '', ( -0.500000000000000, -2.27892860747272, 12.5671151005842 ) );
#398 = CARTESIAN_POINT( '', ( -0.500000000000000, -2.44948974278318, 12.4000000000000 ) );
#399 = COLOUR_RGB( '', 0.800000011920929, 0.800000011920929, 0.800000011920929 );
#400 = AXIS2_PLACEMENT_3D( '', #439, #440, #441 );
#401 = COLOUR_RGB( '', 0.800000011920929, 0.800000011920929, 0.800000011920929 );
#402 = CARTESIAN_POINT( '', ( 1.37477270848675, 0.000000000000000, 0.900000000000000 ) );
#403 = AXIS2_PLACEMENT_3D( '', #442, #443, #444 );
#404 = CARTESIAN_POINT( '', ( 2.00000000000000, 0.000000000000000, 0.900000000000000 ) );
#405 = AXIS2_PLACEMENT_3D( '', #445, #446, #447 );
#406 = COLOUR_RGB( '', 0.800000011920929, 0.800000011920929, 0.800000011920929 );
#407 = COLOUR_RGB( '', 0.800000011920929, 0.800000011920929, 0.800000011920929 );
#408 = COLOUR_RGB( '', 0.800000011920929, 0.800000011920929, 0.800000011920929 );
#409 = COLOUR_RGB( '', 0.800000011920929, 0.800000011920929, 0.800000011920929 );
#410 = CARTESIAN_POINT( '', ( 0.000000000000000, 0.000000000000000, 1.40000000000000 ) );
#411 = DIRECTION( '', ( 0.000000000000000, 0.000000000000000, 1.00000000000000 ) );
#412 = DIRECTION( '', ( 1.00000000000000, 0.000000000000000, 0.000000000000000 ) );
#413 = CARTESIAN_POINT( '', ( 0.000000000000000, 0.000000000000000, 1.90000000000000 ) );
#414 = DIRECTION( '', ( 0.000000000000000, 0.000000000000000, 1.00000000000000 ) );
#415 = DIRECTION( '', ( 1.00000000000000, 0.000000000000000, 0.000000000000000 ) );
#416 = DIRECTION( '', ( 0.000000000000000, 1.00000000000000, 0.000000000000000 ) );
#417 = CARTESIAN_POINT( '', ( 0.000000000000000, 0.000000000000000, 12.9000000000000 ) );
#418 = DIRECTION( '', ( 0.000000000000000, 0.000000000000000, 1.00000000000000 ) );
#419 = DIRECTION( '', ( 1.00000000000000, 0.000000000000000, 0.000000000000000 ) );
#420 = DIRECTION( '', ( 0.000000000000000, 0.000000000000000, 1.00000000000000 ) );
#421 = CARTESIAN_POINT( '', ( 0.000000000000000, 0.000000000000000, 12.4000000000000 ) );
#422 = DIRECTION( '', ( 0.000000000000000, 0.000000000000000, 1.00000000000000 ) );
#423 = DIRECTION( '', ( 1.00000000000000, 0.000000000000000, 0.000000000000000 ) );
#424 = DIRECTION( '', ( 0.000000000000000, 0.000000000000000, 1.00000000000000 ) );
#425 = CARTESIAN_POINT( '', ( 0.000000000000000, 0.000000000000000, 11.9000000000000 ) );
#426 = DIRECTION( '', ( 0.000000000000000, 0.000000000000000, 1.00000000000000 ) );
#427 = DIRECTION( '', ( 1.00000000000000, 0.000000000000000, 0.000000000000000 ) );
#428 = DIRECTION( '', ( 0.000000000000000, 0.000000000000000, 1.00000000000000 ) );
#429 = CARTESIAN_POINT( '', ( 0.000000000000000, 0.000000000000000, 12.4000000000000 ) );
#430 = DIRECTION( '', ( 0.000000000000000, 0.000000000000000, 1.00000000000000 ) );
#431 = DIRECTION( '', ( 1.00000000000000, 0.000000000000000, 0.000000000000000 ) );
#432 = DIRECTION( '', ( 0.000000000000000, 0.000000000000000, 1.00000000000000 ) );
#433 = CARTESIAN_POINT( '', ( 0.000000000000000, 0.000000000000000, 11.9000000000000 ) );
#434 = DIRECTION( '', ( 0.000000000000000, 0.000000000000000, 1.00000000000000 ) );
#435 = DIRECTION( '', ( 1.00000000000000, 0.000000000000000, 0.000000000000000 ) );
#436 = DIRECTION( '', ( 0.000000000000000, 1.00000000000000, 0.000000000000000 ) );
#437 = DIRECTION( '', ( 0.000000000000000, 1.00000000000000, 0.000000000000000 ) );
#438 = DIRECTION( '', ( 0.000000000000000, 1.00000000000000, 0.000000000000000 ) );
#439 = CARTESIAN_POINT( '', ( 0.000000000000000, 0.000000000000000, 12.9000000000000 ) );
#440 = DIRECTION( '', ( 0.000000000000000, 0.000000000000000, 1.00000000000000 ) );
#441 = DIRECTION( '', ( 1.00000000000000, 0.000000000000000, 0.000000000000000 ) );
#442 = CARTESIAN_POINT( '', ( 0.000000000000000, 0.000000000000000, 0.900000000000000 ) );
#443 = DIRECTION( '', ( 0.000000000000000, 0.000000000000000, 1.00000000000000 ) );
#444 = DIRECTION( '', ( 1.00000000000000, 0.000000000000000, 0.000000000000000 ) );
#445 = CARTESIAN_POINT( '', ( 0.000000000000000, 0.000000000000000, 0.900000000000000 ) );
#446 = DIRECTION( '', ( 0.000000000000000, 0.000000000000000, 1.00000000000000 ) );
#447 = DIRECTION( '', ( 1.00000000000000, 0.000000000000000, 0.000000000000000 ) );
ENDSEC;
END-ISO-10303-21;
