ISO-10303-21;
HEADER;
FILE_DESCRIPTION( ( 'Unknown' ), '1' );
FILE_NAME( '//SBS2003/HD_Usb/Disegni/08_LIB/Users_3D/PROD_GAMM_3D/APS-I/7747516_APS_12_IR.stp', 'Unknown', ( 'Unknown' ), ( 'Unknown' ), 'PSStep 14.0', 'Unknown', '  ' );
FILE_SCHEMA( ( 'AUTOMOTIVE_DESIGN { 1 0 10303 214 1 1 1 1 }' ) );
ENDSEC;
DATA;
#1 = MECHANICAL_DESIGN_GEOMETRIC_PRESENTATION_REPRESENTATION( ' ', ( #10, #11, #12, #13, #14, #15, #16, #17, #18, #19, #20, #21 ), #6 );
#2 = PRODUCT_DEFINITION_CONTEXT( '', #22, 'design' );
#3 = APPLICATION_PROTOCOL_DEFINITION( 'international standard', 'automotive_design', 2001, #22 );
#4 = PRODUCT_CATEGORY_RELATIONSHIP( 'NONE', 'NONE', #23, #24 );
#5 = SHAPE_DEFINITION_REPRESENTATION( #25, #26 );
#6 =  ( GEOMETRIC_REPRESENTATION_CONTEXT( 3 )GLOBAL_UNCERTAINTY_ASSIGNED_CONTEXT( ( #29 ) )GLOBAL_UNIT_ASSIGNED_CONTEXT( ( #31, #32, #33 ) )REPRESENTATION_CONTEXT( 'NONE', 'WORKSPACE' ) );
#10 = STYLED_ITEM( '', ( #35 ), #36 );
#11 = STYLED_ITEM( '', ( #37 ), #38 );
#12 = STYLED_ITEM( '', ( #39 ), #40 );
#13 = STYLED_ITEM( '', ( #41 ), #42 );
#14 = STYLED_ITEM( '', ( #43 ), #44 );
#15 = STYLED_ITEM( '', ( #45 ), #46 );
#16 = STYLED_ITEM( '', ( #47 ), #48 );
#17 = STYLED_ITEM( '', ( #49 ), #50 );
#18 = STYLED_ITEM( '', ( #51 ), #52 );
#19 = STYLED_ITEM( '', ( #53 ), #54 );
#20 = STYLED_ITEM( '', ( #55 ), #56 );
#21 = STYLED_ITEM( '', ( #57 ), #58 );
#22 = APPLICATION_CONTEXT( 'core data for automotive mechanical design processes' );
#23 = PRODUCT_CATEGORY( 'part', 'NONE' );
#24 = PRODUCT_RELATED_PRODUCT_CATEGORY( 'detail', ' ', ( #59 ) );
#25 = PRODUCT_DEFINITION_SHAPE( 'NONE', 'NONE', #60 );
#26 = ADVANCED_BREP_SHAPE_REPRESENTATION( '1', ( #61, #62 ), #6 );
#29 = UNCERTAINTY_MEASURE_WITH_UNIT( LENGTH_MEASURE( 0.00100000000000000 ), #31, '', '' );
#31 =  ( CONVERSION_BASED_UNIT( 'MILLIMETRE', #65 )LENGTH_UNIT(  )NAMED_UNIT( #68 ) );
#32 =  ( NAMED_UNIT( #70 )PLANE_ANGLE_UNIT(  )SI_UNIT( $, .RADIAN. ) );
#33 =  ( NAMED_UNIT( #70 )SI_UNIT( $, .STERADIAN. )SOLID_ANGLE_UNIT(  ) );
#35 = PRESENTATION_STYLE_ASSIGNMENT( ( #76 ) );
#36 = ADVANCED_FACE( '', ( #77 ), #78, .T. );
#37 = PRESENTATION_STYLE_ASSIGNMENT( ( #79 ) );
#38 = ADVANCED_FACE( '', ( #80 ), #81, .T. );
#39 = PRESENTATION_STYLE_ASSIGNMENT( ( #82 ) );
#40 = ADVANCED_FACE( '', ( #83, #84 ), #85, .T. );
#41 = PRESENTATION_STYLE_ASSIGNMENT( ( #86 ) );
#42 = ADVANCED_FACE( '', ( #87 ), #88, .T. );
#43 = PRESENTATION_STYLE_ASSIGNMENT( ( #89 ) );
#44 = ADVANCED_FACE( '', ( #90 ), #91, .T. );
#45 = PRESENTATION_STYLE_ASSIGNMENT( ( #92 ) );
#46 = ADVANCED_FACE( '', ( #93, #94 ), #95, .T. );
#47 = PRESENTATION_STYLE_ASSIGNMENT( ( #96 ) );
#48 = ADVANCED_FACE( '', ( #97 ), #98, .T. );
#49 = PRESENTATION_STYLE_ASSIGNMENT( ( #99 ) );
#50 = ADVANCED_FACE( '', ( #100 ), #101, .T. );
#51 = PRESENTATION_STYLE_ASSIGNMENT( ( #102 ) );
#52 = ADVANCED_FACE( '', ( #103, #104 ), #105, .T. );
#53 = PRESENTATION_STYLE_ASSIGNMENT( ( #106 ) );
#54 = ADVANCED_FACE( '', ( #107, #108 ), #109, .T. );
#55 = PRESENTATION_STYLE_ASSIGNMENT( ( #110 ) );
#56 = ADVANCED_FACE( '', ( #111 ), #112, .T. );
#57 = PRESENTATION_STYLE_ASSIGNMENT( ( #113 ) );
#58 = ADVANCED_FACE( '', ( #114 ), #115, .T. );
#59 = PRODUCT( '1', '1', 'PART-1-DESC', ( #116 ) );
#60 = PRODUCT_DEFINITION( 'NONE', 'NONE', #117, #2 );
#61 = MANIFOLD_SOLID_BREP( '1', #118 );
#62 = AXIS2_PLACEMENT_3D( '', #119, #120, #121 );
#65 = LENGTH_MEASURE_WITH_UNIT( LENGTH_MEASURE( 1.00000000000000 ), #122 );
#68 = DIMENSIONAL_EXPONENTS( 1.00000000000000, 0.000000000000000, 0.000000000000000, 0.000000000000000, 0.000000000000000, 0.000000000000000, 0.000000000000000 );
#70 = DIMENSIONAL_EXPONENTS( 0.000000000000000, 0.000000000000000, 0.000000000000000, 0.000000000000000, 0.000000000000000, 0.000000000000000, 0.000000000000000 );
#76 = SURFACE_STYLE_USAGE( .BOTH., #123 );
#77 = FACE_OUTER_BOUND( '', #124, .T. );
#78 = PLANE( '', #125 );
#79 = SURFACE_STYLE_USAGE( .BOTH., #126 );
#80 = FACE_OUTER_BOUND( '', #127, .T. );
#81 = CONICAL_SURFACE( '', #128, 2.00000000000000, 0.785398163397448 );
#82 = SURFACE_STYLE_USAGE( .BOTH., #129 );
#83 = FACE_BOUND( '', #130, .T. );
#84 = FACE_OUTER_BOUND( '', #131, .T. );
#85 = CONICAL_SURFACE( '', #132, 2.50000000000000, 0.785398163397442 );
#86 = SURFACE_STYLE_USAGE( .BOTH., #133 );
#87 = FACE_OUTER_BOUND( '', #134, .T. );
#88 = PLANE( '', #135 );
#89 = SURFACE_STYLE_USAGE( .BOTH., #136 );
#90 = FACE_OUTER_BOUND( '', #137, .T. );
#91 = CONICAL_SURFACE( '', #138, 2.00000000000000, 0.785398163397448 );
#92 = SURFACE_STYLE_USAGE( .BOTH., #139 );
#93 = FACE_OUTER_BOUND( '', #140, .T. );
#94 = FACE_OUTER_BOUND( '', #141, .T. );
#95 = CYLINDRICAL_SURFACE( '', #142, 2.00000000000000 );
#96 = SURFACE_STYLE_USAGE( .BOTH., #143 );
#97 = FACE_OUTER_BOUND( '', #144, .T. );
#98 = PLANE( '', #145 );
#99 = SURFACE_STYLE_USAGE( .BOTH., #146 );
#100 = FACE_OUTER_BOUND( '', #147, .T. );
#101 = PLANE( '', #148 );
#102 = SURFACE_STYLE_USAGE( .BOTH., #149 );
#103 = FACE_BOUND( '', #150, .T. );
#104 = FACE_OUTER_BOUND( '', #151, .T. );
#105 = PLANE( '', #152 );
#106 = SURFACE_STYLE_USAGE( .BOTH., #153 );
#107 = FACE_OUTER_BOUND( '', #154, .T. );
#108 = FACE_OUTER_BOUND( '', #155, .T. );
#109 = CYLINDRICAL_SURFACE( '', #156, 2.50000000000000 );
#110 = SURFACE_STYLE_USAGE( .BOTH., #157 );
#111 = FACE_OUTER_BOUND( '', #158, .T. );
#112 = PLANE( '', #159 );
#113 = SURFACE_STYLE_USAGE( .BOTH., #160 );
#114 = FACE_OUTER_BOUND( '', #161, .T. );
#115 = SPHERICAL_SURFACE( '', #162, 1.50000000000000 );
#116 = PRODUCT_CONTEXT( '', #22, 'mechanical' );
#117 = PRODUCT_DEFINITION_FORMATION_WITH_SPECIFIED_SOURCE( ' ', 'NONE', #59, .NOT_KNOWN. );
#118 = CLOSED_SHELL( '', ( #56, #44, #54, #48, #36, #50, #38, #42, #40, #46, #52, #58 ) );
#119 = CARTESIAN_POINT( '', ( 0.000000000000000, 0.000000000000000, 0.000000000000000 ) );
#120 = DIRECTION( '', ( 0.000000000000000, 0.000000000000000, 1.00000000000000 ) );
#121 = DIRECTION( '', ( 1.00000000000000, 0.000000000000000, 0.000000000000000 ) );
#122 =  ( LENGTH_UNIT(  )NAMED_UNIT( #68 )SI_UNIT( .MILLI., .METRE. ) );
#123 = SURFACE_SIDE_STYLE( '', ( #164 ) );
#124 = EDGE_LOOP( '', ( #165, #166, #167, #168, #169, #170 ) );
#125 = AXIS2_PLACEMENT_3D( '', #171, #172, #173 );
#126 = SURFACE_SIDE_STYLE( '', ( #174 ) );
#127 = EDGE_LOOP( '', ( #175, #176, #177, #178 ) );
#128 = AXIS2_PLACEMENT_3D( '', #179, #180, #181 );
#129 = SURFACE_SIDE_STYLE( '', ( #182 ) );
#130 = EDGE_LOOP( '', ( #183 ) );
#131 = EDGE_LOOP( '', ( #184 ) );
#132 = AXIS2_PLACEMENT_3D( '', #185, #186, #187 );
#133 = SURFACE_SIDE_STYLE( '', ( #188 ) );
#134 = EDGE_LOOP( '', ( #189, #190 ) );
#135 = AXIS2_PLACEMENT_3D( '', #191, #192, #193 );
#136 = SURFACE_SIDE_STYLE( '', ( #194 ) );
#137 = EDGE_LOOP( '', ( #195, #196, #197, #198 ) );
#138 = AXIS2_PLACEMENT_3D( '', #199, #200, #201 );
#139 = SURFACE_SIDE_STYLE( '', ( #202 ) );
#140 = EDGE_LOOP( '', ( #203 ) );
#141 = EDGE_LOOP( '', ( #204 ) );
#142 = AXIS2_PLACEMENT_3D( '', #205, #206, #207 );
#143 = SURFACE_SIDE_STYLE( '', ( #208 ) );
#144 = EDGE_LOOP( '', ( #209, #210, #211, #212 ) );
#145 = AXIS2_PLACEMENT_3D( '', #213, #214, #215 );
#146 = SURFACE_SIDE_STYLE( '', ( #216 ) );
#147 = EDGE_LOOP( '', ( #217, #218, #219, #220, #221, #222 ) );
#148 = AXIS2_PLACEMENT_3D( '', #223, #224, #225 );
#149 = SURFACE_SIDE_STYLE( '', ( #226 ) );
#150 = EDGE_LOOP( '', ( #227 ) );
#151 = EDGE_LOOP( '', ( #228 ) );
#152 = AXIS2_PLACEMENT_3D( '', #229, #230, #231 );
#153 = SURFACE_SIDE_STYLE( '', ( #232 ) );
#154 = EDGE_LOOP( '', ( #233 ) );
#155 = EDGE_LOOP( '', ( #234, #235, #236, #237, #238, #239, #240, #241 ) );
#156 = AXIS2_PLACEMENT_3D( '', #242, #243, #244 );
#157 = SURFACE_SIDE_STYLE( '', ( #245 ) );
#158 = EDGE_LOOP( '', ( #246, #247 ) );
#159 = AXIS2_PLACEMENT_3D( '', #248, #249, #250 );
#160 = SURFACE_SIDE_STYLE( '', ( #251 ) );
#161 = EDGE_LOOP( '', ( #252 ) );
#162 = AXIS2_PLACEMENT_3D( '', #253, #254, #255 );
#164 = SURFACE_STYLE_FILL_AREA( #256 );
#165 = ORIENTED_EDGE( '', *, *, #257, .T. );
#166 = ORIENTED_EDGE( '', *, *, #258, .T. );
#167 = ORIENTED_EDGE( '', *, *, #259, .F. );
#168 = ORIENTED_EDGE( '', *, *, #260, .F. );
#169 = ORIENTED_EDGE( '', *, *, #261, .F. );
#170 = ORIENTED_EDGE( '', *, *, #262, .T. );
#171 = CARTESIAN_POINT( '', ( 0.500000000000000, -10.0000000000000, 11.9000000000000 ) );
#172 = DIRECTION( '', ( -1.00000000000000, 0.000000000000000, 0.000000000000000 ) );
#173 = DIRECTION( '', ( 0.000000000000000, 0.000000000000000, 1.00000000000000 ) );
#174 = SURFACE_STYLE_FILL_AREA( #263 );
#175 = ORIENTED_EDGE( '', *, *, #264, .F. );
#176 = ORIENTED_EDGE( '', *, *, #265, .F. );
#177 = ORIENTED_EDGE( '', *, *, #266, .F. );
#178 = ORIENTED_EDGE( '', *, *, #267, .F. );
#179 = CARTESIAN_POINT( '', ( 0.000000000000000, 0.000000000000000, 12.9000000000000 ) );
#180 = DIRECTION( '', ( -0.000000000000000, 0.000000000000000, -1.00000000000000 ) );
#181 = DIRECTION( '', ( -1.00000000000000, 0.000000000000000, 0.000000000000000 ) );
#182 = SURFACE_STYLE_FILL_AREA( #268 );
#183 = ORIENTED_EDGE( '', *, *, #269, .T. );
#184 = ORIENTED_EDGE( '', *, *, #270, .F. );
#185 = CARTESIAN_POINT( '', ( 0.000000000000000, 0.000000000000000, 1.90000000000000 ) );
#186 = DIRECTION( '', ( -0.000000000000000, -0.000000000000000, 1.00000000000000 ) );
#187 = DIRECTION( '', ( 1.00000000000000, 0.000000000000000, 0.000000000000000 ) );
#188 = SURFACE_STYLE_FILL_AREA( #271 );
#189 = ORIENTED_EDGE( '', *, *, #257, .F. );
#190 = ORIENTED_EDGE( '', *, *, #272, .T. );
#191 = CARTESIAN_POINT( '', ( 0.000000000000000, 0.000000000000000, 12.9000000000000 ) );
#192 = DIRECTION( '', ( 0.000000000000000, 0.000000000000000, 1.00000000000000 ) );
#193 = DIRECTION( '', ( 1.00000000000000, 0.000000000000000, 0.000000000000000 ) );
#194 = SURFACE_STYLE_FILL_AREA( #273 );
#195 = ORIENTED_EDGE( '', *, *, #262, .F. );
#196 = ORIENTED_EDGE( '', *, *, #274, .F. );
#197 = ORIENTED_EDGE( '', *, *, #258, .F. );
#198 = ORIENTED_EDGE( '', *, *, #272, .F. );
#199 = CARTESIAN_POINT( '', ( 0.000000000000000, 0.000000000000000, 12.9000000000000 ) );
#200 = DIRECTION( '', ( -0.000000000000000, 0.000000000000000, -1.00000000000000 ) );
#201 = DIRECTION( '', ( -1.00000000000000, 0.000000000000000, 0.000000000000000 ) );
#202 = SURFACE_STYLE_FILL_AREA( #275 );
#203 = ORIENTED_EDGE( '', *, *, #276, .T. );
#204 = ORIENTED_EDGE( '', *, *, #269, .F. );
#205 = CARTESIAN_POINT( '', ( 0.000000000000000, 0.000000000000000, 57.1500000000000 ) );
#206 = DIRECTION( '', ( -0.000000000000000, -0.000000000000000, -1.00000000000000 ) );
#207 = DIRECTION( '', ( 1.00000000000000, 0.000000000000000, 0.000000000000000 ) );
#208 = SURFACE_STYLE_FILL_AREA( #277 );
#209 = ORIENTED_EDGE( '', *, *, #260, .T. );
#210 = ORIENTED_EDGE( '', *, *, #278, .F. );
#211 = ORIENTED_EDGE( '', *, *, #279, .F. );
#212 = ORIENTED_EDGE( '', *, *, #280, .F. );
#213 = CARTESIAN_POINT( '', ( -0.500000000000000, -10.0000000000000, 11.9000000000000 ) );
#214 = DIRECTION( '', ( 0.000000000000000, 0.000000000000000, 1.00000000000000 ) );
#215 = DIRECTION( '', ( 1.00000000000000, 0.000000000000000, 0.000000000000000 ) );
#216 = SURFACE_STYLE_FILL_AREA( #281 );
#217 = ORIENTED_EDGE( '', *, *, #282, .F. );
#218 = ORIENTED_EDGE( '', *, *, #266, .T. );
#219 = ORIENTED_EDGE( '', *, *, #283, .F. );
#220 = ORIENTED_EDGE( '', *, *, #279, .T. );
#221 = ORIENTED_EDGE( '', *, *, #284, .F. );
#222 = ORIENTED_EDGE( '', *, *, #264, .T. );
#223 = CARTESIAN_POINT( '', ( -0.500000000000000, -10.0000000000000, 12.9000000000000 ) );
#224 = DIRECTION( '', ( 1.00000000000000, 0.000000000000000, 0.000000000000000 ) );
#225 = DIRECTION( '', ( 0.000000000000000, 0.000000000000000, -1.00000000000000 ) );
#226 = SURFACE_STYLE_FILL_AREA( #285 );
#227 = ORIENTED_EDGE( '', *, *, #286, .T. );
#228 = ORIENTED_EDGE( '', *, *, #276, .F. );
#229 = CARTESIAN_POINT( '', ( 1.37477270848675, 0.000000000000000, 0.900000000000000 ) );
#230 = DIRECTION( '', ( 0.000000000000000, 0.000000000000000, -1.00000000000000 ) );
#231 = DIRECTION( '', ( -1.00000000000000, 0.000000000000000, 0.000000000000000 ) );
#232 = SURFACE_STYLE_FILL_AREA( #287 );
#233 = ORIENTED_EDGE( '', *, *, #270, .T. );
#234 = ORIENTED_EDGE( '', *, *, #283, .T. );
#235 = ORIENTED_EDGE( '', *, *, #265, .T. );
#236 = ORIENTED_EDGE( '', *, *, #284, .T. );
#237 = ORIENTED_EDGE( '', *, *, #278, .T. );
#238 = ORIENTED_EDGE( '', *, *, #259, .T. );
#239 = ORIENTED_EDGE( '', *, *, #274, .T. );
#240 = ORIENTED_EDGE( '', *, *, #261, .T. );
#241 = ORIENTED_EDGE( '', *, *, #280, .T. );
#242 = CARTESIAN_POINT( '', ( 0.000000000000000, 0.000000000000000, 57.1500000000000 ) );
#243 = DIRECTION( '', ( -0.000000000000000, -0.000000000000000, -1.00000000000000 ) );
#244 = DIRECTION( '', ( 1.00000000000000, 0.000000000000000, 0.000000000000000 ) );
#245 = SURFACE_STYLE_FILL_AREA( #288 );
#246 = ORIENTED_EDGE( '', *, *, #282, .T. );
#247 = ORIENTED_EDGE( '', *, *, #267, .T. );
#248 = CARTESIAN_POINT( '', ( 0.000000000000000, 0.000000000000000, 12.9000000000000 ) );
#249 = DIRECTION( '', ( 0.000000000000000, 0.000000000000000, 1.00000000000000 ) );
#250 = DIRECTION( '', ( 1.00000000000000, 0.000000000000000, 0.000000000000000 ) );
#251 = SURFACE_STYLE_FILL_AREA( #289 );
#252 = ORIENTED_EDGE( '', *, *, #286, .F. );
#253 = CARTESIAN_POINT( '', ( 0.000000000000000, 0.000000000000000, 1.50000000000000 ) );
#254 = DIRECTION( '', ( 0.000000000000000, 0.000000000000000, 1.00000000000000 ) );
#255 = DIRECTION( '', ( 1.00000000000000, 0.000000000000000, 0.000000000000000 ) );
#256 = FILL_AREA_STYLE( '', ( #290 ) );
#257 = EDGE_CURVE( '', #291, #292, #293, .T. );
#258 = EDGE_CURVE( '', #292, #294, #295, .T. );
#259 = EDGE_CURVE( '', #296, #294, #297, .T. );
#260 = EDGE_CURVE( '', #298, #296, #299, .T. );
#261 = EDGE_CURVE( '', #300, #298, #301, .F. );
#262 = EDGE_CURVE( '', #300, #291, #302, .T. );
#263 = FILL_AREA_STYLE( '', ( #303 ) );
#264 = EDGE_CURVE( '', #304, #305, #306, .T. );
#265 = EDGE_CURVE( '', #307, #304, #308, .F. );
#266 = EDGE_CURVE( '', #309, #307, #310, .T. );
#267 = EDGE_CURVE( '', #305, #309, #311, .T. );
#268 = FILL_AREA_STYLE( '', ( #312 ) );
#269 = EDGE_CURVE( '', #313, #313, #314, .T. );
#270 = EDGE_CURVE( '', #315, #315, #316, .T. );
#271 = FILL_AREA_STYLE( '', ( #317 ) );
#272 = EDGE_CURVE( '', #291, #292, #318, .T. );
#273 = FILL_AREA_STYLE( '', ( #319 ) );
#274 = EDGE_CURVE( '', #294, #300, #320, .F. );
#275 = FILL_AREA_STYLE( '', ( #321 ) );
#276 = EDGE_CURVE( '', #322, #322, #323, .T. );
#277 = FILL_AREA_STYLE( '', ( #324 ) );
#278 = EDGE_CURVE( '', #325, #296, #326, .F. );
#279 = EDGE_CURVE( '', #327, #325, #328, .T. );
#280 = EDGE_CURVE( '', #298, #327, #329, .F. );
#281 = FILL_AREA_STYLE( '', ( #330 ) );
#282 = EDGE_CURVE( '', #309, #305, #331, .T. );
#283 = EDGE_CURVE( '', #327, #307, #332, .T. );
#284 = EDGE_CURVE( '', #304, #325, #333, .F. );
#285 = FILL_AREA_STYLE( '', ( #334 ) );
#286 = EDGE_CURVE( '', #335, #335, #336, .T. );
#287 = FILL_AREA_STYLE( '', ( #337 ) );
#288 = FILL_AREA_STYLE( '', ( #338 ) );
#289 = FILL_AREA_STYLE( '', ( #339 ) );
#290 = FILL_AREA_STYLE_COLOUR( '', #340 );
#291 = VERTEX_POINT( '', #341 );
#292 = VERTEX_POINT( '', #342 );
#293 = LINE( '', #343, #344 );
#294 = VERTEX_POINT( '', #345 );
#295 = B_SPLINE_CURVE_WITH_KNOTS( '', 3, ( #346, #347, #348, #349 ), .UNSPECIFIED., .F., .F., ( 4, 4 ), ( 0.000000000000000, 0.000716356768303939 ), .UNSPECIFIED. );
#296 = VERTEX_POINT( '', #350 );
#297 = LINE( '', #351, #352 );
#298 = VERTEX_POINT( '', #353 );
#299 = LINE( '', #354, #355 );
#300 = VERTEX_POINT( '', #356 );
#301 = LINE( '', #357, #358 );
#302 = B_SPLINE_CURVE_WITH_KNOTS( '', 3, ( #359, #360, #361, #362 ), .UNSPECIFIED., .F., .F., ( 4, 4 ), ( 0.000000000000000, 0.000716356768303939 ), .UNSPECIFIED. );
#303 = FILL_AREA_STYLE_COLOUR( '', #363 );
#304 = VERTEX_POINT( '', #364 );
#305 = VERTEX_POINT( '', #365 );
#306 = B_SPLINE_CURVE_WITH_KNOTS( '', 3, ( #366, #367, #368, #369 ), .UNSPECIFIED., .F., .F., ( 4, 4 ), ( 0.000000000000000, 0.000716356768303939 ), .UNSPECIFIED. );
#307 = VERTEX_POINT( '', #370 );
#308 = CIRCLE( '', #371, 2.50000000000000 );
#309 = VERTEX_POINT( '', #372 );
#310 = B_SPLINE_CURVE_WITH_KNOTS( '', 3, ( #373, #374, #375, #376 ), .UNSPECIFIED., .F., .F., ( 4, 4 ), ( 0.000000000000000, 0.000716356768303939 ), .UNSPECIFIED. );
#311 = CIRCLE( '', #377, 2.00000000000000 );
#312 = FILL_AREA_STYLE_COLOUR( '', #378 );
#313 = VERTEX_POINT( '', #379 );
#314 = CIRCLE( '', #380, 2.00000000000000 );
#315 = VERTEX_POINT( '', #381 );
#316 = CIRCLE( '', #382, 2.50000000000000 );
#317 = FILL_AREA_STYLE_COLOUR( '', #383 );
#318 = CIRCLE( '', #384, 2.00000000000000 );
#319 = FILL_AREA_STYLE_COLOUR( '', #385 );
#320 = CIRCLE( '', #386, 2.50000000000000 );
#321 = FILL_AREA_STYLE_COLOUR( '', #387 );
#322 = VERTEX_POINT( '', #388 );
#323 = CIRCLE( '', #389, 2.00000000000000 );
#324 = FILL_AREA_STYLE_COLOUR( '', #390 );
#325 = VERTEX_POINT( '', #391 );
#326 = CIRCLE( '', #392, 2.50000000000000 );
#327 = VERTEX_POINT( '', #393 );
#328 = LINE( '', #394, #395 );
#329 = CIRCLE( '', #396, 2.50000000000000 );
#330 = FILL_AREA_STYLE_COLOUR( '', #397 );
#331 = LINE( '', #398, #399 );
#332 = LINE( '', #400, #401 );
#333 = LINE( '', #402, #403 );
#334 = FILL_AREA_STYLE_COLOUR( '', #404 );
#335 = VERTEX_POINT( '', #405 );
#336 = CIRCLE( '', #406, 1.37477270848675 );
#337 = FILL_AREA_STYLE_COLOUR( '', #407 );
#338 = FILL_AREA_STYLE_COLOUR( '', #408 );
#339 = FILL_AREA_STYLE_COLOUR( '', #409 );
#340 = COLOUR_RGB( '', 0.800000011920929, 0.800000011920929, 0.800000011920929 );
#341 = CARTESIAN_POINT( '', ( 0.500000000000000, -1.93649167310371, 12.9000000000000 ) );
#342 = CARTESIAN_POINT( '', ( 0.500000000000000, 1.93649167310371, 12.9000000000000 ) );
#343 = CARTESIAN_POINT( '', ( 0.500000000000000, -10.0000000000000, 12.9000000000000 ) );
#344 = VECTOR( '', #410, 1000.00000000000 );
#345 = CARTESIAN_POINT( '', ( 0.500000000000000, 2.44948974278318, 12.4000000000000 ) );
#346 = CARTESIAN_POINT( '', ( 0.500000000000000, 1.93649167310371, 12.9000000000000 ) );
#347 = CARTESIAN_POINT( '', ( 0.500000000000000, 2.10804030474391, 12.7338987516482 ) );
#348 = CARTESIAN_POINT( '', ( 0.500000000000000, 2.27892860747272, 12.5671151005842 ) );
#349 = CARTESIAN_POINT( '', ( 0.500000000000000, 2.44948974278318, 12.4000000000000 ) );
#350 = CARTESIAN_POINT( '', ( 0.500000000000000, 2.44948974278318, 11.9000000000000 ) );
#351 = CARTESIAN_POINT( '', ( 0.500000000000000, 2.44948974278318, 57.1500000000000 ) );
#352 = VECTOR( '', #411, 1000.00000000000 );
#353 = CARTESIAN_POINT( '', ( 0.500000000000000, -2.44948974278318, 11.9000000000000 ) );
#354 = CARTESIAN_POINT( '', ( 0.500000000000000, -10.0000000000000, 11.9000000000000 ) );
#355 = VECTOR( '', #412, 1000.00000000000 );
#356 = CARTESIAN_POINT( '', ( 0.500000000000000, -2.44948974278318, 12.4000000000000 ) );
#357 = CARTESIAN_POINT( '', ( 0.500000000000000, -2.44948974278318, 57.1500000000000 ) );
#358 = VECTOR( '', #413, 1000.00000000000 );
#359 = CARTESIAN_POINT( '', ( 0.500000000000000, -2.44948974278318, 12.4000000000000 ) );
#360 = CARTESIAN_POINT( '', ( 0.500000000000000, -2.27892860747272, 12.5671151005842 ) );
#361 = CARTESIAN_POINT( '', ( 0.500000000000000, -2.10804030474391, 12.7338987516482 ) );
#362 = CARTESIAN_POINT( '', ( 0.500000000000000, -1.93649167310371, 12.9000000000000 ) );
#363 = COLOUR_RGB( '', 0.800000011920929, 0.800000011920929, 0.800000011920929 );
#364 = CARTESIAN_POINT( '', ( -0.500000000000000, 2.44948974278318, 12.4000000000000 ) );
#365 = CARTESIAN_POINT( '', ( -0.500000000000000, 1.93649167310371, 12.9000000000000 ) );
#366 = CARTESIAN_POINT( '', ( -0.500000000000000, 2.44948974278318, 12.4000000000000 ) );
#367 = CARTESIAN_POINT( '', ( -0.500000000000000, 2.27892860747272, 12.5671151005842 ) );
#368 = CARTESIAN_POINT( '', ( -0.500000000000000, 2.10804030474391, 12.7338987516482 ) );
#369 = CARTESIAN_POINT( '', ( -0.500000000000000, 1.93649167310371, 12.9000000000000 ) );
#370 = CARTESIAN_POINT( '', ( -0.500000000000000, -2.44948974278318, 12.4000000000000 ) );
#371 = AXIS2_PLACEMENT_3D( '', #414, #415, #416 );
#372 = CARTESIAN_POINT( '', ( -0.500000000000000, -1.93649167310371, 12.9000000000000 ) );
#373 = CARTESIAN_POINT( '', ( -0.500000000000000, -1.93649167310371, 12.9000000000000 ) );
#374 = CARTESIAN_POINT( '', ( -0.500000000000000, -2.10804030474391, 12.7338987516482 ) );
#375 = CARTESIAN_POINT( '', ( -0.500000000000000, -2.27892860747272, 12.5671151005842 ) );
#376 = CARTESIAN_POINT( '', ( -0.500000000000000, -2.44948974278318, 12.4000000000000 ) );
#377 = AXIS2_PLACEMENT_3D( '', #417, #418, #419 );
#378 = COLOUR_RGB( '', 0.800000011920929, 0.800000011920929, 0.800000011920929 );
#379 = CARTESIAN_POINT( '', ( 2.00000000000000, 0.000000000000000, 1.40000000000000 ) );
#380 = AXIS2_PLACEMENT_3D( '', #420, #421, #422 );
#381 = CARTESIAN_POINT( '', ( 2.50000000000000, 0.000000000000000, 1.90000000000000 ) );
#382 = AXIS2_PLACEMENT_3D( '', #423, #424, #425 );
#383 = COLOUR_RGB( '', 0.800000011920929, 0.800000011920929, 0.800000011920929 );
#384 = AXIS2_PLACEMENT_3D( '', #426, #427, #428 );
#385 = COLOUR_RGB( '', 0.800000011920929, 0.800000011920929, 0.800000011920929 );
#386 = AXIS2_PLACEMENT_3D( '', #429, #430, #431 );
#387 = COLOUR_RGB( '', 0.800000011920929, 0.800000011920929, 0.800000011920929 );
#388 = CARTESIAN_POINT( '', ( 2.00000000000000, 0.000000000000000, 0.900000000000000 ) );
#389 = AXIS2_PLACEMENT_3D( '', #432, #433, #434 );
#390 = COLOUR_RGB( '', 0.800000011920929, 0.800000011920929, 0.800000011920929 );
#391 = CARTESIAN_POINT( '', ( -0.500000000000000, 2.44948974278318, 11.9000000000000 ) );
#392 = AXIS2_PLACEMENT_3D( '', #435, #436, #437 );
#393 = CARTESIAN_POINT( '', ( -0.500000000000000, -2.44948974278318, 11.9000000000000 ) );
#394 = CARTESIAN_POINT( '', ( -0.500000000000000, -10.0000000000000, 11.9000000000000 ) );
#395 = VECTOR( '', #438, 1000.00000000000 );
#396 = AXIS2_PLACEMENT_3D( '', #439, #440, #441 );
#397 = COLOUR_RGB( '', 0.800000011920929, 0.800000011920929, 0.800000011920929 );
#398 = CARTESIAN_POINT( '', ( -0.500000000000000, -10.0000000000000, 12.9000000000000 ) );
#399 = VECTOR( '', #442, 1000.00000000000 );
#400 = CARTESIAN_POINT( '', ( -0.500000000000000, -2.44948974278318, 57.1500000000000 ) );
#401 = VECTOR( '', #443, 1000.00000000000 );
#402 = CARTESIAN_POINT( '', ( -0.500000000000000, 2.44948974278318, 57.1500000000000 ) );
#403 = VECTOR( '', #444, 1000.00000000000 );
#404 = COLOUR_RGB( '', 0.800000011920929, 0.800000011920929, 0.800000011920929 );
#405 = CARTESIAN_POINT( '', ( 1.37477270848675, 0.000000000000000, 0.900000000000000 ) );
#406 = AXIS2_PLACEMENT_3D( '', #445, #446, #447 );
#407 = COLOUR_RGB( '', 0.752941191196442, 0.752941191196442, 0.752941191196442 );
#408 = COLOUR_RGB( '', 0.800000011920929, 0.800000011920929, 0.800000011920929 );
#409 = COLOUR_RGB( '', 0.800000011920929, 0.800000011920929, 0.800000011920929 );
#410 = DIRECTION( '', ( 0.000000000000000, 1.00000000000000, 0.000000000000000 ) );
#411 = DIRECTION( '', ( 0.000000000000000, 0.000000000000000, 1.00000000000000 ) );
#412 = DIRECTION( '', ( 0.000000000000000, 1.00000000000000, 0.000000000000000 ) );
#413 = DIRECTION( '', ( 0.000000000000000, 0.000000000000000, 1.00000000000000 ) );
#414 = CARTESIAN_POINT( '', ( 0.000000000000000, 0.000000000000000, 12.4000000000000 ) );
#415 = DIRECTION( '', ( 0.000000000000000, 0.000000000000000, 1.00000000000000 ) );
#416 = DIRECTION( '', ( 1.00000000000000, 0.000000000000000, 0.000000000000000 ) );
#417 = CARTESIAN_POINT( '', ( 0.000000000000000, 0.000000000000000, 12.9000000000000 ) );
#418 = DIRECTION( '', ( 0.000000000000000, 0.000000000000000, 1.00000000000000 ) );
#419 = DIRECTION( '', ( 1.00000000000000, 0.000000000000000, 0.000000000000000 ) );
#420 = CARTESIAN_POINT( '', ( 0.000000000000000, 0.000000000000000, 1.40000000000000 ) );
#421 = DIRECTION( '', ( 0.000000000000000, 0.000000000000000, 1.00000000000000 ) );
#422 = DIRECTION( '', ( 1.00000000000000, 0.000000000000000, 0.000000000000000 ) );
#423 = CARTESIAN_POINT( '', ( 0.000000000000000, 0.000000000000000, 1.90000000000000 ) );
#424 = DIRECTION( '', ( 0.000000000000000, 0.000000000000000, 1.00000000000000 ) );
#425 = DIRECTION( '', ( 1.00000000000000, 0.000000000000000, 0.000000000000000 ) );
#426 = CARTESIAN_POINT( '', ( 0.000000000000000, 0.000000000000000, 12.9000000000000 ) );
#427 = DIRECTION( '', ( 0.000000000000000, 0.000000000000000, 1.00000000000000 ) );
#428 = DIRECTION( '', ( 1.00000000000000, 0.000000000000000, 0.000000000000000 ) );
#429 = CARTESIAN_POINT( '', ( 0.000000000000000, 0.000000000000000, 12.4000000000000 ) );
#430 = DIRECTION( '', ( 0.000000000000000, 0.000000000000000, 1.00000000000000 ) );
#431 = DIRECTION( '', ( 1.00000000000000, 0.000000000000000, 0.000000000000000 ) );
#432 = CARTESIAN_POINT( '', ( 0.000000000000000, 0.000000000000000, 0.900000000000000 ) );
#433 = DIRECTION( '', ( 0.000000000000000, 0.000000000000000, 1.00000000000000 ) );
#434 = DIRECTION( '', ( 1.00000000000000, 0.000000000000000, 0.000000000000000 ) );
#435 = CARTESIAN_POINT( '', ( 0.000000000000000, 0.000000000000000, 11.9000000000000 ) );
#436 = DIRECTION( '', ( 0.000000000000000, 0.000000000000000, 1.00000000000000 ) );
#437 = DIRECTION( '', ( 1.00000000000000, 0.000000000000000, 0.000000000000000 ) );
#438 = DIRECTION( '', ( 0.000000000000000, 1.00000000000000, 0.000000000000000 ) );
#439 = CARTESIAN_POINT( '', ( 0.000000000000000, 0.000000000000000, 11.9000000000000 ) );
#440 = DIRECTION( '', ( 0.000000000000000, 0.000000000000000, 1.00000000000000 ) );
#441 = DIRECTION( '', ( 1.00000000000000, 0.000000000000000, 0.000000000000000 ) );
#442 = DIRECTION( '', ( 0.000000000000000, 1.00000000000000, 0.000000000000000 ) );
#443 = DIRECTION( '', ( 0.000000000000000, 0.000000000000000, 1.00000000000000 ) );
#444 = DIRECTION( '', ( 0.000000000000000, 0.000000000000000, 1.00000000000000 ) );
#445 = CARTESIAN_POINT( '', ( 0.000000000000000, 0.000000000000000, 0.900000000000000 ) );
#446 = DIRECTION( '', ( 0.000000000000000, 0.000000000000000, 1.00000000000000 ) );
#447 = DIRECTION( '', ( 1.00000000000000, 0.000000000000000, 0.000000000000000 ) );
ENDSEC;
END-ISO-10303-21;
