ISO-10303-21;
HEADER;
FILE_DESCRIPTION( ( 'Unknown' ), '1' );
FILE_NAME( '//SBS2003/HD_Usb/Disegni/08_LIB/Users_3D/PROD_GAMM_3D/APS-I/7747521_APS_14_IR.stp', 'Unknown', ( 'Unknown' ), ( 'Unknown' ), 'PSStep 14.0', 'Unknown', '  ' );
FILE_SCHEMA( ( 'AUTOMOTIVE_DESIGN { 1 0 10303 214 1 1 1 1 }' ) );
ENDSEC;
DATA;
#1 = MECHANICAL_DESIGN_GEOMETRIC_PRESENTATION_REPRESENTATION( ' ', ( #10, #11, #12, #13, #14, #15, #16, #17, #18, #19, #20, #21 ), #6 );
#2 = PRODUCT_DEFINITION_CONTEXT( '', #22, 'design' );
#3 = APPLICATION_PROTOCOL_DEFINITION( 'international standard', 'automotive_design', 2001, #22 );
#4 = PRODUCT_CATEGORY_RELATIONSHIP( 'NONE', 'NONE', #23, #24 );
#5 = SHAPE_DEFINITION_REPRESENTATION( #25, #26 );
#6 =  ( GEOMETRIC_REPRESENTATION_CONTEXT( 3 )GLOBAL_UNCERTAINTY_ASSIGNED_CONTEXT( ( #29 ) )GLOBAL_UNIT_ASSIGNED_CONTEXT( ( #31, #32, #33 ) )REPRESENTATION_CONTEXT( 'NONE', 'WORKSPACE' ) );
#10 = STYLED_ITEM( '', ( #35 ), #36 );
#11 = STYLED_ITEM( '', ( #37 ), #38 );
#12 = STYLED_ITEM( '', ( #39 ), #40 );
#13 = STYLED_ITEM( '', ( #41 ), #42 );
#14 = STYLED_ITEM( '', ( #43 ), #44 );
#15 = STYLED_ITEM( '', ( #45 ), #46 );
#16 = STYLED_ITEM( '', ( #47 ), #48 );
#17 = STYLED_ITEM( '', ( #49 ), #50 );
#18 = STYLED_ITEM( '', ( #51 ), #52 );
#19 = STYLED_ITEM( '', ( #53 ), #54 );
#20 = STYLED_ITEM( '', ( #55 ), #56 );
#21 = STYLED_ITEM( '', ( #57 ), #58 );
#22 = APPLICATION_CONTEXT( 'core data for automotive mechanical design processes' );
#23 = PRODUCT_CATEGORY( 'part', 'NONE' );
#24 = PRODUCT_RELATED_PRODUCT_CATEGORY( 'detail', ' ', ( #59 ) );
#25 = PRODUCT_DEFINITION_SHAPE( 'NONE', 'NONE', #60 );
#26 = ADVANCED_BREP_SHAPE_REPRESENTATION( '1', ( #61, #62 ), #6 );
#29 = UNCERTAINTY_MEASURE_WITH_UNIT( LENGTH_MEASURE( 0.00100000000000000 ), #31, '', '' );
#31 =  ( CONVERSION_BASED_UNIT( 'MILLIMETRE', #65 )LENGTH_UNIT(  )NAMED_UNIT( #68 ) );
#32 =  ( NAMED_UNIT( #70 )PLANE_ANGLE_UNIT(  )SI_UNIT( $, .RADIAN. ) );
#33 =  ( NAMED_UNIT( #70 )SI_UNIT( $, .STERADIAN. )SOLID_ANGLE_UNIT(  ) );
#35 = PRESENTATION_STYLE_ASSIGNMENT( ( #76 ) );
#36 = ADVANCED_FACE( '', ( #77 ), #78, .T. );
#37 = PRESENTATION_STYLE_ASSIGNMENT( ( #79 ) );
#38 = ADVANCED_FACE( '', ( #80 ), #81, .T. );
#39 = PRESENTATION_STYLE_ASSIGNMENT( ( #82 ) );
#40 = ADVANCED_FACE( '', ( #83, #84 ), #85, .T. );
#41 = PRESENTATION_STYLE_ASSIGNMENT( ( #86 ) );
#42 = ADVANCED_FACE( '', ( #87 ), #88, .T. );
#43 = PRESENTATION_STYLE_ASSIGNMENT( ( #89 ) );
#44 = ADVANCED_FACE( '', ( #90 ), #91, .T. );
#45 = PRESENTATION_STYLE_ASSIGNMENT( ( #92 ) );
#46 = ADVANCED_FACE( '', ( #93 ), #94, .T. );
#47 = PRESENTATION_STYLE_ASSIGNMENT( ( #95 ) );
#48 = ADVANCED_FACE( '', ( #96, #97 ), #98, .T. );
#49 = PRESENTATION_STYLE_ASSIGNMENT( ( #99 ) );
#50 = ADVANCED_FACE( '', ( #100 ), #101, .T. );
#51 = PRESENTATION_STYLE_ASSIGNMENT( ( #102 ) );
#52 = ADVANCED_FACE( '', ( #103 ), #104, .T. );
#53 = PRESENTATION_STYLE_ASSIGNMENT( ( #105 ) );
#54 = ADVANCED_FACE( '', ( #106, #107 ), #108, .T. );
#55 = PRESENTATION_STYLE_ASSIGNMENT( ( #109 ) );
#56 = ADVANCED_FACE( '', ( #110 ), #111, .T. );
#57 = PRESENTATION_STYLE_ASSIGNMENT( ( #112 ) );
#58 = ADVANCED_FACE( '', ( #113, #114 ), #115, .T. );
#59 = PRODUCT( '1', '1', 'PART-1-DESC', ( #116 ) );
#60 = PRODUCT_DEFINITION( 'NONE', 'NONE', #117, #2 );
#61 = MANIFOLD_SOLID_BREP( '1', #118 );
#62 = AXIS2_PLACEMENT_3D( '', #119, #120, #121 );
#65 = LENGTH_MEASURE_WITH_UNIT( LENGTH_MEASURE( 1.00000000000000 ), #122 );
#68 = DIMENSIONAL_EXPONENTS( 1.00000000000000, 0.000000000000000, 0.000000000000000, 0.000000000000000, 0.000000000000000, 0.000000000000000, 0.000000000000000 );
#70 = DIMENSIONAL_EXPONENTS( 0.000000000000000, 0.000000000000000, 0.000000000000000, 0.000000000000000, 0.000000000000000, 0.000000000000000, 0.000000000000000 );
#76 = SURFACE_STYLE_USAGE( .BOTH., #123 );
#77 = FACE_OUTER_BOUND( '', #124, .T. );
#78 = PLANE( '', #125 );
#79 = SURFACE_STYLE_USAGE( .BOTH., #126 );
#80 = FACE_OUTER_BOUND( '', #127, .T. );
#81 = PLANE( '', #128 );
#82 = SURFACE_STYLE_USAGE( .BOTH., #129 );
#83 = FACE_OUTER_BOUND( '', #130, .T. );
#84 = FACE_OUTER_BOUND( '', #131, .T. );
#85 = CYLINDRICAL_SURFACE( '', #132, 3.00000000000000 );
#86 = SURFACE_STYLE_USAGE( .BOTH., #133 );
#87 = FACE_OUTER_BOUND( '', #134, .T. );
#88 = CONICAL_SURFACE( '', #135, 2.50000000000000, 0.785398163397448 );
#89 = SURFACE_STYLE_USAGE( .BOTH., #136 );
#90 = FACE_OUTER_BOUND( '', #137, .T. );
#91 = PLANE( '', #138 );
#92 = SURFACE_STYLE_USAGE( .BOTH., #139 );
#93 = FACE_OUTER_BOUND( '', #140, .T. );
#94 = PLANE( '', #141 );
#95 = SURFACE_STYLE_USAGE( .BOTH., #142 );
#96 = FACE_BOUND( '', #143, .T. );
#97 = FACE_OUTER_BOUND( '', #144, .T. );
#98 = CONICAL_SURFACE( '', #145, 3.00000000000000, 0.785398163397449 );
#99 = SURFACE_STYLE_USAGE( .BOTH., #146 );
#100 = FACE_OUTER_BOUND( '', #147, .T. );
#101 = CONICAL_SURFACE( '', #148, 2.50000000000000, 0.785398163397448 );
#102 = SURFACE_STYLE_USAGE( .BOTH., #149 );
#103 = FACE_OUTER_BOUND( '', #150, .T. );
#104 = PLANE( '', #151 );
#105 = SURFACE_STYLE_USAGE( .BOTH., #152 );
#106 = FACE_BOUND( '', #153, .T. );
#107 = FACE_OUTER_BOUND( '', #154, .T. );
#108 = PLANE( '', #155 );
#109 = SURFACE_STYLE_USAGE( .BOTH., #156 );
#110 = FACE_OUTER_BOUND( '', #157, .T. );
#111 = SPHERICAL_SURFACE( '', #158, 1.75000000000000 );
#112 = SURFACE_STYLE_USAGE( .BOTH., #159 );
#113 = FACE_OUTER_BOUND( '', #160, .T. );
#114 = FACE_OUTER_BOUND( '', #161, .T. );
#115 = CYLINDRICAL_SURFACE( '', #162, 2.50000000000000 );
#116 = PRODUCT_CONTEXT( '', #22, 'mechanical' );
#117 = PRODUCT_DEFINITION_FORMATION_WITH_SPECIFIED_SOURCE( ' ', 'NONE', #59, .NOT_KNOWN. );
#118 = CLOSED_SHELL( '', ( #38, #50, #40, #44, #52, #36, #42, #46, #48, #58, #54, #56 ) );
#119 = CARTESIAN_POINT( '', ( 0.000000000000000, 0.000000000000000, 0.000000000000000 ) );
#120 = DIRECTION( '', ( 0.000000000000000, 0.000000000000000, 1.00000000000000 ) );
#121 = DIRECTION( '', ( 1.00000000000000, 0.000000000000000, 0.000000000000000 ) );
#122 =  ( LENGTH_UNIT(  )NAMED_UNIT( #68 )SI_UNIT( .MILLI., .METRE. ) );
#123 = SURFACE_SIDE_STYLE( '', ( #164 ) );
#124 = EDGE_LOOP( '', ( #165, #166, #167, #168, #169, #170 ) );
#125 = AXIS2_PLACEMENT_3D( '', #171, #172, #173 );
#126 = SURFACE_SIDE_STYLE( '', ( #174 ) );
#127 = EDGE_LOOP( '', ( #175, #176 ) );
#128 = AXIS2_PLACEMENT_3D( '', #177, #178, #179 );
#129 = SURFACE_SIDE_STYLE( '', ( #180 ) );
#130 = EDGE_LOOP( '', ( #181 ) );
#131 = EDGE_LOOP( '', ( #182, #183, #184, #185, #186, #187, #188, #189 ) );
#132 = AXIS2_PLACEMENT_3D( '', #190, #191, #192 );
#133 = SURFACE_SIDE_STYLE( '', ( #193 ) );
#134 = EDGE_LOOP( '', ( #194, #195, #196, #197 ) );
#135 = AXIS2_PLACEMENT_3D( '', #198, #199, #200 );
#136 = SURFACE_SIDE_STYLE( '', ( #201 ) );
#137 = EDGE_LOOP( '', ( #202, #203, #204, #205 ) );
#138 = AXIS2_PLACEMENT_3D( '', #206, #207, #208 );
#139 = SURFACE_SIDE_STYLE( '', ( #209 ) );
#140 = EDGE_LOOP( '', ( #210, #211 ) );
#141 = AXIS2_PLACEMENT_3D( '', #212, #213, #214 );
#142 = SURFACE_SIDE_STYLE( '', ( #215 ) );
#143 = EDGE_LOOP( '', ( #216 ) );
#144 = EDGE_LOOP( '', ( #217 ) );
#145 = AXIS2_PLACEMENT_3D( '', #218, #219, #220 );
#146 = SURFACE_SIDE_STYLE( '', ( #221 ) );
#147 = EDGE_LOOP( '', ( #222, #223, #224, #225 ) );
#148 = AXIS2_PLACEMENT_3D( '', #226, #227, #228 );
#149 = SURFACE_SIDE_STYLE( '', ( #229 ) );
#150 = EDGE_LOOP( '', ( #230, #231, #232, #233, #234, #235 ) );
#151 = AXIS2_PLACEMENT_3D( '', #236, #237, #238 );
#152 = SURFACE_SIDE_STYLE( '', ( #239 ) );
#153 = EDGE_LOOP( '', ( #240 ) );
#154 = EDGE_LOOP( '', ( #241 ) );
#155 = AXIS2_PLACEMENT_3D( '', #242, #243, #244 );
#156 = SURFACE_SIDE_STYLE( '', ( #245 ) );
#157 = EDGE_LOOP( '', ( #246 ) );
#158 = AXIS2_PLACEMENT_3D( '', #247, #248, #249 );
#159 = SURFACE_SIDE_STYLE( '', ( #250 ) );
#160 = EDGE_LOOP( '', ( #251 ) );
#161 = EDGE_LOOP( '', ( #252 ) );
#162 = AXIS2_PLACEMENT_3D( '', #253, #254, #255 );
#164 = SURFACE_STYLE_FILL_AREA( #256 );
#165 = ORIENTED_EDGE( '', *, *, #257, .F. );
#166 = ORIENTED_EDGE( '', *, *, #258, .T. );
#167 = ORIENTED_EDGE( '', *, *, #259, .F. );
#168 = ORIENTED_EDGE( '', *, *, #260, .T. );
#169 = ORIENTED_EDGE( '', *, *, #261, .F. );
#170 = ORIENTED_EDGE( '', *, *, #262, .T. );
#171 = CARTESIAN_POINT( '', ( -0.500000000000000, -10.0000000000000, 15.0000000000000 ) );
#172 = DIRECTION( '', ( 1.00000000000000, 0.000000000000000, 1.08420217248550E-016 ) );
#173 = DIRECTION( '', ( 1.08420217248550E-016, 0.000000000000000, -1.00000000000000 ) );
#174 = SURFACE_STYLE_FILL_AREA( #263 );
#175 = ORIENTED_EDGE( '', *, *, #257, .T. );
#176 = ORIENTED_EDGE( '', *, *, #264, .T. );
#177 = CARTESIAN_POINT( '', ( 0.000000000000000, 0.000000000000000, 15.0000000000000 ) );
#178 = DIRECTION( '', ( 0.000000000000000, 0.000000000000000, 1.00000000000000 ) );
#179 = DIRECTION( '', ( 1.00000000000000, 0.000000000000000, 0.000000000000000 ) );
#180 = SURFACE_STYLE_FILL_AREA( #265 );
#181 = ORIENTED_EDGE( '', *, *, #266, .T. );
#182 = ORIENTED_EDGE( '', *, *, #259, .T. );
#183 = ORIENTED_EDGE( '', *, *, #267, .T. );
#184 = ORIENTED_EDGE( '', *, *, #261, .T. );
#185 = ORIENTED_EDGE( '', *, *, #268, .T. );
#186 = ORIENTED_EDGE( '', *, *, #269, .T. );
#187 = ORIENTED_EDGE( '', *, *, #270, .T. );
#188 = ORIENTED_EDGE( '', *, *, #271, .T. );
#189 = ORIENTED_EDGE( '', *, *, #272, .T. );
#190 = CARTESIAN_POINT( '', ( 0.000000000000000, 0.000000000000000, 57.1500000000000 ) );
#191 = DIRECTION( '', ( -0.000000000000000, -0.000000000000000, -1.00000000000000 ) );
#192 = DIRECTION( '', ( 1.00000000000000, 0.000000000000000, 0.000000000000000 ) );
#193 = SURFACE_STYLE_FILL_AREA( #273 );
#194 = ORIENTED_EDGE( '', *, *, #262, .F. );
#195 = ORIENTED_EDGE( '', *, *, #267, .F. );
#196 = ORIENTED_EDGE( '', *, *, #258, .F. );
#197 = ORIENTED_EDGE( '', *, *, #264, .F. );
#198 = CARTESIAN_POINT( '', ( 0.000000000000000, 0.000000000000000, 15.0000000000000 ) );
#199 = DIRECTION( '', ( -0.000000000000000, 0.000000000000000, -1.00000000000000 ) );
#200 = DIRECTION( '', ( -1.00000000000000, 0.000000000000000, 0.000000000000000 ) );
#201 = SURFACE_STYLE_FILL_AREA( #274 );
#202 = ORIENTED_EDGE( '', *, *, #275, .T. );
#203 = ORIENTED_EDGE( '', *, *, #268, .F. );
#204 = ORIENTED_EDGE( '', *, *, #260, .F. );
#205 = ORIENTED_EDGE( '', *, *, #272, .F. );
#206 = CARTESIAN_POINT( '', ( -0.500000000000000, -10.0000000000000, 14.0000000000000 ) );
#207 = DIRECTION( '', ( 0.000000000000000, 0.000000000000000, 1.00000000000000 ) );
#208 = DIRECTION( '', ( 1.00000000000000, 0.000000000000000, 0.000000000000000 ) );
#209 = SURFACE_STYLE_FILL_AREA( #276 );
#210 = ORIENTED_EDGE( '', *, *, #277, .F. );
#211 = ORIENTED_EDGE( '', *, *, #278, .T. );
#212 = CARTESIAN_POINT( '', ( 0.000000000000000, 0.000000000000000, 15.0000000000000 ) );
#213 = DIRECTION( '', ( 0.000000000000000, 0.000000000000000, 1.00000000000000 ) );
#214 = DIRECTION( '', ( 1.00000000000000, 0.000000000000000, 0.000000000000000 ) );
#215 = SURFACE_STYLE_FILL_AREA( #279 );
#216 = ORIENTED_EDGE( '', *, *, #280, .T. );
#217 = ORIENTED_EDGE( '', *, *, #266, .F. );
#218 = CARTESIAN_POINT( '', ( 0.000000000000000, 0.000000000000000, 2.00000000000000 ) );
#219 = DIRECTION( '', ( -0.000000000000000, -0.000000000000000, 1.00000000000000 ) );
#220 = DIRECTION( '', ( 1.00000000000000, 0.000000000000000, 0.000000000000000 ) );
#221 = SURFACE_STYLE_FILL_AREA( #281 );
#222 = ORIENTED_EDGE( '', *, *, #282, .F. );
#223 = ORIENTED_EDGE( '', *, *, #270, .F. );
#224 = ORIENTED_EDGE( '', *, *, #283, .F. );
#225 = ORIENTED_EDGE( '', *, *, #278, .F. );
#226 = CARTESIAN_POINT( '', ( 0.000000000000000, 0.000000000000000, 15.0000000000000 ) );
#227 = DIRECTION( '', ( -0.000000000000000, 0.000000000000000, -1.00000000000000 ) );
#228 = DIRECTION( '', ( -1.00000000000000, 0.000000000000000, 0.000000000000000 ) );
#229 = SURFACE_STYLE_FILL_AREA( #284 );
#230 = ORIENTED_EDGE( '', *, *, #277, .T. );
#231 = ORIENTED_EDGE( '', *, *, #283, .T. );
#232 = ORIENTED_EDGE( '', *, *, #269, .F. );
#233 = ORIENTED_EDGE( '', *, *, #275, .F. );
#234 = ORIENTED_EDGE( '', *, *, #271, .F. );
#235 = ORIENTED_EDGE( '', *, *, #282, .T. );
#236 = CARTESIAN_POINT( '', ( 0.500000000000000, -10.0000000000000, 14.0000000000000 ) );
#237 = DIRECTION( '', ( -1.00000000000000, 0.000000000000000, 1.08420217248550E-016 ) );
#238 = DIRECTION( '', ( 1.08420217248550E-016, 0.000000000000000, 1.00000000000000 ) );
#239 = SURFACE_STYLE_FILL_AREA( #285 );
#240 = ORIENTED_EDGE( '', *, *, #286, .T. );
#241 = ORIENTED_EDGE( '', *, *, #287, .F. );
#242 = CARTESIAN_POINT( '', ( 1.58113883008419, 0.000000000000000, 1.00000000000000 ) );
#243 = DIRECTION( '', ( 0.000000000000000, 0.000000000000000, -1.00000000000000 ) );
#244 = DIRECTION( '', ( -1.00000000000000, 0.000000000000000, 0.000000000000000 ) );
#245 = SURFACE_STYLE_FILL_AREA( #288 );
#246 = ORIENTED_EDGE( '', *, *, #286, .F. );
#247 = CARTESIAN_POINT( '', ( 0.000000000000000, 0.000000000000000, 1.75000000000000 ) );
#248 = DIRECTION( '', ( 0.000000000000000, 0.000000000000000, 1.00000000000000 ) );
#249 = DIRECTION( '', ( 1.00000000000000, 0.000000000000000, 0.000000000000000 ) );
#250 = SURFACE_STYLE_FILL_AREA( #289 );
#251 = ORIENTED_EDGE( '', *, *, #287, .T. );
#252 = ORIENTED_EDGE( '', *, *, #280, .F. );
#253 = CARTESIAN_POINT( '', ( 0.000000000000000, 0.000000000000000, 57.1500000000000 ) );
#254 = DIRECTION( '', ( -0.000000000000000, -0.000000000000000, -1.00000000000000 ) );
#255 = DIRECTION( '', ( 1.00000000000000, 0.000000000000000, 0.000000000000000 ) );
#256 = FILL_AREA_STYLE( '', ( #290 ) );
#257 = EDGE_CURVE( '', #291, #292, #293, .T. );
#258 = EDGE_CURVE( '', #291, #294, #295, .T. );
#259 = EDGE_CURVE( '', #296, #294, #297, .T. );
#260 = EDGE_CURVE( '', #296, #298, #299, .T. );
#261 = EDGE_CURVE( '', #300, #298, #301, .F. );
#262 = EDGE_CURVE( '', #300, #292, #302, .T. );
#263 = FILL_AREA_STYLE( '', ( #303 ) );
#264 = EDGE_CURVE( '', #292, #291, #304, .T. );
#265 = FILL_AREA_STYLE( '', ( #305 ) );
#266 = EDGE_CURVE( '', #306, #306, #307, .T. );
#267 = EDGE_CURVE( '', #294, #300, #308, .F. );
#268 = EDGE_CURVE( '', #298, #309, #310, .F. );
#269 = EDGE_CURVE( '', #309, #311, #312, .T. );
#270 = EDGE_CURVE( '', #311, #313, #314, .F. );
#271 = EDGE_CURVE( '', #313, #315, #316, .F. );
#272 = EDGE_CURVE( '', #315, #296, #317, .F. );
#273 = FILL_AREA_STYLE( '', ( #318 ) );
#274 = FILL_AREA_STYLE( '', ( #319 ) );
#275 = EDGE_CURVE( '', #315, #309, #320, .T. );
#276 = FILL_AREA_STYLE( '', ( #321 ) );
#277 = EDGE_CURVE( '', #322, #323, #324, .T. );
#278 = EDGE_CURVE( '', #322, #323, #325, .T. );
#279 = FILL_AREA_STYLE( '', ( #326 ) );
#280 = EDGE_CURVE( '', #327, #327, #328, .T. );
#281 = FILL_AREA_STYLE( '', ( #329 ) );
#282 = EDGE_CURVE( '', #313, #322, #330, .T. );
#283 = EDGE_CURVE( '', #323, #311, #331, .T. );
#284 = FILL_AREA_STYLE( '', ( #332 ) );
#285 = FILL_AREA_STYLE( '', ( #333 ) );
#286 = EDGE_CURVE( '', #334, #334, #335, .T. );
#287 = EDGE_CURVE( '', #336, #336, #337, .T. );
#288 = FILL_AREA_STYLE( '', ( #338 ) );
#289 = FILL_AREA_STYLE( '', ( #339 ) );
#290 = FILL_AREA_STYLE_COLOUR( '', #340 );
#291 = VERTEX_POINT( '', #341 );
#292 = VERTEX_POINT( '', #342 );
#293 = LINE( '', #343, #344 );
#294 = VERTEX_POINT( '', #345 );
#295 = B_SPLINE_CURVE_WITH_KNOTS( '', 3, ( #346, #347, #348, #349 ), .UNSPECIFIED., .F., .F., ( 4, 4 ), ( 0.000000000000000, 0.000713178276317051 ), .UNSPECIFIED. );
#296 = VERTEX_POINT( '', #350 );
#297 = LINE( '', #351, #352 );
#298 = VERTEX_POINT( '', #353 );
#299 = LINE( '', #354, #355 );
#300 = VERTEX_POINT( '', #356 );
#301 = LINE( '', #357, #358 );
#302 = B_SPLINE_CURVE_WITH_KNOTS( '', 3, ( #359, #360, #361, #362 ), .UNSPECIFIED., .F., .F., ( 4, 4 ), ( 0.000000000000000, 0.000713178276317052 ), .UNSPECIFIED. );
#303 = FILL_AREA_STYLE_COLOUR( '', #363 );
#304 = CIRCLE( '', #364, 2.50000000000000 );
#305 = FILL_AREA_STYLE_COLOUR( '', #365 );
#306 = VERTEX_POINT( '', #366 );
#307 = CIRCLE( '', #367, 3.00000000000000 );
#308 = CIRCLE( '', #368, 3.00000000000000 );
#309 = VERTEX_POINT( '', #369 );
#310 = CIRCLE( '', #370, 3.00000000000000 );
#311 = VERTEX_POINT( '', #371 );
#312 = LINE( '', #372, #373 );
#313 = VERTEX_POINT( '', #374 );
#314 = CIRCLE( '', #375, 3.00000000000000 );
#315 = VERTEX_POINT( '', #376 );
#316 = LINE( '', #377, #378 );
#317 = CIRCLE( '', #379, 3.00000000000000 );
#318 = FILL_AREA_STYLE_COLOUR( '', #380 );
#319 = FILL_AREA_STYLE_COLOUR( '', #381 );
#320 = LINE( '', #382, #383 );
#321 = FILL_AREA_STYLE_COLOUR( '', #384 );
#322 = VERTEX_POINT( '', #385 );
#323 = VERTEX_POINT( '', #386 );
#324 = LINE( '', #387, #388 );
#325 = CIRCLE( '', #389, 2.50000000000000 );
#326 = FILL_AREA_STYLE_COLOUR( '', #390 );
#327 = VERTEX_POINT( '', #391 );
#328 = CIRCLE( '', #392, 2.50000000000000 );
#329 = FILL_AREA_STYLE_COLOUR( '', #393 );
#330 = B_SPLINE_CURVE_WITH_KNOTS( '', 3, ( #394, #395, #396, #397 ), .UNSPECIFIED., .F., .F., ( 4, 4 ), ( 0.000000000000000, 0.000713178276317052 ), .UNSPECIFIED. );
#331 = B_SPLINE_CURVE_WITH_KNOTS( '', 3, ( #398, #399, #400, #401 ), .UNSPECIFIED., .F., .F., ( 4, 4 ), ( 0.000000000000000, 0.000713178276317051 ), .UNSPECIFIED. );
#332 = FILL_AREA_STYLE_COLOUR( '', #402 );
#333 = FILL_AREA_STYLE_COLOUR( '', #403 );
#334 = VERTEX_POINT( '', #404 );
#335 = CIRCLE( '', #405, 1.58113883008419 );
#336 = VERTEX_POINT( '', #406 );
#337 = CIRCLE( '', #407, 2.50000000000000 );
#338 = FILL_AREA_STYLE_COLOUR( '', #408 );
#339 = FILL_AREA_STYLE_COLOUR( '', #409 );
#340 = COLOUR_RGB( '', 0.800000011920929, 0.800000011920929, 0.800000011920929 );
#341 = CARTESIAN_POINT( '', ( -0.500000000000000, -2.44948974278318, 15.0000000000000 ) );
#342 = CARTESIAN_POINT( '', ( -0.500000000000000, 2.44948974278318, 15.0000000000000 ) );
#343 = CARTESIAN_POINT( '', ( -0.500000000000000, -10.0000000000000, 15.0000000000000 ) );
#344 = VECTOR( '', #410, 1000.00000000000 );
#345 = CARTESIAN_POINT( '', ( -0.500000000000000, -2.95803989154981, 14.5000000000000 ) );
#346 = CARTESIAN_POINT( '', ( -0.500000000000000, -2.44948974278318, 15.0000000000000 ) );
#347 = CARTESIAN_POINT( '', ( -0.500000000000000, -2.61929409428724, 14.8336263930843 ) );
#348 = CARTESIAN_POINT( '', ( -0.500000000000000, -2.78876251207873, 14.6669097470708 ) );
#349 = CARTESIAN_POINT( '', ( -0.500000000000000, -2.95803989154981, 14.5000000000000 ) );
#350 = CARTESIAN_POINT( '', ( -0.500000000000000, -2.95803989154981, 14.0000000000000 ) );
#351 = CARTESIAN_POINT( '', ( -0.500000000000000, -2.95803989154981, 57.1500000000000 ) );
#352 = VECTOR( '', #411, 1000.00000000000 );
#353 = CARTESIAN_POINT( '', ( -0.500000000000000, 2.95803989154981, 14.0000000000000 ) );
#354 = CARTESIAN_POINT( '', ( -0.500000000000000, -10.0000000000000, 14.0000000000000 ) );
#355 = VECTOR( '', #412, 1000.00000000000 );
#356 = CARTESIAN_POINT( '', ( -0.500000000000000, 2.95803989154981, 14.5000000000000 ) );
#357 = CARTESIAN_POINT( '', ( -0.500000000000000, 2.95803989154981, 57.1500000000000 ) );
#358 = VECTOR( '', #413, 1000.00000000000 );
#359 = CARTESIAN_POINT( '', ( -0.500000000000000, 2.95803989154981, 14.5000000000000 ) );
#360 = CARTESIAN_POINT( '', ( -0.500000000000000, 2.78876251207873, 14.6669097470708 ) );
#361 = CARTESIAN_POINT( '', ( -0.500000000000000, 2.61929409428724, 14.8336263930843 ) );
#362 = CARTESIAN_POINT( '', ( -0.500000000000000, 2.44948974278318, 15.0000000000000 ) );
#363 = COLOUR_RGB( '', 0.800000011920929, 0.800000011920929, 0.800000011920929 );
#364 = AXIS2_PLACEMENT_3D( '', #414, #415, #416 );
#365 = COLOUR_RGB( '', 0.752941191196442, 0.752941191196442, 0.752941191196442 );
#366 = CARTESIAN_POINT( '', ( 3.00000000000000, 0.000000000000000, 2.00000000000000 ) );
#367 = AXIS2_PLACEMENT_3D( '', #417, #418, #419 );
#368 = AXIS2_PLACEMENT_3D( '', #420, #421, #422 );
#369 = CARTESIAN_POINT( '', ( 0.500000000000000, 2.95803989154981, 14.0000000000000 ) );
#370 = AXIS2_PLACEMENT_3D( '', #423, #424, #425 );
#371 = CARTESIAN_POINT( '', ( 0.500000000000000, 2.95803989154981, 14.5000000000000 ) );
#372 = CARTESIAN_POINT( '', ( 0.500000000000000, 2.95803989154981, 57.1500000000000 ) );
#373 = VECTOR( '', #426, 1000.00000000000 );
#374 = CARTESIAN_POINT( '', ( 0.500000000000000, -2.95803989154981, 14.5000000000000 ) );
#375 = AXIS2_PLACEMENT_3D( '', #427, #428, #429 );
#376 = CARTESIAN_POINT( '', ( 0.500000000000000, -2.95803989154981, 14.0000000000000 ) );
#377 = CARTESIAN_POINT( '', ( 0.500000000000000, -2.95803989154981, 57.1500000000000 ) );
#378 = VECTOR( '', #430, 1000.00000000000 );
#379 = AXIS2_PLACEMENT_3D( '', #431, #432, #433 );
#380 = COLOUR_RGB( '', 0.800000011920929, 0.800000011920929, 0.800000011920929 );
#381 = COLOUR_RGB( '', 0.800000011920929, 0.800000011920929, 0.800000011920929 );
#382 = CARTESIAN_POINT( '', ( 0.500000000000000, -10.0000000000000, 14.0000000000000 ) );
#383 = VECTOR( '', #434, 1000.00000000000 );
#384 = COLOUR_RGB( '', 0.800000011920929, 0.800000011920929, 0.800000011920929 );
#385 = CARTESIAN_POINT( '', ( 0.500000000000000, -2.44948974278318, 15.0000000000000 ) );
#386 = CARTESIAN_POINT( '', ( 0.500000000000000, 2.44948974278318, 15.0000000000000 ) );
#387 = CARTESIAN_POINT( '', ( 0.500000000000000, -10.0000000000000, 15.0000000000000 ) );
#388 = VECTOR( '', #435, 1000.00000000000 );
#389 = AXIS2_PLACEMENT_3D( '', #436, #437, #438 );
#390 = COLOUR_RGB( '', 0.800000011920929, 0.800000011920929, 0.800000011920929 );
#391 = CARTESIAN_POINT( '', ( 2.50000000000000, 0.000000000000000, 1.50000000000000 ) );
#392 = AXIS2_PLACEMENT_3D( '', #439, #440, #441 );
#393 = COLOUR_RGB( '', 0.800000011920929, 0.800000011920929, 0.800000011920929 );
#394 = CARTESIAN_POINT( '', ( 0.500000000000000, -2.95803989154981, 14.5000000000000 ) );
#395 = CARTESIAN_POINT( '', ( 0.500000000000000, -2.78876251207873, 14.6669097470708 ) );
#396 = CARTESIAN_POINT( '', ( 0.500000000000000, -2.61929409428724, 14.8336263930843 ) );
#397 = CARTESIAN_POINT( '', ( 0.500000000000000, -2.44948974278318, 15.0000000000000 ) );
#398 = CARTESIAN_POINT( '', ( 0.500000000000000, 2.44948974278318, 15.0000000000000 ) );
#399 = CARTESIAN_POINT( '', ( 0.500000000000000, 2.61929409428724, 14.8336263930843 ) );
#400 = CARTESIAN_POINT( '', ( 0.500000000000000, 2.78876251207873, 14.6669097470708 ) );
#401 = CARTESIAN_POINT( '', ( 0.500000000000000, 2.95803989154981, 14.5000000000000 ) );
#402 = COLOUR_RGB( '', 0.800000011920929, 0.800000011920929, 0.800000011920929 );
#403 = COLOUR_RGB( '', 0.800000011920929, 0.800000011920929, 0.800000011920929 );
#404 = CARTESIAN_POINT( '', ( 1.58113883008419, 0.000000000000000, 1.00000000000000 ) );
#405 = AXIS2_PLACEMENT_3D( '', #442, #443, #444 );
#406 = CARTESIAN_POINT( '', ( 2.50000000000000, 0.000000000000000, 1.00000000000000 ) );
#407 = AXIS2_PLACEMENT_3D( '', #445, #446, #447 );
#408 = COLOUR_RGB( '', 0.800000011920929, 0.800000011920929, 0.800000011920929 );
#409 = COLOUR_RGB( '', 0.800000011920929, 0.800000011920929, 0.800000011920929 );
#410 = DIRECTION( '', ( 0.000000000000000, 1.00000000000000, 0.000000000000000 ) );
#411 = DIRECTION( '', ( 0.000000000000000, 0.000000000000000, 1.00000000000000 ) );
#412 = DIRECTION( '', ( 0.000000000000000, 1.00000000000000, 0.000000000000000 ) );
#413 = DIRECTION( '', ( 0.000000000000000, 0.000000000000000, 1.00000000000000 ) );
#414 = CARTESIAN_POINT( '', ( 0.000000000000000, 0.000000000000000, 15.0000000000000 ) );
#415 = DIRECTION( '', ( 0.000000000000000, 0.000000000000000, 1.00000000000000 ) );
#416 = DIRECTION( '', ( 1.00000000000000, 0.000000000000000, 0.000000000000000 ) );
#417 = CARTESIAN_POINT( '', ( 0.000000000000000, 0.000000000000000, 2.00000000000000 ) );
#418 = DIRECTION( '', ( 0.000000000000000, 0.000000000000000, 1.00000000000000 ) );
#419 = DIRECTION( '', ( 1.00000000000000, 0.000000000000000, 0.000000000000000 ) );
#420 = CARTESIAN_POINT( '', ( 0.000000000000000, 0.000000000000000, 14.5000000000000 ) );
#421 = DIRECTION( '', ( 0.000000000000000, 0.000000000000000, 1.00000000000000 ) );
#422 = DIRECTION( '', ( 1.00000000000000, 0.000000000000000, 0.000000000000000 ) );
#423 = CARTESIAN_POINT( '', ( 0.000000000000000, 0.000000000000000, 14.0000000000000 ) );
#424 = DIRECTION( '', ( 0.000000000000000, 0.000000000000000, 1.00000000000000 ) );
#425 = DIRECTION( '', ( 1.00000000000000, 0.000000000000000, 0.000000000000000 ) );
#426 = DIRECTION( '', ( 0.000000000000000, 0.000000000000000, 1.00000000000000 ) );
#427 = CARTESIAN_POINT( '', ( 0.000000000000000, 0.000000000000000, 14.5000000000000 ) );
#428 = DIRECTION( '', ( 0.000000000000000, 0.000000000000000, 1.00000000000000 ) );
#429 = DIRECTION( '', ( 1.00000000000000, 0.000000000000000, 0.000000000000000 ) );
#430 = DIRECTION( '', ( 0.000000000000000, 0.000000000000000, 1.00000000000000 ) );
#431 = CARTESIAN_POINT( '', ( 0.000000000000000, 0.000000000000000, 14.0000000000000 ) );
#432 = DIRECTION( '', ( 0.000000000000000, 0.000000000000000, 1.00000000000000 ) );
#433 = DIRECTION( '', ( 1.00000000000000, 0.000000000000000, 0.000000000000000 ) );
#434 = DIRECTION( '', ( 0.000000000000000, 1.00000000000000, 0.000000000000000 ) );
#435 = DIRECTION( '', ( 0.000000000000000, 1.00000000000000, 0.000000000000000 ) );
#436 = CARTESIAN_POINT( '', ( 0.000000000000000, 0.000000000000000, 15.0000000000000 ) );
#437 = DIRECTION( '', ( 0.000000000000000, 0.000000000000000, 1.00000000000000 ) );
#438 = DIRECTION( '', ( 1.00000000000000, 0.000000000000000, 0.000000000000000 ) );
#439 = CARTESIAN_POINT( '', ( 0.000000000000000, 0.000000000000000, 1.50000000000000 ) );
#440 = DIRECTION( '', ( 0.000000000000000, 0.000000000000000, 1.00000000000000 ) );
#441 = DIRECTION( '', ( 1.00000000000000, 0.000000000000000, 0.000000000000000 ) );
#442 = CARTESIAN_POINT( '', ( 0.000000000000000, 0.000000000000000, 1.00000000000000 ) );
#443 = DIRECTION( '', ( 0.000000000000000, 0.000000000000000, 1.00000000000000 ) );
#444 = DIRECTION( '', ( 1.00000000000000, 0.000000000000000, 0.000000000000000 ) );
#445 = CARTESIAN_POINT( '', ( 0.000000000000000, 0.000000000000000, 1.00000000000000 ) );
#446 = DIRECTION( '', ( 0.000000000000000, 0.000000000000000, 1.00000000000000 ) );
#447 = DIRECTION( '', ( 1.00000000000000, 0.000000000000000, 0.000000000000000 ) );
ENDSEC;
END-ISO-10303-21;
