ISO-10303-21;
HEADER;
FILE_DESCRIPTION( ( 'Unknown' ), '1' );
FILE_NAME( '//SBS2003/HD_Usb/Disegni/08_LIB/Users_3D/PROD_GAMM_3D/APS-I/7747526_APS_16_IR.stp', 'Unknown', ( 'Unknown' ), ( 'Unknown' ), 'PSStep 14.0', 'Unknown', '  ' );
FILE_SCHEMA( ( 'AUTOMOTIVE_DESIGN { 1 0 10303 214 1 1 1 1 }' ) );
ENDSEC;
DATA;
#1 = MECHANICAL_DESIGN_GEOMETRIC_PRESENTATION_REPRESENTATION( ' ', ( #10, #11, #12, #13, #14, #15, #16, #17, #18, #19, #20, #21 ), #6 );
#2 = PRODUCT_DEFINITION_CONTEXT( '', #22, 'design' );
#3 = APPLICATION_PROTOCOL_DEFINITION( 'international standard', 'automotive_design', 2001, #22 );
#4 = PRODUCT_CATEGORY_RELATIONSHIP( 'NONE', 'NONE', #23, #24 );
#5 = SHAPE_DEFINITION_REPRESENTATION( #25, #26 );
#6 =  ( GEOMETRIC_REPRESENTATION_CONTEXT( 3 )GLOBAL_UNCERTAINTY_ASSIGNED_CONTEXT( ( #29 ) )GLOBAL_UNIT_ASSIGNED_CONTEXT( ( #31, #32, #33 ) )REPRESENTATION_CONTEXT( 'NONE', 'WORKSPACE' ) );
#10 = STYLED_ITEM( '', ( #35 ), #36 );
#11 = STYLED_ITEM( '', ( #37 ), #38 );
#12 = STYLED_ITEM( '', ( #39 ), #40 );
#13 = STYLED_ITEM( '', ( #41 ), #42 );
#14 = STYLED_ITEM( '', ( #43 ), #44 );
#15 = STYLED_ITEM( '', ( #45 ), #46 );
#16 = STYLED_ITEM( '', ( #47 ), #48 );
#17 = STYLED_ITEM( '', ( #49 ), #50 );
#18 = STYLED_ITEM( '', ( #51 ), #52 );
#19 = STYLED_ITEM( '', ( #53 ), #54 );
#20 = STYLED_ITEM( '', ( #55 ), #56 );
#21 = STYLED_ITEM( '', ( #57 ), #58 );
#22 = APPLICATION_CONTEXT( 'core data for automotive mechanical design processes' );
#23 = PRODUCT_CATEGORY( 'part', 'NONE' );
#24 = PRODUCT_RELATED_PRODUCT_CATEGORY( 'detail', ' ', ( #59 ) );
#25 = PRODUCT_DEFINITION_SHAPE( 'NONE', 'NONE', #60 );
#26 = ADVANCED_BREP_SHAPE_REPRESENTATION( '1', ( #61, #62 ), #6 );
#29 = UNCERTAINTY_MEASURE_WITH_UNIT( LENGTH_MEASURE( 0.00100000000000000 ), #31, '', '' );
#31 =  ( CONVERSION_BASED_UNIT( 'MILLIMETRE', #65 )LENGTH_UNIT(  )NAMED_UNIT( #68 ) );
#32 =  ( NAMED_UNIT( #70 )PLANE_ANGLE_UNIT(  )SI_UNIT( $, .RADIAN. ) );
#33 =  ( NAMED_UNIT( #70 )SI_UNIT( $, .STERADIAN. )SOLID_ANGLE_UNIT(  ) );
#35 = PRESENTATION_STYLE_ASSIGNMENT( ( #76 ) );
#36 = ADVANCED_FACE( '', ( #77 ), #78, .T. );
#37 = PRESENTATION_STYLE_ASSIGNMENT( ( #79 ) );
#38 = ADVANCED_FACE( '', ( #80 ), #81, .T. );
#39 = PRESENTATION_STYLE_ASSIGNMENT( ( #82 ) );
#40 = ADVANCED_FACE( '', ( #83, #84 ), #85, .T. );
#41 = PRESENTATION_STYLE_ASSIGNMENT( ( #86 ) );
#42 = ADVANCED_FACE( '', ( #87 ), #88, .T. );
#43 = PRESENTATION_STYLE_ASSIGNMENT( ( #89 ) );
#44 = ADVANCED_FACE( '', ( #90, #91 ), #92, .T. );
#45 = PRESENTATION_STYLE_ASSIGNMENT( ( #93 ) );
#46 = ADVANCED_FACE( '', ( #94, #95 ), #96, .T. );
#47 = PRESENTATION_STYLE_ASSIGNMENT( ( #97 ) );
#48 = ADVANCED_FACE( '', ( #98 ), #99, .T. );
#49 = PRESENTATION_STYLE_ASSIGNMENT( ( #100 ) );
#50 = ADVANCED_FACE( '', ( #101, #102 ), #103, .T. );
#51 = PRESENTATION_STYLE_ASSIGNMENT( ( #104 ) );
#52 = ADVANCED_FACE( '', ( #105 ), #106, .T. );
#53 = PRESENTATION_STYLE_ASSIGNMENT( ( #107 ) );
#54 = ADVANCED_FACE( '', ( #108 ), #109, .T. );
#55 = PRESENTATION_STYLE_ASSIGNMENT( ( #110 ) );
#56 = ADVANCED_FACE( '', ( #111 ), #112, .T. );
#57 = PRESENTATION_STYLE_ASSIGNMENT( ( #113 ) );
#58 = ADVANCED_FACE( '', ( #114 ), #115, .T. );
#59 = PRODUCT( '1', '1', 'PART-1-DESC', ( #116 ) );
#60 = PRODUCT_DEFINITION( 'NONE', 'NONE', #117, #2 );
#61 = MANIFOLD_SOLID_BREP( '1', #118 );
#62 = AXIS2_PLACEMENT_3D( '', #119, #120, #121 );
#65 = LENGTH_MEASURE_WITH_UNIT( LENGTH_MEASURE( 1.00000000000000 ), #122 );
#68 = DIMENSIONAL_EXPONENTS( 1.00000000000000, 0.000000000000000, 0.000000000000000, 0.000000000000000, 0.000000000000000, 0.000000000000000, 0.000000000000000 );
#70 = DIMENSIONAL_EXPONENTS( 0.000000000000000, 0.000000000000000, 0.000000000000000, 0.000000000000000, 0.000000000000000, 0.000000000000000, 0.000000000000000 );
#76 = SURFACE_STYLE_USAGE( .BOTH., #123 );
#77 = FACE_OUTER_BOUND( '', #124, .T. );
#78 = PLANE( '', #125 );
#79 = SURFACE_STYLE_USAGE( .BOTH., #126 );
#80 = FACE_OUTER_BOUND( '', #127, .T. );
#81 = PLANE( '', #128 );
#82 = SURFACE_STYLE_USAGE( .BOTH., #129 );
#83 = FACE_OUTER_BOUND( '', #130, .T. );
#84 = FACE_OUTER_BOUND( '', #131, .T. );
#85 = CYLINDRICAL_SURFACE( '', #132, 4.00000000000000 );
#86 = SURFACE_STYLE_USAGE( .BOTH., #133 );
#87 = FACE_OUTER_BOUND( '', #134, .T. );
#88 = CONICAL_SURFACE( '', #135, 3.00000000000000, 0.785398163397448 );
#89 = SURFACE_STYLE_USAGE( .BOTH., #136 );
#90 = FACE_OUTER_BOUND( '', #137, .T. );
#91 = FACE_OUTER_BOUND( '', #138, .T. );
#92 = CYLINDRICAL_SURFACE( '', #139, 3.50000000000000 );
#93 = SURFACE_STYLE_USAGE( .BOTH., #140 );
#94 = FACE_BOUND( '', #141, .T. );
#95 = FACE_OUTER_BOUND( '', #142, .T. );
#96 = PLANE( '', #143 );
#97 = SURFACE_STYLE_USAGE( .BOTH., #144 );
#98 = FACE_OUTER_BOUND( '', #145, .T. );
#99 = SPHERICAL_SURFACE( '', #146, 2.50000000000000 );
#100 = SURFACE_STYLE_USAGE( .BOTH., #147 );
#101 = FACE_BOUND( '', #148, .T. );
#102 = FACE_OUTER_BOUND( '', #149, .T. );
#103 = CONICAL_SURFACE( '', #150, 4.00000000000000, 0.785398163397450 );
#104 = SURFACE_STYLE_USAGE( .BOTH., #151 );
#105 = FACE_OUTER_BOUND( '', #152, .T. );
#106 = PLANE( '', #153 );
#107 = SURFACE_STYLE_USAGE( .BOTH., #154 );
#108 = FACE_OUTER_BOUND( '', #155, .T. );
#109 = PLANE( '', #156 );
#110 = SURFACE_STYLE_USAGE( .BOTH., #157 );
#111 = FACE_OUTER_BOUND( '', #158, .T. );
#112 = CONICAL_SURFACE( '', #159, 3.00000000000000, 0.785398163397448 );
#113 = SURFACE_STYLE_USAGE( .BOTH., #160 );
#114 = FACE_OUTER_BOUND( '', #161, .T. );
#115 = PLANE( '', #162 );
#116 = PRODUCT_CONTEXT( '', #22, 'mechanical' );
#117 = PRODUCT_DEFINITION_FORMATION_WITH_SPECIFIED_SOURCE( ' ', 'NONE', #59, .NOT_KNOWN. );
#118 = CLOSED_SHELL( '', ( #54, #56, #40, #38, #58, #36, #42, #52, #50, #44, #46, #48 ) );
#119 = CARTESIAN_POINT( '', ( 0.000000000000000, 0.000000000000000, 0.000000000000000 ) );
#120 = DIRECTION( '', ( 0.000000000000000, 0.000000000000000, 1.00000000000000 ) );
#121 = DIRECTION( '', ( 1.00000000000000, 0.000000000000000, 0.000000000000000 ) );
#122 =  ( LENGTH_UNIT(  )NAMED_UNIT( #68 )SI_UNIT( .MILLI., .METRE. ) );
#123 = SURFACE_SIDE_STYLE( '', ( #164 ) );
#124 = EDGE_LOOP( '', ( #165, #166, #167, #168, #169, #170 ) );
#125 = AXIS2_PLACEMENT_3D( '', #171, #172, #173 );
#126 = SURFACE_SIDE_STYLE( '', ( #174 ) );
#127 = EDGE_LOOP( '', ( #175, #176, #177, #178 ) );
#128 = AXIS2_PLACEMENT_3D( '', #179, #180, #181 );
#129 = SURFACE_SIDE_STYLE( '', ( #182 ) );
#130 = EDGE_LOOP( '', ( #183 ) );
#131 = EDGE_LOOP( '', ( #184, #185, #186, #187, #188, #189, #190, #191 ) );
#132 = AXIS2_PLACEMENT_3D( '', #192, #193, #194 );
#133 = SURFACE_SIDE_STYLE( '', ( #195 ) );
#134 = EDGE_LOOP( '', ( #196, #197, #198, #199 ) );
#135 = AXIS2_PLACEMENT_3D( '', #200, #201, #202 );
#136 = SURFACE_SIDE_STYLE( '', ( #203 ) );
#137 = EDGE_LOOP( '', ( #204 ) );
#138 = EDGE_LOOP( '', ( #205 ) );
#139 = AXIS2_PLACEMENT_3D( '', #206, #207, #208 );
#140 = SURFACE_SIDE_STYLE( '', ( #209 ) );
#141 = EDGE_LOOP( '', ( #210 ) );
#142 = EDGE_LOOP( '', ( #211 ) );
#143 = AXIS2_PLACEMENT_3D( '', #212, #213, #214 );
#144 = SURFACE_SIDE_STYLE( '', ( #215 ) );
#145 = EDGE_LOOP( '', ( #216 ) );
#146 = AXIS2_PLACEMENT_3D( '', #217, #218, #219 );
#147 = SURFACE_SIDE_STYLE( '', ( #220 ) );
#148 = EDGE_LOOP( '', ( #221 ) );
#149 = EDGE_LOOP( '', ( #222 ) );
#150 = AXIS2_PLACEMENT_3D( '', #223, #224, #225 );
#151 = SURFACE_SIDE_STYLE( '', ( #226 ) );
#152 = EDGE_LOOP( '', ( #227, #228 ) );
#153 = AXIS2_PLACEMENT_3D( '', #229, #230, #231 );
#154 = SURFACE_SIDE_STYLE( '', ( #232 ) );
#155 = EDGE_LOOP( '', ( #233, #234 ) );
#156 = AXIS2_PLACEMENT_3D( '', #235, #236, #237 );
#157 = SURFACE_SIDE_STYLE( '', ( #238 ) );
#158 = EDGE_LOOP( '', ( #239, #240, #241, #242 ) );
#159 = AXIS2_PLACEMENT_3D( '', #243, #244, #245 );
#160 = SURFACE_SIDE_STYLE( '', ( #246 ) );
#161 = EDGE_LOOP( '', ( #247, #248, #249, #250, #251, #252 ) );
#162 = AXIS2_PLACEMENT_3D( '', #253, #254, #255 );
#164 = SURFACE_STYLE_FILL_AREA( #256 );
#165 = ORIENTED_EDGE( '', *, *, #257, .F. );
#166 = ORIENTED_EDGE( '', *, *, #258, .T. );
#167 = ORIENTED_EDGE( '', *, *, #259, .F. );
#168 = ORIENTED_EDGE( '', *, *, #260, .T. );
#169 = ORIENTED_EDGE( '', *, *, #261, .F. );
#170 = ORIENTED_EDGE( '', *, *, #262, .T. );
#171 = CARTESIAN_POINT( '', ( -0.500000000000000, -10.0000000000000, 17.5000000000000 ) );
#172 = DIRECTION( '', ( 1.00000000000000, 0.000000000000000, 1.44560289664734E-016 ) );
#173 = DIRECTION( '', ( 1.44560289664734E-016, 0.000000000000000, -1.00000000000000 ) );
#174 = SURFACE_STYLE_FILL_AREA( #263 );
#175 = ORIENTED_EDGE( '', *, *, #264, .T. );
#176 = ORIENTED_EDGE( '', *, *, #265, .F. );
#177 = ORIENTED_EDGE( '', *, *, #260, .F. );
#178 = ORIENTED_EDGE( '', *, *, #266, .F. );
#179 = CARTESIAN_POINT( '', ( -0.500000000000000, -10.0000000000000, 16.0000000000000 ) );
#180 = DIRECTION( '', ( 0.000000000000000, 0.000000000000000, 1.00000000000000 ) );
#181 = DIRECTION( '', ( 1.00000000000000, 0.000000000000000, 0.000000000000000 ) );
#182 = SURFACE_STYLE_FILL_AREA( #267 );
#183 = ORIENTED_EDGE( '', *, *, #268, .T. );
#184 = ORIENTED_EDGE( '', *, *, #259, .T. );
#185 = ORIENTED_EDGE( '', *, *, #269, .T. );
#186 = ORIENTED_EDGE( '', *, *, #261, .T. );
#187 = ORIENTED_EDGE( '', *, *, #265, .T. );
#188 = ORIENTED_EDGE( '', *, *, #270, .T. );
#189 = ORIENTED_EDGE( '', *, *, #271, .T. );
#190 = ORIENTED_EDGE( '', *, *, #272, .T. );
#191 = ORIENTED_EDGE( '', *, *, #266, .T. );
#192 = CARTESIAN_POINT( '', ( 0.000000000000000, 0.000000000000000, 57.1500000000000 ) );
#193 = DIRECTION( '', ( -0.000000000000000, -0.000000000000000, -1.00000000000000 ) );
#194 = DIRECTION( '', ( 1.00000000000000, 0.000000000000000, 0.000000000000000 ) );
#195 = SURFACE_STYLE_FILL_AREA( #273 );
#196 = ORIENTED_EDGE( '', *, *, #262, .F. );
#197 = ORIENTED_EDGE( '', *, *, #269, .F. );
#198 = ORIENTED_EDGE( '', *, *, #258, .F. );
#199 = ORIENTED_EDGE( '', *, *, #274, .F. );
#200 = CARTESIAN_POINT( '', ( 0.000000000000000, 0.000000000000000, 17.5000000000000 ) );
#201 = DIRECTION( '', ( -0.000000000000000, 0.000000000000000, -1.00000000000000 ) );
#202 = DIRECTION( '', ( -1.00000000000000, 0.000000000000000, 0.000000000000000 ) );
#203 = SURFACE_STYLE_FILL_AREA( #275 );
#204 = ORIENTED_EDGE( '', *, *, #276, .T. );
#205 = ORIENTED_EDGE( '', *, *, #277, .F. );
#206 = CARTESIAN_POINT( '', ( 0.000000000000000, 0.000000000000000, 57.1500000000000 ) );
#207 = DIRECTION( '', ( -0.000000000000000, -0.000000000000000, -1.00000000000000 ) );
#208 = DIRECTION( '', ( 1.00000000000000, 0.000000000000000, 0.000000000000000 ) );
#209 = SURFACE_STYLE_FILL_AREA( #278 );
#210 = ORIENTED_EDGE( '', *, *, #279, .T. );
#211 = ORIENTED_EDGE( '', *, *, #276, .F. );
#212 = CARTESIAN_POINT( '', ( 2.29128784747792, 0.000000000000000, 1.50000000000000 ) );
#213 = DIRECTION( '', ( 0.000000000000000, 0.000000000000000, -1.00000000000000 ) );
#214 = DIRECTION( '', ( -1.00000000000000, 0.000000000000000, 0.000000000000000 ) );
#215 = SURFACE_STYLE_FILL_AREA( #280 );
#216 = ORIENTED_EDGE( '', *, *, #279, .F. );
#217 = CARTESIAN_POINT( '', ( 0.000000000000000, 0.000000000000000, 2.50000000000000 ) );
#218 = DIRECTION( '', ( 0.000000000000000, 0.000000000000000, 1.00000000000000 ) );
#219 = DIRECTION( '', ( 1.00000000000000, 0.000000000000000, 0.000000000000000 ) );
#220 = SURFACE_STYLE_FILL_AREA( #281 );
#221 = ORIENTED_EDGE( '', *, *, #277, .T. );
#222 = ORIENTED_EDGE( '', *, *, #268, .F. );
#223 = CARTESIAN_POINT( '', ( 0.000000000000000, 0.000000000000000, 2.80000000000000 ) );
#224 = DIRECTION( '', ( -0.000000000000000, -0.000000000000000, 1.00000000000000 ) );
#225 = DIRECTION( '', ( 1.00000000000000, 0.000000000000000, 0.000000000000000 ) );
#226 = SURFACE_STYLE_FILL_AREA( #282 );
#227 = ORIENTED_EDGE( '', *, *, #283, .F. );
#228 = ORIENTED_EDGE( '', *, *, #284, .T. );
#229 = CARTESIAN_POINT( '', ( 0.000000000000000, 0.000000000000000, 17.5000000000000 ) );
#230 = DIRECTION( '', ( 0.000000000000000, 0.000000000000000, 1.00000000000000 ) );
#231 = DIRECTION( '', ( 1.00000000000000, 0.000000000000000, 0.000000000000000 ) );
#232 = SURFACE_STYLE_FILL_AREA( #285 );
#233 = ORIENTED_EDGE( '', *, *, #257, .T. );
#234 = ORIENTED_EDGE( '', *, *, #274, .T. );
#235 = CARTESIAN_POINT( '', ( 0.000000000000000, 0.000000000000000, 17.5000000000000 ) );
#236 = DIRECTION( '', ( 0.000000000000000, 0.000000000000000, 1.00000000000000 ) );
#237 = DIRECTION( '', ( 1.00000000000000, 0.000000000000000, 0.000000000000000 ) );
#238 = SURFACE_STYLE_FILL_AREA( #286 );
#239 = ORIENTED_EDGE( '', *, *, #287, .F. );
#240 = ORIENTED_EDGE( '', *, *, #271, .F. );
#241 = ORIENTED_EDGE( '', *, *, #288, .F. );
#242 = ORIENTED_EDGE( '', *, *, #284, .F. );
#243 = CARTESIAN_POINT( '', ( 0.000000000000000, 0.000000000000000, 17.5000000000000 ) );
#244 = DIRECTION( '', ( -0.000000000000000, 0.000000000000000, -1.00000000000000 ) );
#245 = DIRECTION( '', ( -1.00000000000000, 0.000000000000000, 0.000000000000000 ) );
#246 = SURFACE_STYLE_FILL_AREA( #289 );
#247 = ORIENTED_EDGE( '', *, *, #283, .T. );
#248 = ORIENTED_EDGE( '', *, *, #288, .T. );
#249 = ORIENTED_EDGE( '', *, *, #270, .F. );
#250 = ORIENTED_EDGE( '', *, *, #264, .F. );
#251 = ORIENTED_EDGE( '', *, *, #272, .F. );
#252 = ORIENTED_EDGE( '', *, *, #287, .T. );
#253 = CARTESIAN_POINT( '', ( 0.500000000000000, -10.0000000000000, 16.0000000000000 ) );
#254 = DIRECTION( '', ( -1.00000000000000, 0.000000000000000, -3.61400724161835E-016 ) );
#255 = DIRECTION( '', ( -3.61400724161835E-016, 0.000000000000000, 1.00000000000000 ) );
#256 = FILL_AREA_STYLE( '', ( #290 ) );
#257 = EDGE_CURVE( '', #291, #292, #293, .T. );
#258 = EDGE_CURVE( '', #291, #294, #295, .T. );
#259 = EDGE_CURVE( '', #296, #294, #297, .T. );
#260 = EDGE_CURVE( '', #296, #298, #299, .T. );
#261 = EDGE_CURVE( '', #300, #298, #301, .F. );
#262 = EDGE_CURVE( '', #300, #292, #302, .T. );
#263 = FILL_AREA_STYLE( '', ( #303 ) );
#264 = EDGE_CURVE( '', #304, #305, #306, .T. );
#265 = EDGE_CURVE( '', #298, #305, #307, .F. );
#266 = EDGE_CURVE( '', #304, #296, #308, .F. );
#267 = FILL_AREA_STYLE( '', ( #309 ) );
#268 = EDGE_CURVE( '', #310, #310, #311, .T. );
#269 = EDGE_CURVE( '', #294, #300, #312, .F. );
#270 = EDGE_CURVE( '', #305, #313, #314, .T. );
#271 = EDGE_CURVE( '', #313, #315, #316, .F. );
#272 = EDGE_CURVE( '', #315, #304, #317, .F. );
#273 = FILL_AREA_STYLE( '', ( #318 ) );
#274 = EDGE_CURVE( '', #292, #291, #319, .T. );
#275 = FILL_AREA_STYLE( '', ( #320 ) );
#276 = EDGE_CURVE( '', #321, #321, #322, .T. );
#277 = EDGE_CURVE( '', #323, #323, #324, .T. );
#278 = FILL_AREA_STYLE( '', ( #325 ) );
#279 = EDGE_CURVE( '', #326, #326, #327, .T. );
#280 = FILL_AREA_STYLE( '', ( #328 ) );
#281 = FILL_AREA_STYLE( '', ( #329 ) );
#282 = FILL_AREA_STYLE( '', ( #330 ) );
#283 = EDGE_CURVE( '', #331, #332, #333, .T. );
#284 = EDGE_CURVE( '', #331, #332, #334, .T. );
#285 = FILL_AREA_STYLE( '', ( #335 ) );
#286 = FILL_AREA_STYLE( '', ( #336 ) );
#287 = EDGE_CURVE( '', #315, #331, #337, .T. );
#288 = EDGE_CURVE( '', #332, #313, #338, .T. );
#289 = FILL_AREA_STYLE( '', ( #339 ) );
#290 = FILL_AREA_STYLE_COLOUR( '', #340 );
#291 = VERTEX_POINT( '', #341 );
#292 = VERTEX_POINT( '', #342 );
#293 = LINE( '', #343, #344 );
#294 = VERTEX_POINT( '', #345 );
#295 = B_SPLINE_CURVE_WITH_KNOTS( '', 3, ( #346, #347, #348, #349 ), .UNSPECIFIED., .F., .F., ( 4, 4 ), ( 0.000000000000000, 0.00142171946468078 ), .UNSPECIFIED. );
#296 = VERTEX_POINT( '', #350 );
#297 = LINE( '', #351, #352 );
#298 = VERTEX_POINT( '', #353 );
#299 = LINE( '', #354, #355 );
#300 = VERTEX_POINT( '', #356 );
#301 = LINE( '', #357, #358 );
#302 = B_SPLINE_CURVE_WITH_KNOTS( '', 3, ( #359, #360, #361, #362 ), .UNSPECIFIED., .F., .F., ( 4, 4 ), ( 0.000000000000000, 0.00142171946468078 ), .UNSPECIFIED. );
#303 = FILL_AREA_STYLE_COLOUR( '', #363 );
#304 = VERTEX_POINT( '', #364 );
#305 = VERTEX_POINT( '', #365 );
#306 = LINE( '', #366, #367 );
#307 = CIRCLE( '', #368, 4.00000000000000 );
#308 = CIRCLE( '', #369, 4.00000000000000 );
#309 = FILL_AREA_STYLE_COLOUR( '', #370 );
#310 = VERTEX_POINT( '', #371 );
#311 = CIRCLE( '', #372, 4.00000000000000 );
#312 = CIRCLE( '', #373, 4.00000000000000 );
#313 = VERTEX_POINT( '', #374 );
#314 = LINE( '', #375, #376 );
#315 = VERTEX_POINT( '', #377 );
#316 = CIRCLE( '', #378, 4.00000000000000 );
#317 = LINE( '', #379, #380 );
#318 = FILL_AREA_STYLE_COLOUR( '', #381 );
#319 = CIRCLE( '', #382, 3.00000000000000 );
#320 = FILL_AREA_STYLE_COLOUR( '', #383 );
#321 = VERTEX_POINT( '', #384 );
#322 = CIRCLE( '', #385, 3.50000000000000 );
#323 = VERTEX_POINT( '', #386 );
#324 = CIRCLE( '', #387, 3.50000000000000 );
#325 = FILL_AREA_STYLE_COLOUR( '', #388 );
#326 = VERTEX_POINT( '', #389 );
#327 = CIRCLE( '', #390, 2.29128784747792 );
#328 = FILL_AREA_STYLE_COLOUR( '', #391 );
#329 = FILL_AREA_STYLE_COLOUR( '', #392 );
#330 = FILL_AREA_STYLE_COLOUR( '', #393 );
#331 = VERTEX_POINT( '', #394 );
#332 = VERTEX_POINT( '', #395 );
#333 = LINE( '', #396, #397 );
#334 = CIRCLE( '', #398, 3.00000000000000 );
#335 = FILL_AREA_STYLE_COLOUR( '', #399 );
#336 = FILL_AREA_STYLE_COLOUR( '', #400 );
#337 = B_SPLINE_CURVE_WITH_KNOTS( '', 3, ( #401, #402, #403, #404 ), .UNSPECIFIED., .F., .F., ( 4, 4 ), ( 0.000000000000000, 0.00142171946468078 ), .UNSPECIFIED. );
#338 = B_SPLINE_CURVE_WITH_KNOTS( '', 3, ( #405, #406, #407, #408 ), .UNSPECIFIED., .F., .F., ( 4, 4 ), ( 0.000000000000000, 0.00142171946468078 ), .UNSPECIFIED. );
#339 = FILL_AREA_STYLE_COLOUR( '', #409 );
#340 = COLOUR_RGB( '', 0.800000011920929, 0.800000011920929, 0.800000011920929 );
#341 = CARTESIAN_POINT( '', ( -0.500000000000000, -2.95803989154981, 17.5000000000000 ) );
#342 = CARTESIAN_POINT( '', ( -0.500000000000000, 2.95803989154981, 17.5000000000000 ) );
#343 = CARTESIAN_POINT( '', ( -0.500000000000000, -10.0000000000000, 17.5000000000000 ) );
#344 = VECTOR( '', #410, 1000.00000000000 );
#345 = CARTESIAN_POINT( '', ( -0.500000000000006, -3.96862696659689, 16.5000000000000 ) );
#346 = CARTESIAN_POINT( '', ( -0.500000000000000, -2.95803989154981, 17.5000000000000 ) );
#347 = CARTESIAN_POINT( '', ( -0.500000000000000, -3.29549400830588, 17.1672657536893 ) );
#348 = CARTESIAN_POINT( '', ( -0.500000000000000, -3.63220776085073, 16.8337805830013 ) );
#349 = CARTESIAN_POINT( '', ( -0.500000000000000, -3.96862696659689, 16.5000000000000 ) );
#350 = CARTESIAN_POINT( '', ( -0.500000000000000, -3.96862696659689, 16.0000000000000 ) );
#351 = CARTESIAN_POINT( '', ( -0.500000000000006, -3.96862696659689, 57.1500000000000 ) );
#352 = VECTOR( '', #411, 1000.00000000000 );
#353 = CARTESIAN_POINT( '', ( -0.500000000000000, 3.96862696659689, 16.0000000000000 ) );
#354 = CARTESIAN_POINT( '', ( -0.500000000000000, -10.0000000000000, 16.0000000000000 ) );
#355 = VECTOR( '', #412, 1000.00000000000 );
#356 = CARTESIAN_POINT( '', ( -0.500000000000006, 3.96862696659689, 16.5000000000000 ) );
#357 = CARTESIAN_POINT( '', ( -0.500000000000006, 3.96862696659689, 57.1500000000000 ) );
#358 = VECTOR( '', #413, 1000.00000000000 );
#359 = CARTESIAN_POINT( '', ( -0.500000000000006, 3.96862696659689, 16.5000000000000 ) );
#360 = CARTESIAN_POINT( '', ( -0.500000000000006, 3.63220776085073, 16.8337805830013 ) );
#361 = CARTESIAN_POINT( '', ( -0.500000000000000, 3.29549400830588, 17.1672657536893 ) );
#362 = CARTESIAN_POINT( '', ( -0.500000000000000, 2.95803989154981, 17.5000000000000 ) );
#363 = COLOUR_RGB( '', 0.800000011920929, 0.800000011920929, 0.800000011920929 );
#364 = CARTESIAN_POINT( '', ( 0.500000000000000, -3.96862696659689, 16.0000000000000 ) );
#365 = CARTESIAN_POINT( '', ( 0.500000000000000, 3.96862696659689, 16.0000000000000 ) );
#366 = CARTESIAN_POINT( '', ( 0.500000000000000, -10.0000000000000, 16.0000000000000 ) );
#367 = VECTOR( '', #414, 1000.00000000000 );
#368 = AXIS2_PLACEMENT_3D( '', #415, #416, #417 );
#369 = AXIS2_PLACEMENT_3D( '', #418, #419, #420 );
#370 = COLOUR_RGB( '', 0.752941191196442, 0.752941191196442, 0.752941191196442 );
#371 = CARTESIAN_POINT( '', ( 4.00000000000000, 0.000000000000000, 2.80000000000000 ) );
#372 = AXIS2_PLACEMENT_3D( '', #421, #422, #423 );
#373 = AXIS2_PLACEMENT_3D( '', #424, #425, #426 );
#374 = CARTESIAN_POINT( '', ( 0.499999999999985, 3.96862696659689, 16.5000000000000 ) );
#375 = CARTESIAN_POINT( '', ( 0.499999999999985, 3.96862696659689, 57.1500000000000 ) );
#376 = VECTOR( '', #427, 1000.00000000000 );
#377 = CARTESIAN_POINT( '', ( 0.499999999999985, -3.96862696659689, 16.5000000000000 ) );
#378 = AXIS2_PLACEMENT_3D( '', #428, #429, #430 );
#379 = CARTESIAN_POINT( '', ( 0.499999999999985, -3.96862696659689, 57.1500000000000 ) );
#380 = VECTOR( '', #431, 1000.00000000000 );
#381 = COLOUR_RGB( '', 0.800000011920929, 0.800000011920929, 0.800000011920929 );
#382 = AXIS2_PLACEMENT_3D( '', #432, #433, #434 );
#383 = COLOUR_RGB( '', 0.800000011920929, 0.800000011920929, 0.800000011920929 );
#384 = CARTESIAN_POINT( '', ( 3.50000000000000, 0.000000000000000, 1.50000000000000 ) );
#385 = AXIS2_PLACEMENT_3D( '', #435, #436, #437 );
#386 = CARTESIAN_POINT( '', ( 3.50000000000000, 0.000000000000000, 2.30000000000000 ) );
#387 = AXIS2_PLACEMENT_3D( '', #438, #439, #440 );
#388 = COLOUR_RGB( '', 0.800000011920929, 0.800000011920929, 0.800000011920929 );
#389 = CARTESIAN_POINT( '', ( 2.29128784747792, 0.000000000000000, 1.50000000000000 ) );
#390 = AXIS2_PLACEMENT_3D( '', #441, #442, #443 );
#391 = COLOUR_RGB( '', 0.800000011920929, 0.800000011920929, 0.800000011920929 );
#392 = COLOUR_RGB( '', 0.800000011920929, 0.800000011920929, 0.800000011920929 );
#393 = COLOUR_RGB( '', 0.800000011920929, 0.800000011920929, 0.800000011920929 );
#394 = CARTESIAN_POINT( '', ( 0.500000000000000, -2.95803989154981, 17.5000000000000 ) );
#395 = CARTESIAN_POINT( '', ( 0.500000000000000, 2.95803989154981, 17.5000000000000 ) );
#396 = CARTESIAN_POINT( '', ( 0.500000000000000, -10.0000000000000, 17.5000000000000 ) );
#397 = VECTOR( '', #444, 1000.00000000000 );
#398 = AXIS2_PLACEMENT_3D( '', #445, #446, #447 );
#399 = COLOUR_RGB( '', 0.800000011920929, 0.800000011920929, 0.800000011920929 );
#400 = COLOUR_RGB( '', 0.800000011920929, 0.800000011920929, 0.800000011920929 );
#401 = CARTESIAN_POINT( '', ( 0.499999999999985, -3.96862696659689, 16.5000000000000 ) );
#402 = CARTESIAN_POINT( '', ( 0.499999999999985, -3.63220776085073, 16.8337805830013 ) );
#403 = CARTESIAN_POINT( '', ( 0.500000000000000, -3.29549400830588, 17.1672657536893 ) );
#404 = CARTESIAN_POINT( '', ( 0.500000000000000, -2.95803989154981, 17.5000000000000 ) );
#405 = CARTESIAN_POINT( '', ( 0.500000000000000, 2.95803989154981, 17.5000000000000 ) );
#406 = CARTESIAN_POINT( '', ( 0.500000000000000, 3.29549400830588, 17.1672657536893 ) );
#407 = CARTESIAN_POINT( '', ( 0.500000000000000, 3.63220776085073, 16.8337805830013 ) );
#408 = CARTESIAN_POINT( '', ( 0.500000000000000, 3.96862696659689, 16.5000000000000 ) );
#409 = COLOUR_RGB( '', 0.800000011920929, 0.800000011920929, 0.800000011920929 );
#410 = DIRECTION( '', ( 0.000000000000000, 1.00000000000000, 0.000000000000000 ) );
#411 = DIRECTION( '', ( 0.000000000000000, 0.000000000000000, 1.00000000000000 ) );
#412 = DIRECTION( '', ( 0.000000000000000, 1.00000000000000, 0.000000000000000 ) );
#413 = DIRECTION( '', ( 0.000000000000000, 0.000000000000000, 1.00000000000000 ) );
#414 = DIRECTION( '', ( 0.000000000000000, 1.00000000000000, 0.000000000000000 ) );
#415 = CARTESIAN_POINT( '', ( 0.000000000000000, 0.000000000000000, 16.0000000000000 ) );
#416 = DIRECTION( '', ( 0.000000000000000, 0.000000000000000, 1.00000000000000 ) );
#417 = DIRECTION( '', ( 1.00000000000000, 0.000000000000000, 0.000000000000000 ) );
#418 = CARTESIAN_POINT( '', ( 0.000000000000000, 0.000000000000000, 16.0000000000000 ) );
#419 = DIRECTION( '', ( 0.000000000000000, 0.000000000000000, 1.00000000000000 ) );
#420 = DIRECTION( '', ( 1.00000000000000, 0.000000000000000, 0.000000000000000 ) );
#421 = CARTESIAN_POINT( '', ( 0.000000000000000, 0.000000000000000, 2.80000000000000 ) );
#422 = DIRECTION( '', ( 0.000000000000000, 0.000000000000000, 1.00000000000000 ) );
#423 = DIRECTION( '', ( 1.00000000000000, 0.000000000000000, 0.000000000000000 ) );
#424 = CARTESIAN_POINT( '', ( 0.000000000000000, 0.000000000000000, 16.5000000000000 ) );
#425 = DIRECTION( '', ( 0.000000000000000, 0.000000000000000, 1.00000000000000 ) );
#426 = DIRECTION( '', ( 1.00000000000000, 0.000000000000000, 0.000000000000000 ) );
#427 = DIRECTION( '', ( 0.000000000000000, 0.000000000000000, 1.00000000000000 ) );
#428 = CARTESIAN_POINT( '', ( 0.000000000000000, 0.000000000000000, 16.5000000000000 ) );
#429 = DIRECTION( '', ( 0.000000000000000, 0.000000000000000, 1.00000000000000 ) );
#430 = DIRECTION( '', ( 1.00000000000000, 0.000000000000000, 0.000000000000000 ) );
#431 = DIRECTION( '', ( 0.000000000000000, 0.000000000000000, 1.00000000000000 ) );
#432 = CARTESIAN_POINT( '', ( 0.000000000000000, 0.000000000000000, 17.5000000000000 ) );
#433 = DIRECTION( '', ( 0.000000000000000, 0.000000000000000, 1.00000000000000 ) );
#434 = DIRECTION( '', ( 1.00000000000000, 0.000000000000000, 0.000000000000000 ) );
#435 = CARTESIAN_POINT( '', ( 0.000000000000000, 0.000000000000000, 1.50000000000000 ) );
#436 = DIRECTION( '', ( 0.000000000000000, 0.000000000000000, 1.00000000000000 ) );
#437 = DIRECTION( '', ( 1.00000000000000, 0.000000000000000, 0.000000000000000 ) );
#438 = CARTESIAN_POINT( '', ( 0.000000000000000, 0.000000000000000, 2.30000000000000 ) );
#439 = DIRECTION( '', ( 0.000000000000000, 0.000000000000000, 1.00000000000000 ) );
#440 = DIRECTION( '', ( 1.00000000000000, 0.000000000000000, 0.000000000000000 ) );
#441 = CARTESIAN_POINT( '', ( 0.000000000000000, 0.000000000000000, 1.50000000000000 ) );
#442 = DIRECTION( '', ( 0.000000000000000, 0.000000000000000, 1.00000000000000 ) );
#443 = DIRECTION( '', ( 1.00000000000000, 0.000000000000000, 0.000000000000000 ) );
#444 = DIRECTION( '', ( 0.000000000000000, 1.00000000000000, 0.000000000000000 ) );
#445 = CARTESIAN_POINT( '', ( 0.000000000000000, 0.000000000000000, 17.5000000000000 ) );
#446 = DIRECTION( '', ( 0.000000000000000, 0.000000000000000, 1.00000000000000 ) );
#447 = DIRECTION( '', ( 1.00000000000000, 0.000000000000000, 0.000000000000000 ) );
ENDSEC;
END-ISO-10303-21;
