ISO-10303-21;
HEADER;
FILE_DESCRIPTION( ( 'Unknown' ), '1' );
FILE_NAME( '//SBS2003/HD_Usb/Disegni/08_LIB/Users_3D/PROD_GAMM_3D/APS-I/7747530_APS_19_I.stp', 'Unknown', ( 'Unknown' ), ( 'Unknown' ), 'PSStep 14.0', 'Unknown', '  ' );
FILE_SCHEMA( ( 'AUTOMOTIVE_DESIGN { 1 0 10303 214 1 1 1 1 }' ) );
ENDSEC;
DATA;
#1 = MECHANICAL_DESIGN_GEOMETRIC_PRESENTATION_REPRESENTATION( ' ', ( #10, #11, #12, #13, #14, #15, #16, #17, #18, #19, #20, #21 ), #6 );
#2 = PRODUCT_DEFINITION_CONTEXT( '', #22, 'design' );
#3 = APPLICATION_PROTOCOL_DEFINITION( 'international standard', 'automotive_design', 2001, #22 );
#4 = PRODUCT_CATEGORY_RELATIONSHIP( 'NONE', 'NONE', #23, #24 );
#5 = SHAPE_DEFINITION_REPRESENTATION( #25, #26 );
#6 =  ( GEOMETRIC_REPRESENTATION_CONTEXT( 3 )GLOBAL_UNCERTAINTY_ASSIGNED_CONTEXT( ( #29 ) )GLOBAL_UNIT_ASSIGNED_CONTEXT( ( #31, #32, #33 ) )REPRESENTATION_CONTEXT( 'NONE', 'WORKSPACE' ) );
#10 = STYLED_ITEM( '', ( #35 ), #36 );
#11 = STYLED_ITEM( '', ( #37 ), #38 );
#12 = STYLED_ITEM( '', ( #39 ), #40 );
#13 = STYLED_ITEM( '', ( #41 ), #42 );
#14 = STYLED_ITEM( '', ( #43 ), #44 );
#15 = STYLED_ITEM( '', ( #45 ), #46 );
#16 = STYLED_ITEM( '', ( #47 ), #48 );
#17 = STYLED_ITEM( '', ( #49 ), #50 );
#18 = STYLED_ITEM( '', ( #51 ), #52 );
#19 = STYLED_ITEM( '', ( #53 ), #54 );
#20 = STYLED_ITEM( '', ( #55 ), #56 );
#21 = STYLED_ITEM( '', ( #57 ), #58 );
#22 = APPLICATION_CONTEXT( 'core data for automotive mechanical design processes' );
#23 = PRODUCT_CATEGORY( 'part', 'NONE' );
#24 = PRODUCT_RELATED_PRODUCT_CATEGORY( 'detail', ' ', ( #59 ) );
#25 = PRODUCT_DEFINITION_SHAPE( 'NONE', 'NONE', #60 );
#26 = ADVANCED_BREP_SHAPE_REPRESENTATION( '1', ( #61, #62 ), #6 );
#29 = UNCERTAINTY_MEASURE_WITH_UNIT( LENGTH_MEASURE( 0.00100000000000000 ), #31, '', '' );
#31 =  ( CONVERSION_BASED_UNIT( 'MILLIMETRE', #65 )LENGTH_UNIT(  )NAMED_UNIT( #68 ) );
#32 =  ( NAMED_UNIT( #70 )PLANE_ANGLE_UNIT(  )SI_UNIT( $, .RADIAN. ) );
#33 =  ( NAMED_UNIT( #70 )SI_UNIT( $, .STERADIAN. )SOLID_ANGLE_UNIT(  ) );
#35 = PRESENTATION_STYLE_ASSIGNMENT( ( #76 ) );
#36 = ADVANCED_FACE( '', ( #77 ), #78, .T. );
#37 = PRESENTATION_STYLE_ASSIGNMENT( ( #79 ) );
#38 = ADVANCED_FACE( '', ( #80 ), #81, .T. );
#39 = PRESENTATION_STYLE_ASSIGNMENT( ( #82 ) );
#40 = ADVANCED_FACE( '', ( #83 ), #84, .T. );
#41 = PRESENTATION_STYLE_ASSIGNMENT( ( #85 ) );
#42 = ADVANCED_FACE( '', ( #86, #87 ), #88, .T. );
#43 = PRESENTATION_STYLE_ASSIGNMENT( ( #89 ) );
#44 = ADVANCED_FACE( '', ( #90 ), #91, .T. );
#45 = PRESENTATION_STYLE_ASSIGNMENT( ( #92 ) );
#46 = ADVANCED_FACE( '', ( #93 ), #94, .T. );
#47 = PRESENTATION_STYLE_ASSIGNMENT( ( #95 ) );
#48 = ADVANCED_FACE( '', ( #96, #97 ), #98, .T. );
#49 = PRESENTATION_STYLE_ASSIGNMENT( ( #99 ) );
#50 = ADVANCED_FACE( '', ( #100 ), #101, .T. );
#51 = PRESENTATION_STYLE_ASSIGNMENT( ( #102 ) );
#52 = ADVANCED_FACE( '', ( #103, #104 ), #105, .T. );
#53 = PRESENTATION_STYLE_ASSIGNMENT( ( #106 ) );
#54 = ADVANCED_FACE( '', ( #107 ), #108, .T. );
#55 = PRESENTATION_STYLE_ASSIGNMENT( ( #109 ) );
#56 = ADVANCED_FACE( '', ( #110, #111 ), #112, .T. );
#57 = PRESENTATION_STYLE_ASSIGNMENT( ( #113 ) );
#58 = ADVANCED_FACE( '', ( #114 ), #115, .T. );
#59 = PRODUCT( '1', '1', 'PART-1-DESC', ( #116 ) );
#60 = PRODUCT_DEFINITION( 'NONE', 'NONE', #117, #2 );
#61 = MANIFOLD_SOLID_BREP( '1', #118 );
#62 = AXIS2_PLACEMENT_3D( '', #119, #120, #121 );
#65 = LENGTH_MEASURE_WITH_UNIT( LENGTH_MEASURE( 1.00000000000000 ), #122 );
#68 = DIMENSIONAL_EXPONENTS( 1.00000000000000, 0.000000000000000, 0.000000000000000, 0.000000000000000, 0.000000000000000, 0.000000000000000, 0.000000000000000 );
#70 = DIMENSIONAL_EXPONENTS( 0.000000000000000, 0.000000000000000, 0.000000000000000, 0.000000000000000, 0.000000000000000, 0.000000000000000, 0.000000000000000 );
#76 = SURFACE_STYLE_USAGE( .BOTH., #123 );
#77 = FACE_OUTER_BOUND( '', #124, .T. );
#78 = PLANE( '', #125 );
#79 = SURFACE_STYLE_USAGE( .BOTH., #126 );
#80 = FACE_OUTER_BOUND( '', #127, .T. );
#81 = PLANE( '', #128 );
#82 = SURFACE_STYLE_USAGE( .BOTH., #129 );
#83 = FACE_OUTER_BOUND( '', #130, .T. );
#84 = CONICAL_SURFACE( '', #131, 4.00000000000000, 0.785398163397448 );
#85 = SURFACE_STYLE_USAGE( .BOTH., #132 );
#86 = FACE_OUTER_BOUND( '', #133, .T. );
#87 = FACE_OUTER_BOUND( '', #134, .T. );
#88 = CYLINDRICAL_SURFACE( '', #135, 5.00000000000000 );
#89 = SURFACE_STYLE_USAGE( .BOTH., #136 );
#90 = FACE_OUTER_BOUND( '', #137, .T. );
#91 = PLANE( '', #138 );
#92 = SURFACE_STYLE_USAGE( .BOTH., #139 );
#93 = FACE_OUTER_BOUND( '', #140, .T. );
#94 = SPHERICAL_SURFACE( '', #141, 3.00000000000000 );
#95 = SURFACE_STYLE_USAGE( .BOTH., #142 );
#96 = FACE_BOUND( '', #143, .T. );
#97 = FACE_OUTER_BOUND( '', #144, .T. );
#98 = CONICAL_SURFACE( '', #145, 5.00000000000000, 0.785398163397442 );
#99 = SURFACE_STYLE_USAGE( .BOTH., #146 );
#100 = FACE_OUTER_BOUND( '', #147, .T. );
#101 = PLANE( '', #148 );
#102 = SURFACE_STYLE_USAGE( .BOTH., #149 );
#103 = FACE_BOUND( '', #150, .T. );
#104 = FACE_OUTER_BOUND( '', #151, .T. );
#105 = PLANE( '', #152 );
#106 = SURFACE_STYLE_USAGE( .BOTH., #153 );
#107 = FACE_OUTER_BOUND( '', #154, .T. );
#108 = PLANE( '', #155 );
#109 = SURFACE_STYLE_USAGE( .BOTH., #156 );
#110 = FACE_OUTER_BOUND( '', #157, .T. );
#111 = FACE_OUTER_BOUND( '', #158, .T. );
#112 = CYLINDRICAL_SURFACE( '', #159, 4.50000000000000 );
#113 = SURFACE_STYLE_USAGE( .BOTH., #160 );
#114 = FACE_OUTER_BOUND( '', #161, .T. );
#115 = CONICAL_SURFACE( '', #162, 4.00000000000000, 0.785398163397448 );
#116 = PRODUCT_CONTEXT( '', #22, 'mechanical' );
#117 = PRODUCT_DEFINITION_FORMATION_WITH_SPECIFIED_SOURCE( ' ', 'NONE', #59, .NOT_KNOWN. );
#118 = CLOSED_SHELL( '', ( #36, #58, #42, #44, #50, #54, #40, #38, #48, #56, #52, #46 ) );
#119 = CARTESIAN_POINT( '', ( 0.000000000000000, 0.000000000000000, 0.000000000000000 ) );
#120 = DIRECTION( '', ( 0.000000000000000, 0.000000000000000, 1.00000000000000 ) );
#121 = DIRECTION( '', ( 1.00000000000000, 0.000000000000000, 0.000000000000000 ) );
#122 =  ( LENGTH_UNIT(  )NAMED_UNIT( #68 )SI_UNIT( .MILLI., .METRE. ) );
#123 = SURFACE_SIDE_STYLE( '', ( #164 ) );
#124 = EDGE_LOOP( '', ( #165, #166 ) );
#125 = AXIS2_PLACEMENT_3D( '', #167, #168, #169 );
#126 = SURFACE_SIDE_STYLE( '', ( #170 ) );
#127 = EDGE_LOOP( '', ( #171, #172 ) );
#128 = AXIS2_PLACEMENT_3D( '', #173, #174, #175 );
#129 = SURFACE_SIDE_STYLE( '', ( #176 ) );
#130 = EDGE_LOOP( '', ( #177, #178, #179, #180 ) );
#131 = AXIS2_PLACEMENT_3D( '', #181, #182, #183 );
#132 = SURFACE_SIDE_STYLE( '', ( #184 ) );
#133 = EDGE_LOOP( '', ( #185 ) );
#134 = EDGE_LOOP( '', ( #186, #187, #188, #189, #190, #191, #192, #193 ) );
#135 = AXIS2_PLACEMENT_3D( '', #194, #195, #196 );
#136 = SURFACE_SIDE_STYLE( '', ( #197 ) );
#137 = EDGE_LOOP( '', ( #198, #199, #200, #201 ) );
#138 = AXIS2_PLACEMENT_3D( '', #202, #203, #204 );
#139 = SURFACE_SIDE_STYLE( '', ( #205 ) );
#140 = EDGE_LOOP( '', ( #206 ) );
#141 = AXIS2_PLACEMENT_3D( '', #207, #208, #209 );
#142 = SURFACE_SIDE_STYLE( '', ( #210 ) );
#143 = EDGE_LOOP( '', ( #211 ) );
#144 = EDGE_LOOP( '', ( #212 ) );
#145 = AXIS2_PLACEMENT_3D( '', #213, #214, #215 );
#146 = SURFACE_SIDE_STYLE( '', ( #216 ) );
#147 = EDGE_LOOP( '', ( #217, #218, #219, #220, #221, #222 ) );
#148 = AXIS2_PLACEMENT_3D( '', #223, #224, #225 );
#149 = SURFACE_SIDE_STYLE( '', ( #226 ) );
#150 = EDGE_LOOP( '', ( #227 ) );
#151 = EDGE_LOOP( '', ( #228 ) );
#152 = AXIS2_PLACEMENT_3D( '', #229, #230, #231 );
#153 = SURFACE_SIDE_STYLE( '', ( #232 ) );
#154 = EDGE_LOOP( '', ( #233, #234, #235, #236, #237, #238 ) );
#155 = AXIS2_PLACEMENT_3D( '', #239, #240, #241 );
#156 = SURFACE_SIDE_STYLE( '', ( #242 ) );
#157 = EDGE_LOOP( '', ( #243 ) );
#158 = EDGE_LOOP( '', ( #244 ) );
#159 = AXIS2_PLACEMENT_3D( '', #245, #246, #247 );
#160 = SURFACE_SIDE_STYLE( '', ( #248 ) );
#161 = EDGE_LOOP( '', ( #249, #250, #251, #252 ) );
#162 = AXIS2_PLACEMENT_3D( '', #253, #254, #255 );
#164 = SURFACE_STYLE_FILL_AREA( #256 );
#165 = ORIENTED_EDGE( '', *, *, #257, .T. );
#166 = ORIENTED_EDGE( '', *, *, #258, .T. );
#167 = CARTESIAN_POINT( '', ( 0.000000000000000, 0.000000000000000, 21.0000000000000 ) );
#168 = DIRECTION( '', ( 0.000000000000000, 0.000000000000000, 1.00000000000000 ) );
#169 = DIRECTION( '', ( 1.00000000000000, 0.000000000000000, 0.000000000000000 ) );
#170 = SURFACE_STYLE_FILL_AREA( #259 );
#171 = ORIENTED_EDGE( '', *, *, #260, .F. );
#172 = ORIENTED_EDGE( '', *, *, #261, .T. );
#173 = CARTESIAN_POINT( '', ( 0.000000000000000, 0.000000000000000, 21.0000000000000 ) );
#174 = DIRECTION( '', ( 0.000000000000000, 0.000000000000000, 1.00000000000000 ) );
#175 = DIRECTION( '', ( 1.00000000000000, 0.000000000000000, 0.000000000000000 ) );
#176 = SURFACE_STYLE_FILL_AREA( #262 );
#177 = ORIENTED_EDGE( '', *, *, #263, .F. );
#178 = ORIENTED_EDGE( '', *, *, #264, .F. );
#179 = ORIENTED_EDGE( '', *, *, #265, .F. );
#180 = ORIENTED_EDGE( '', *, *, #258, .F. );
#181 = CARTESIAN_POINT( '', ( 0.000000000000000, 0.000000000000000, 21.0000000000000 ) );
#182 = DIRECTION( '', ( -0.000000000000000, 0.000000000000000, -1.00000000000000 ) );
#183 = DIRECTION( '', ( -1.00000000000000, 0.000000000000000, 0.000000000000000 ) );
#184 = SURFACE_STYLE_FILL_AREA( #266 );
#185 = ORIENTED_EDGE( '', *, *, #267, .T. );
#186 = ORIENTED_EDGE( '', *, *, #268, .T. );
#187 = ORIENTED_EDGE( '', *, *, #264, .T. );
#188 = ORIENTED_EDGE( '', *, *, #269, .T. );
#189 = ORIENTED_EDGE( '', *, *, #270, .T. );
#190 = ORIENTED_EDGE( '', *, *, #271, .T. );
#191 = ORIENTED_EDGE( '', *, *, #272, .T. );
#192 = ORIENTED_EDGE( '', *, *, #273, .T. );
#193 = ORIENTED_EDGE( '', *, *, #274, .T. );
#194 = CARTESIAN_POINT( '', ( 0.000000000000000, 0.000000000000000, 57.1500000000000 ) );
#195 = DIRECTION( '', ( -0.000000000000000, -0.000000000000000, -1.00000000000000 ) );
#196 = DIRECTION( '', ( 1.00000000000000, 0.000000000000000, 0.000000000000000 ) );
#197 = SURFACE_STYLE_FILL_AREA( #275 );
#198 = ORIENTED_EDGE( '', *, *, #276, .T. );
#199 = ORIENTED_EDGE( '', *, *, #270, .F. );
#200 = ORIENTED_EDGE( '', *, *, #277, .F. );
#201 = ORIENTED_EDGE( '', *, *, #274, .F. );
#202 = CARTESIAN_POINT( '', ( -0.500000000000000, -10.0000000000000, 19.5000000000000 ) );
#203 = DIRECTION( '', ( 0.000000000000000, 0.000000000000000, 1.00000000000000 ) );
#204 = DIRECTION( '', ( 1.00000000000000, 0.000000000000000, 0.000000000000000 ) );
#205 = SURFACE_STYLE_FILL_AREA( #278 );
#206 = ORIENTED_EDGE( '', *, *, #279, .F. );
#207 = CARTESIAN_POINT( '', ( 0.000000000000000, 0.000000000000000, 3.00000000000000 ) );
#208 = DIRECTION( '', ( 0.000000000000000, 0.000000000000000, 1.00000000000000 ) );
#209 = DIRECTION( '', ( 1.00000000000000, 0.000000000000000, 0.000000000000000 ) );
#210 = SURFACE_STYLE_FILL_AREA( #280 );
#211 = ORIENTED_EDGE( '', *, *, #281, .T. );
#212 = ORIENTED_EDGE( '', *, *, #267, .F. );
#213 = CARTESIAN_POINT( '', ( 0.000000000000000, 0.000000000000000, 3.30000000000000 ) );
#214 = DIRECTION( '', ( -0.000000000000000, -0.000000000000000, 1.00000000000000 ) );
#215 = DIRECTION( '', ( 1.00000000000000, 0.000000000000000, 0.000000000000000 ) );
#216 = SURFACE_STYLE_FILL_AREA( #282 );
#217 = ORIENTED_EDGE( '', *, *, #260, .T. );
#218 = ORIENTED_EDGE( '', *, *, #283, .T. );
#219 = ORIENTED_EDGE( '', *, *, #271, .F. );
#220 = ORIENTED_EDGE( '', *, *, #276, .F. );
#221 = ORIENTED_EDGE( '', *, *, #273, .F. );
#222 = ORIENTED_EDGE( '', *, *, #284, .T. );
#223 = CARTESIAN_POINT( '', ( 0.500000000000000, -10.0000000000000, 19.5000000000000 ) );
#224 = DIRECTION( '', ( -1.00000000000000, 0.000000000000000, 1.44560289664734E-016 ) );
#225 = DIRECTION( '', ( 1.44560289664734E-016, 0.000000000000000, 1.00000000000000 ) );
#226 = SURFACE_STYLE_FILL_AREA( #285 );
#227 = ORIENTED_EDGE( '', *, *, #279, .T. );
#228 = ORIENTED_EDGE( '', *, *, #286, .F. );
#229 = CARTESIAN_POINT( '', ( 2.82842712474619, 0.000000000000000, 2.00000000000000 ) );
#230 = DIRECTION( '', ( 0.000000000000000, 0.000000000000000, -1.00000000000000 ) );
#231 = DIRECTION( '', ( -1.00000000000000, 0.000000000000000, 0.000000000000000 ) );
#232 = SURFACE_STYLE_FILL_AREA( #287 );
#233 = ORIENTED_EDGE( '', *, *, #257, .F. );
#234 = ORIENTED_EDGE( '', *, *, #265, .T. );
#235 = ORIENTED_EDGE( '', *, *, #268, .F. );
#236 = ORIENTED_EDGE( '', *, *, #277, .T. );
#237 = ORIENTED_EDGE( '', *, *, #269, .F. );
#238 = ORIENTED_EDGE( '', *, *, #263, .T. );
#239 = CARTESIAN_POINT( '', ( -0.500000000000000, -10.0000000000000, 21.0000000000000 ) );
#240 = DIRECTION( '', ( 1.00000000000000, 0.000000000000000, 1.44560289664734E-016 ) );
#241 = DIRECTION( '', ( 1.44560289664734E-016, 0.000000000000000, -1.00000000000000 ) );
#242 = SURFACE_STYLE_FILL_AREA( #288 );
#243 = ORIENTED_EDGE( '', *, *, #286, .T. );
#244 = ORIENTED_EDGE( '', *, *, #281, .F. );
#245 = CARTESIAN_POINT( '', ( 0.000000000000000, 0.000000000000000, 57.1500000000000 ) );
#246 = DIRECTION( '', ( -0.000000000000000, -0.000000000000000, -1.00000000000000 ) );
#247 = DIRECTION( '', ( 1.00000000000000, 0.000000000000000, 0.000000000000000 ) );
#248 = SURFACE_STYLE_FILL_AREA( #289 );
#249 = ORIENTED_EDGE( '', *, *, #284, .F. );
#250 = ORIENTED_EDGE( '', *, *, #272, .F. );
#251 = ORIENTED_EDGE( '', *, *, #283, .F. );
#252 = ORIENTED_EDGE( '', *, *, #261, .F. );
#253 = CARTESIAN_POINT( '', ( 0.000000000000000, 0.000000000000000, 21.0000000000000 ) );
#254 = DIRECTION( '', ( -0.000000000000000, 0.000000000000000, -1.00000000000000 ) );
#255 = DIRECTION( '', ( -1.00000000000000, 0.000000000000000, 0.000000000000000 ) );
#256 = FILL_AREA_STYLE( '', ( #290 ) );
#257 = EDGE_CURVE( '', #291, #292, #293, .T. );
#258 = EDGE_CURVE( '', #292, #291, #294, .T. );
#259 = FILL_AREA_STYLE( '', ( #295 ) );
#260 = EDGE_CURVE( '', #296, #297, #298, .T. );
#261 = EDGE_CURVE( '', #296, #297, #299, .T. );
#262 = FILL_AREA_STYLE( '', ( #300 ) );
#263 = EDGE_CURVE( '', #301, #292, #302, .T. );
#264 = EDGE_CURVE( '', #303, #301, #304, .F. );
#265 = EDGE_CURVE( '', #291, #303, #305, .T. );
#266 = FILL_AREA_STYLE( '', ( #306 ) );
#267 = EDGE_CURVE( '', #307, #307, #308, .T. );
#268 = EDGE_CURVE( '', #309, #303, #310, .T. );
#269 = EDGE_CURVE( '', #301, #311, #312, .F. );
#270 = EDGE_CURVE( '', #311, #313, #314, .F. );
#271 = EDGE_CURVE( '', #313, #315, #316, .T. );
#272 = EDGE_CURVE( '', #315, #317, #318, .F. );
#273 = EDGE_CURVE( '', #317, #319, #320, .F. );
#274 = EDGE_CURVE( '', #319, #309, #321, .F. );
#275 = FILL_AREA_STYLE( '', ( #322 ) );
#276 = EDGE_CURVE( '', #319, #313, #323, .T. );
#277 = EDGE_CURVE( '', #309, #311, #324, .T. );
#278 = FILL_AREA_STYLE( '', ( #325 ) );
#279 = EDGE_CURVE( '', #326, #326, #327, .T. );
#280 = FILL_AREA_STYLE( '', ( #328 ) );
#281 = EDGE_CURVE( '', #329, #329, #330, .T. );
#282 = FILL_AREA_STYLE( '', ( #331 ) );
#283 = EDGE_CURVE( '', #297, #315, #332, .T. );
#284 = EDGE_CURVE( '', #317, #296, #333, .T. );
#285 = FILL_AREA_STYLE( '', ( #334 ) );
#286 = EDGE_CURVE( '', #335, #335, #336, .T. );
#287 = FILL_AREA_STYLE( '', ( #337 ) );
#288 = FILL_AREA_STYLE( '', ( #338 ) );
#289 = FILL_AREA_STYLE( '', ( #339 ) );
#290 = FILL_AREA_STYLE_COLOUR( '', #340 );
#291 = VERTEX_POINT( '', #341 );
#292 = VERTEX_POINT( '', #342 );
#293 = LINE( '', #343, #344 );
#294 = CIRCLE( '', #345, 4.00000000000000 );
#295 = FILL_AREA_STYLE_COLOUR( '', #346 );
#296 = VERTEX_POINT( '', #347 );
#297 = VERTEX_POINT( '', #348 );
#298 = LINE( '', #349, #350 );
#299 = CIRCLE( '', #351, 4.00000000000000 );
#300 = FILL_AREA_STYLE_COLOUR( '', #352 );
#301 = VERTEX_POINT( '', #353 );
#302 = B_SPLINE_CURVE_WITH_KNOTS( '', 3, ( #354, #355, #356, #357 ), .UNSPECIFIED., .F., .F., ( 4, 4 ), ( 0.000000000000000, 0.00141868257786421 ), .UNSPECIFIED. );
#303 = VERTEX_POINT( '', #358 );
#304 = CIRCLE( '', #359, 5.00000000000000 );
#305 = B_SPLINE_CURVE_WITH_KNOTS( '', 3, ( #360, #361, #362, #363 ), .UNSPECIFIED., .F., .F., ( 4, 4 ), ( 0.000000000000000, 0.00141868257786421 ), .UNSPECIFIED. );
#306 = FILL_AREA_STYLE_COLOUR( '', #364 );
#307 = VERTEX_POINT( '', #365 );
#308 = CIRCLE( '', #366, 5.00000000000000 );
#309 = VERTEX_POINT( '', #367 );
#310 = LINE( '', #368, #369 );
#311 = VERTEX_POINT( '', #370 );
#312 = LINE( '', #371, #372 );
#313 = VERTEX_POINT( '', #373 );
#314 = CIRCLE( '', #374, 5.00000000000000 );
#315 = VERTEX_POINT( '', #375 );
#316 = LINE( '', #376, #377 );
#317 = VERTEX_POINT( '', #378 );
#318 = CIRCLE( '', #379, 5.00000000000000 );
#319 = VERTEX_POINT( '', #380 );
#320 = LINE( '', #381, #382 );
#321 = CIRCLE( '', #383, 5.00000000000000 );
#322 = FILL_AREA_STYLE_COLOUR( '', #384 );
#323 = LINE( '', #385, #386 );
#324 = LINE( '', #387, #388 );
#325 = FILL_AREA_STYLE_COLOUR( '', #389 );
#326 = VERTEX_POINT( '', #390 );
#327 = CIRCLE( '', #391, 2.82842712474619 );
#328 = FILL_AREA_STYLE_COLOUR( '', #392 );
#329 = VERTEX_POINT( '', #393 );
#330 = CIRCLE( '', #394, 4.50000000000000 );
#331 = FILL_AREA_STYLE_COLOUR( '', #395 );
#332 = B_SPLINE_CURVE_WITH_KNOTS( '', 3, ( #396, #397, #398, #399 ), .UNSPECIFIED., .F., .F., ( 4, 4 ), ( 0.000000000000000, 0.00141868257786421 ), .UNSPECIFIED. );
#333 = B_SPLINE_CURVE_WITH_KNOTS( '', 3, ( #400, #401, #402, #403 ), .UNSPECIFIED., .F., .F., ( 4, 4 ), ( 0.000000000000000, 0.00141868257786421 ), .UNSPECIFIED. );
#334 = FILL_AREA_STYLE_COLOUR( '', #404 );
#335 = VERTEX_POINT( '', #405 );
#336 = CIRCLE( '', #406, 4.50000000000000 );
#337 = FILL_AREA_STYLE_COLOUR( '', #407 );
#338 = FILL_AREA_STYLE_COLOUR( '', #408 );
#339 = FILL_AREA_STYLE_COLOUR( '', #409 );
#340 = COLOUR_RGB( '', 0.800000011920929, 0.800000011920929, 0.800000011920929 );
#341 = CARTESIAN_POINT( '', ( -0.500000000000000, -3.96862696659689, 21.0000000000000 ) );
#342 = CARTESIAN_POINT( '', ( -0.500000000000000, 3.96862696659689, 21.0000000000000 ) );
#343 = CARTESIAN_POINT( '', ( -0.500000000000000, -10.0000000000000, 21.0000000000000 ) );
#344 = VECTOR( '', #410, 1000.00000000000 );
#345 = AXIS2_PLACEMENT_3D( '', #411, #412, #413 );
#346 = COLOUR_RGB( '', 0.800000011920929, 0.800000011920929, 0.800000011920929 );
#347 = CARTESIAN_POINT( '', ( 0.500000000000000, -3.96862696659689, 21.0000000000000 ) );
#348 = CARTESIAN_POINT( '', ( 0.500000000000000, 3.96862696659689, 21.0000000000000 ) );
#349 = CARTESIAN_POINT( '', ( 0.500000000000000, -10.0000000000000, 21.0000000000000 ) );
#350 = VECTOR( '', #414, 1000.00000000000 );
#351 = AXIS2_PLACEMENT_3D( '', #415, #416, #417 );
#352 = COLOUR_RGB( '', 0.800000011920929, 0.800000011920929, 0.800000011920929 );
#353 = CARTESIAN_POINT( '', ( -0.500000000000006, 4.97493718553310, 20.0000000000000 ) );
#354 = CARTESIAN_POINT( '', ( -0.500000000000006, 4.97493718553310, 20.0000000000000 ) );
#355 = CARTESIAN_POINT( '', ( -0.500000000000006, 4.63971138042619, 20.3335454646753 ) );
#356 = CARTESIAN_POINT( '', ( -0.500000000000000, 4.30432755866703, 20.6669323944020 ) );
#357 = CARTESIAN_POINT( '', ( -0.500000000000000, 3.96862696659689, 21.0000000000000 ) );
#358 = CARTESIAN_POINT( '', ( -0.500000000000006, -4.97493718553310, 20.0000000000000 ) );
#359 = AXIS2_PLACEMENT_3D( '', #418, #419, #420 );
#360 = CARTESIAN_POINT( '', ( -0.500000000000000, -3.96862696659689, 21.0000000000000 ) );
#361 = CARTESIAN_POINT( '', ( -0.500000000000000, -4.30432755866703, 20.6669323944020 ) );
#362 = CARTESIAN_POINT( '', ( -0.500000000000000, -4.63971138042619, 20.3335454646753 ) );
#363 = CARTESIAN_POINT( '', ( -0.500000000000000, -4.97493718553310, 20.0000000000000 ) );
#364 = COLOUR_RGB( '', 0.752941191196442, 0.752941191196442, 0.752941191196442 );
#365 = CARTESIAN_POINT( '', ( 5.00000000000000, 0.000000000000000, 3.30000000000000 ) );
#366 = AXIS2_PLACEMENT_3D( '', #421, #422, #423 );
#367 = CARTESIAN_POINT( '', ( -0.500000000000000, -4.97493718553310, 19.5000000000000 ) );
#368 = CARTESIAN_POINT( '', ( -0.500000000000006, -4.97493718553310, 57.1500000000000 ) );
#369 = VECTOR( '', #424, 1000.00000000000 );
#370 = CARTESIAN_POINT( '', ( -0.500000000000000, 4.97493718553310, 19.5000000000000 ) );
#371 = CARTESIAN_POINT( '', ( -0.500000000000006, 4.97493718553310, 57.1500000000000 ) );
#372 = VECTOR( '', #425, 1000.00000000000 );
#373 = CARTESIAN_POINT( '', ( 0.500000000000000, 4.97493718553310, 19.5000000000000 ) );
#374 = AXIS2_PLACEMENT_3D( '', #426, #427, #428 );
#375 = CARTESIAN_POINT( '', ( 0.500000000000000, 4.97493718553310, 20.0000000000000 ) );
#376 = CARTESIAN_POINT( '', ( 0.500000000000000, 4.97493718553310, 57.1500000000000 ) );
#377 = VECTOR( '', #429, 1000.00000000000 );
#378 = CARTESIAN_POINT( '', ( 0.500000000000000, -4.97493718553310, 20.0000000000000 ) );
#379 = AXIS2_PLACEMENT_3D( '', #430, #431, #432 );
#380 = CARTESIAN_POINT( '', ( 0.500000000000000, -4.97493718553310, 19.5000000000000 ) );
#381 = CARTESIAN_POINT( '', ( 0.500000000000000, -4.97493718553310, 57.1500000000000 ) );
#382 = VECTOR( '', #433, 1000.00000000000 );
#383 = AXIS2_PLACEMENT_3D( '', #434, #435, #436 );
#384 = COLOUR_RGB( '', 0.800000011920929, 0.800000011920929, 0.800000011920929 );
#385 = CARTESIAN_POINT( '', ( 0.500000000000000, -10.0000000000000, 19.5000000000000 ) );
#386 = VECTOR( '', #437, 1000.00000000000 );
#387 = CARTESIAN_POINT( '', ( -0.500000000000000, -10.0000000000000, 19.5000000000000 ) );
#388 = VECTOR( '', #438, 1000.00000000000 );
#389 = COLOUR_RGB( '', 0.800000011920929, 0.800000011920929, 0.800000011920929 );
#390 = CARTESIAN_POINT( '', ( 2.82842712474619, 0.000000000000000, 2.00000000000000 ) );
#391 = AXIS2_PLACEMENT_3D( '', #439, #440, #441 );
#392 = COLOUR_RGB( '', 0.800000011920929, 0.800000011920929, 0.800000011920929 );
#393 = CARTESIAN_POINT( '', ( 4.50000000000000, 0.000000000000000, 2.80000000000000 ) );
#394 = AXIS2_PLACEMENT_3D( '', #442, #443, #444 );
#395 = COLOUR_RGB( '', 0.800000011920929, 0.800000011920929, 0.800000011920929 );
#396 = CARTESIAN_POINT( '', ( 0.500000000000000, 3.96862696659689, 21.0000000000000 ) );
#397 = CARTESIAN_POINT( '', ( 0.500000000000000, 4.30432755866703, 20.6669323944020 ) );
#398 = CARTESIAN_POINT( '', ( 0.500000000000000, 4.63971138042619, 20.3335454646753 ) );
#399 = CARTESIAN_POINT( '', ( 0.500000000000000, 4.97493718553310, 20.0000000000000 ) );
#400 = CARTESIAN_POINT( '', ( 0.500000000000000, -4.97493718553310, 20.0000000000000 ) );
#401 = CARTESIAN_POINT( '', ( 0.500000000000000, -4.63971138042619, 20.3335454646753 ) );
#402 = CARTESIAN_POINT( '', ( 0.500000000000000, -4.30432755866703, 20.6669323944020 ) );
#403 = CARTESIAN_POINT( '', ( 0.500000000000000, -3.96862696659689, 21.0000000000000 ) );
#404 = COLOUR_RGB( '', 0.800000011920929, 0.800000011920929, 0.800000011920929 );
#405 = CARTESIAN_POINT( '', ( 4.50000000000000, 0.000000000000000, 2.00000000000000 ) );
#406 = AXIS2_PLACEMENT_3D( '', #445, #446, #447 );
#407 = COLOUR_RGB( '', 0.800000011920929, 0.800000011920929, 0.800000011920929 );
#408 = COLOUR_RGB( '', 0.800000011920929, 0.800000011920929, 0.800000011920929 );
#409 = COLOUR_RGB( '', 0.800000011920929, 0.800000011920929, 0.800000011920929 );
#410 = DIRECTION( '', ( 0.000000000000000, 1.00000000000000, 0.000000000000000 ) );
#411 = CARTESIAN_POINT( '', ( 0.000000000000000, 0.000000000000000, 21.0000000000000 ) );
#412 = DIRECTION( '', ( 0.000000000000000, 0.000000000000000, 1.00000000000000 ) );
#413 = DIRECTION( '', ( 1.00000000000000, 0.000000000000000, 0.000000000000000 ) );
#414 = DIRECTION( '', ( 0.000000000000000, 1.00000000000000, 0.000000000000000 ) );
#415 = CARTESIAN_POINT( '', ( 0.000000000000000, 0.000000000000000, 21.0000000000000 ) );
#416 = DIRECTION( '', ( 0.000000000000000, 0.000000000000000, 1.00000000000000 ) );
#417 = DIRECTION( '', ( 1.00000000000000, 0.000000000000000, 0.000000000000000 ) );
#418 = CARTESIAN_POINT( '', ( 0.000000000000000, 0.000000000000000, 20.0000000000000 ) );
#419 = DIRECTION( '', ( 0.000000000000000, 0.000000000000000, 1.00000000000000 ) );
#420 = DIRECTION( '', ( 1.00000000000000, 0.000000000000000, 0.000000000000000 ) );
#421 = CARTESIAN_POINT( '', ( 0.000000000000000, 0.000000000000000, 3.30000000000000 ) );
#422 = DIRECTION( '', ( 0.000000000000000, 0.000000000000000, 1.00000000000000 ) );
#423 = DIRECTION( '', ( 1.00000000000000, 0.000000000000000, 0.000000000000000 ) );
#424 = DIRECTION( '', ( 0.000000000000000, 0.000000000000000, 1.00000000000000 ) );
#425 = DIRECTION( '', ( 0.000000000000000, 0.000000000000000, 1.00000000000000 ) );
#426 = CARTESIAN_POINT( '', ( 0.000000000000000, 0.000000000000000, 19.5000000000000 ) );
#427 = DIRECTION( '', ( 0.000000000000000, 0.000000000000000, 1.00000000000000 ) );
#428 = DIRECTION( '', ( 1.00000000000000, 0.000000000000000, 0.000000000000000 ) );
#429 = DIRECTION( '', ( 0.000000000000000, 0.000000000000000, 1.00000000000000 ) );
#430 = CARTESIAN_POINT( '', ( 0.000000000000000, 0.000000000000000, 20.0000000000000 ) );
#431 = DIRECTION( '', ( 0.000000000000000, 0.000000000000000, 1.00000000000000 ) );
#432 = DIRECTION( '', ( 1.00000000000000, 0.000000000000000, 0.000000000000000 ) );
#433 = DIRECTION( '', ( 0.000000000000000, 0.000000000000000, 1.00000000000000 ) );
#434 = CARTESIAN_POINT( '', ( 0.000000000000000, 0.000000000000000, 19.5000000000000 ) );
#435 = DIRECTION( '', ( 0.000000000000000, 0.000000000000000, 1.00000000000000 ) );
#436 = DIRECTION( '', ( 1.00000000000000, 0.000000000000000, 0.000000000000000 ) );
#437 = DIRECTION( '', ( 0.000000000000000, 1.00000000000000, 0.000000000000000 ) );
#438 = DIRECTION( '', ( 0.000000000000000, 1.00000000000000, 0.000000000000000 ) );
#439 = CARTESIAN_POINT( '', ( 0.000000000000000, 0.000000000000000, 2.00000000000000 ) );
#440 = DIRECTION( '', ( 0.000000000000000, 0.000000000000000, 1.00000000000000 ) );
#441 = DIRECTION( '', ( 1.00000000000000, 0.000000000000000, 0.000000000000000 ) );
#442 = CARTESIAN_POINT( '', ( 0.000000000000000, 0.000000000000000, 2.80000000000000 ) );
#443 = DIRECTION( '', ( 0.000000000000000, 0.000000000000000, 1.00000000000000 ) );
#444 = DIRECTION( '', ( 1.00000000000000, 0.000000000000000, 0.000000000000000 ) );
#445 = CARTESIAN_POINT( '', ( 0.000000000000000, 0.000000000000000, 2.00000000000000 ) );
#446 = DIRECTION( '', ( 0.000000000000000, 0.000000000000000, 1.00000000000000 ) );
#447 = DIRECTION( '', ( 1.00000000000000, 0.000000000000000, 0.000000000000000 ) );
ENDSEC;
END-ISO-10303-21;
