ISO-10303-21;
HEADER;
FILE_DESCRIPTION( ( 'Unknown' ), '1' );
FILE_NAME( '//SBS2003/HD_Usb/Disegni/08_LIB/Users_3D/PROD_GAMM_3D/APS-I/7747535_APS_22_I.stp', 'Unknown', ( 'Unknown' ), ( 'Unknown' ), 'PSStep 14.0', 'Unknown', '  ' );
FILE_SCHEMA( ( 'AUTOMOTIVE_DESIGN { 1 0 10303 214 1 1 1 1 }' ) );
ENDSEC;
DATA;
#1 = MECHANICAL_DESIGN_GEOMETRIC_PRESENTATION_REPRESENTATION( ' ', ( #10, #11, #12, #13, #14, #15, #16, #17, #18, #19, #20, #21 ), #6 );
#2 = PRODUCT_DEFINITION_CONTEXT( '', #22, 'design' );
#3 = APPLICATION_PROTOCOL_DEFINITION( 'international standard', 'automotive_design', 2001, #22 );
#4 = PRODUCT_CATEGORY_RELATIONSHIP( 'NONE', 'NONE', #23, #24 );
#5 = SHAPE_DEFINITION_REPRESENTATION( #25, #26 );
#6 =  ( GEOMETRIC_REPRESENTATION_CONTEXT( 3 )GLOBAL_UNCERTAINTY_ASSIGNED_CONTEXT( ( #29 ) )GLOBAL_UNIT_ASSIGNED_CONTEXT( ( #31, #32, #33 ) )REPRESENTATION_CONTEXT( 'NONE', 'WORKSPACE' ) );
#10 = STYLED_ITEM( '', ( #35 ), #36 );
#11 = STYLED_ITEM( '', ( #37 ), #38 );
#12 = STYLED_ITEM( '', ( #39 ), #40 );
#13 = STYLED_ITEM( '', ( #41 ), #42 );
#14 = STYLED_ITEM( '', ( #43 ), #44 );
#15 = STYLED_ITEM( '', ( #45 ), #46 );
#16 = STYLED_ITEM( '', ( #47 ), #48 );
#17 = STYLED_ITEM( '', ( #49 ), #50 );
#18 = STYLED_ITEM( '', ( #51 ), #52 );
#19 = STYLED_ITEM( '', ( #53 ), #54 );
#20 = STYLED_ITEM( '', ( #55 ), #56 );
#21 = STYLED_ITEM( '', ( #57 ), #58 );
#22 = APPLICATION_CONTEXT( 'core data for automotive mechanical design processes' );
#23 = PRODUCT_CATEGORY( 'part', 'NONE' );
#24 = PRODUCT_RELATED_PRODUCT_CATEGORY( 'detail', ' ', ( #59 ) );
#25 = PRODUCT_DEFINITION_SHAPE( 'NONE', 'NONE', #60 );
#26 = ADVANCED_BREP_SHAPE_REPRESENTATION( '1', ( #61, #62 ), #6 );
#29 = UNCERTAINTY_MEASURE_WITH_UNIT( LENGTH_MEASURE( 0.00100000000000000 ), #31, '', '' );
#31 =  ( CONVERSION_BASED_UNIT( 'MILLIMETRE', #65 )LENGTH_UNIT(  )NAMED_UNIT( #68 ) );
#32 =  ( NAMED_UNIT( #70 )PLANE_ANGLE_UNIT(  )SI_UNIT( $, .RADIAN. ) );
#33 =  ( NAMED_UNIT( #70 )SI_UNIT( $, .STERADIAN. )SOLID_ANGLE_UNIT(  ) );
#35 = PRESENTATION_STYLE_ASSIGNMENT( ( #76 ) );
#36 = ADVANCED_FACE( '', ( #77 ), #78, .T. );
#37 = PRESENTATION_STYLE_ASSIGNMENT( ( #79 ) );
#38 = ADVANCED_FACE( '', ( #80 ), #81, .T. );
#39 = PRESENTATION_STYLE_ASSIGNMENT( ( #82 ) );
#40 = ADVANCED_FACE( '', ( #83 ), #84, .T. );
#41 = PRESENTATION_STYLE_ASSIGNMENT( ( #85 ) );
#42 = ADVANCED_FACE( '', ( #86 ), #87, .T. );
#43 = PRESENTATION_STYLE_ASSIGNMENT( ( #88 ) );
#44 = ADVANCED_FACE( '', ( #89 ), #90, .T. );
#45 = PRESENTATION_STYLE_ASSIGNMENT( ( #91 ) );
#46 = ADVANCED_FACE( '', ( #92 ), #93, .T. );
#47 = PRESENTATION_STYLE_ASSIGNMENT( ( #94 ) );
#48 = ADVANCED_FACE( '', ( #95, #96 ), #97, .T. );
#49 = PRESENTATION_STYLE_ASSIGNMENT( ( #98 ) );
#50 = ADVANCED_FACE( '', ( #99, #100 ), #101, .T. );
#51 = PRESENTATION_STYLE_ASSIGNMENT( ( #102 ) );
#52 = ADVANCED_FACE( '', ( #103, #104 ), #105, .T. );
#53 = PRESENTATION_STYLE_ASSIGNMENT( ( #106 ) );
#54 = ADVANCED_FACE( '', ( #107, #108 ), #109, .T. );
#55 = PRESENTATION_STYLE_ASSIGNMENT( ( #110 ) );
#56 = ADVANCED_FACE( '', ( #111 ), #112, .T. );
#57 = PRESENTATION_STYLE_ASSIGNMENT( ( #113 ) );
#58 = ADVANCED_FACE( '', ( #114 ), #115, .T. );
#59 = PRODUCT( '1', '1', 'PART-1-DESC', ( #116 ) );
#60 = PRODUCT_DEFINITION( 'NONE', 'NONE', #117, #2 );
#61 = MANIFOLD_SOLID_BREP( '1', #118 );
#62 = AXIS2_PLACEMENT_3D( '', #119, #120, #121 );
#65 = LENGTH_MEASURE_WITH_UNIT( LENGTH_MEASURE( 1.00000000000000 ), #122 );
#68 = DIMENSIONAL_EXPONENTS( 1.00000000000000, 0.000000000000000, 0.000000000000000, 0.000000000000000, 0.000000000000000, 0.000000000000000, 0.000000000000000 );
#70 = DIMENSIONAL_EXPONENTS( 0.000000000000000, 0.000000000000000, 0.000000000000000, 0.000000000000000, 0.000000000000000, 0.000000000000000, 0.000000000000000 );
#76 = SURFACE_STYLE_USAGE( .BOTH., #123 );
#77 = FACE_OUTER_BOUND( '', #124, .T. );
#78 = PLANE( '', #125 );
#79 = SURFACE_STYLE_USAGE( .BOTH., #126 );
#80 = FACE_OUTER_BOUND( '', #127, .T. );
#81 = PLANE( '', #128 );
#82 = SURFACE_STYLE_USAGE( .BOTH., #129 );
#83 = FACE_OUTER_BOUND( '', #130, .T. );
#84 = CONICAL_SURFACE( '', #131, 5.00000000000000, 0.785398163397448 );
#85 = SURFACE_STYLE_USAGE( .BOTH., #132 );
#86 = FACE_OUTER_BOUND( '', #133, .T. );
#87 = PLANE( '', #134 );
#88 = SURFACE_STYLE_USAGE( .BOTH., #135 );
#89 = FACE_OUTER_BOUND( '', #136, .T. );
#90 = CONICAL_SURFACE( '', #137, 5.00000000000000, 0.785398163397448 );
#91 = SURFACE_STYLE_USAGE( .BOTH., #138 );
#92 = FACE_OUTER_BOUND( '', #139, .T. );
#93 = PLANE( '', #140 );
#94 = SURFACE_STYLE_USAGE( .BOTH., #141 );
#95 = FACE_BOUND( '', #142, .T. );
#96 = FACE_OUTER_BOUND( '', #143, .T. );
#97 = PLANE( '', #144 );
#98 = SURFACE_STYLE_USAGE( .BOTH., #145 );
#99 = FACE_OUTER_BOUND( '', #146, .T. );
#100 = FACE_OUTER_BOUND( '', #147, .T. );
#101 = CYLINDRICAL_SURFACE( '', #148, 5.50000000000000 );
#102 = SURFACE_STYLE_USAGE( .BOTH., #149 );
#103 = FACE_OUTER_BOUND( '', #150, .T. );
#104 = FACE_OUTER_BOUND( '', #151, .T. );
#105 = CYLINDRICAL_SURFACE( '', #152, 6.00000000000000 );
#106 = SURFACE_STYLE_USAGE( .BOTH., #153 );
#107 = FACE_BOUND( '', #154, .T. );
#108 = FACE_OUTER_BOUND( '', #155, .T. );
#109 = CONICAL_SURFACE( '', #156, 6.00000000000000, 0.785398163397444 );
#110 = SURFACE_STYLE_USAGE( .BOTH., #157 );
#111 = FACE_OUTER_BOUND( '', #158, .T. );
#112 = SPHERICAL_SURFACE( '', #159, 4.00000000000000 );
#113 = SURFACE_STYLE_USAGE( .BOTH., #160 );
#114 = FACE_OUTER_BOUND( '', #161, .T. );
#115 = PLANE( '', #162 );
#116 = PRODUCT_CONTEXT( '', #22, 'mechanical' );
#117 = PRODUCT_DEFINITION_FORMATION_WITH_SPECIFIED_SOURCE( ' ', 'NONE', #59, .NOT_KNOWN. );
#118 = CLOSED_SHELL( '', ( #36, #40, #52, #58, #38, #42, #44, #46, #54, #50, #48, #56 ) );
#119 = CARTESIAN_POINT( '', ( 0.000000000000000, 0.000000000000000, 0.000000000000000 ) );
#120 = DIRECTION( '', ( 0.000000000000000, 0.000000000000000, 1.00000000000000 ) );
#121 = DIRECTION( '', ( 1.00000000000000, 0.000000000000000, 0.000000000000000 ) );
#122 =  ( LENGTH_UNIT(  )NAMED_UNIT( #68 )SI_UNIT( .MILLI., .METRE. ) );
#123 = SURFACE_SIDE_STYLE( '', ( #164 ) );
#124 = EDGE_LOOP( '', ( #165, #166 ) );
#125 = AXIS2_PLACEMENT_3D( '', #167, #168, #169 );
#126 = SURFACE_SIDE_STYLE( '', ( #170 ) );
#127 = EDGE_LOOP( '', ( #171, #172, #173, #174, #175, #176 ) );
#128 = AXIS2_PLACEMENT_3D( '', #177, #178, #179 );
#129 = SURFACE_SIDE_STYLE( '', ( #180 ) );
#130 = EDGE_LOOP( '', ( #181, #182, #183, #184 ) );
#131 = AXIS2_PLACEMENT_3D( '', #185, #186, #187 );
#132 = SURFACE_SIDE_STYLE( '', ( #188 ) );
#133 = EDGE_LOOP( '', ( #189, #190, #191, #192, #193, #194 ) );
#134 = AXIS2_PLACEMENT_3D( '', #195, #196, #197 );
#135 = SURFACE_SIDE_STYLE( '', ( #198 ) );
#136 = EDGE_LOOP( '', ( #199, #200, #201, #202 ) );
#137 = AXIS2_PLACEMENT_3D( '', #203, #204, #205 );
#138 = SURFACE_SIDE_STYLE( '', ( #206 ) );
#139 = EDGE_LOOP( '', ( #207, #208 ) );
#140 = AXIS2_PLACEMENT_3D( '', #209, #210, #211 );
#141 = SURFACE_SIDE_STYLE( '', ( #212 ) );
#142 = EDGE_LOOP( '', ( #213 ) );
#143 = EDGE_LOOP( '', ( #214 ) );
#144 = AXIS2_PLACEMENT_3D( '', #215, #216, #217 );
#145 = SURFACE_SIDE_STYLE( '', ( #218 ) );
#146 = EDGE_LOOP( '', ( #219 ) );
#147 = EDGE_LOOP( '', ( #220 ) );
#148 = AXIS2_PLACEMENT_3D( '', #221, #222, #223 );
#149 = SURFACE_SIDE_STYLE( '', ( #224 ) );
#150 = EDGE_LOOP( '', ( #225 ) );
#151 = EDGE_LOOP( '', ( #226, #227, #228, #229, #230, #231, #232, #233 ) );
#152 = AXIS2_PLACEMENT_3D( '', #234, #235, #236 );
#153 = SURFACE_SIDE_STYLE( '', ( #237 ) );
#154 = EDGE_LOOP( '', ( #238 ) );
#155 = EDGE_LOOP( '', ( #239 ) );
#156 = AXIS2_PLACEMENT_3D( '', #240, #241, #242 );
#157 = SURFACE_SIDE_STYLE( '', ( #243 ) );
#158 = EDGE_LOOP( '', ( #244 ) );
#159 = AXIS2_PLACEMENT_3D( '', #245, #246, #247 );
#160 = SURFACE_SIDE_STYLE( '', ( #248 ) );
#161 = EDGE_LOOP( '', ( #249, #250, #251, #252 ) );
#162 = AXIS2_PLACEMENT_3D( '', #253, #254, #255 );
#164 = SURFACE_STYLE_FILL_AREA( #256 );
#165 = ORIENTED_EDGE( '', *, *, #257, .T. );
#166 = ORIENTED_EDGE( '', *, *, #258, .T. );
#167 = CARTESIAN_POINT( '', ( 0.000000000000000, 0.000000000000000, 24.5000000000000 ) );
#168 = DIRECTION( '', ( 0.000000000000000, 0.000000000000000, 1.00000000000000 ) );
#169 = DIRECTION( '', ( 1.00000000000000, 0.000000000000000, 0.000000000000000 ) );
#170 = SURFACE_STYLE_FILL_AREA( #259 );
#171 = ORIENTED_EDGE( '', *, *, #260, .T. );
#172 = ORIENTED_EDGE( '', *, *, #261, .T. );
#173 = ORIENTED_EDGE( '', *, *, #262, .F. );
#174 = ORIENTED_EDGE( '', *, *, #263, .F. );
#175 = ORIENTED_EDGE( '', *, *, #264, .F. );
#176 = ORIENTED_EDGE( '', *, *, #265, .T. );
#177 = CARTESIAN_POINT( '', ( 0.750000000000000, -10.0000000000000, 22.5000000000000 ) );
#178 = DIRECTION( '', ( -1.00000000000000, 0.000000000000000, 5.42101086242752E-017 ) );
#179 = DIRECTION( '', ( 5.42101086242752E-017, 0.000000000000000, 1.00000000000000 ) );
#180 = SURFACE_STYLE_FILL_AREA( #266 );
#181 = ORIENTED_EDGE( '', *, *, #265, .F. );
#182 = ORIENTED_EDGE( '', *, *, #267, .F. );
#183 = ORIENTED_EDGE( '', *, *, #261, .F. );
#184 = ORIENTED_EDGE( '', *, *, #268, .F. );
#185 = CARTESIAN_POINT( '', ( 0.000000000000000, 0.000000000000000, 24.5000000000000 ) );
#186 = DIRECTION( '', ( -0.000000000000000, 0.000000000000000, -1.00000000000000 ) );
#187 = DIRECTION( '', ( -1.00000000000000, 0.000000000000000, 0.000000000000000 ) );
#188 = SURFACE_STYLE_FILL_AREA( #269 );
#189 = ORIENTED_EDGE( '', *, *, #257, .F. );
#190 = ORIENTED_EDGE( '', *, *, #270, .T. );
#191 = ORIENTED_EDGE( '', *, *, #271, .F. );
#192 = ORIENTED_EDGE( '', *, *, #272, .T. );
#193 = ORIENTED_EDGE( '', *, *, #273, .F. );
#194 = ORIENTED_EDGE( '', *, *, #274, .T. );
#195 = CARTESIAN_POINT( '', ( -0.750000000000000, -10.0000000000000, 24.5000000000000 ) );
#196 = DIRECTION( '', ( 1.00000000000000, 0.000000000000000, 5.42101086242752E-017 ) );
#197 = DIRECTION( '', ( 5.42101086242752E-017, 0.000000000000000, -1.00000000000000 ) );
#198 = SURFACE_STYLE_FILL_AREA( #275 );
#199 = ORIENTED_EDGE( '', *, *, #274, .F. );
#200 = ORIENTED_EDGE( '', *, *, #276, .F. );
#201 = ORIENTED_EDGE( '', *, *, #270, .F. );
#202 = ORIENTED_EDGE( '', *, *, #258, .F. );
#203 = CARTESIAN_POINT( '', ( 0.000000000000000, 0.000000000000000, 24.5000000000000 ) );
#204 = DIRECTION( '', ( -0.000000000000000, 0.000000000000000, -1.00000000000000 ) );
#205 = DIRECTION( '', ( -1.00000000000000, 0.000000000000000, 0.000000000000000 ) );
#206 = SURFACE_STYLE_FILL_AREA( #277 );
#207 = ORIENTED_EDGE( '', *, *, #260, .F. );
#208 = ORIENTED_EDGE( '', *, *, #268, .T. );
#209 = CARTESIAN_POINT( '', ( 0.000000000000000, 0.000000000000000, 24.5000000000000 ) );
#210 = DIRECTION( '', ( 0.000000000000000, 0.000000000000000, 1.00000000000000 ) );
#211 = DIRECTION( '', ( 1.00000000000000, 0.000000000000000, 0.000000000000000 ) );
#212 = SURFACE_STYLE_FILL_AREA( #278 );
#213 = ORIENTED_EDGE( '', *, *, #279, .T. );
#214 = ORIENTED_EDGE( '', *, *, #280, .F. );
#215 = CARTESIAN_POINT( '', ( 3.70809924354783, 0.000000000000000, 2.50000000000000 ) );
#216 = DIRECTION( '', ( 0.000000000000000, 0.000000000000000, -1.00000000000000 ) );
#217 = DIRECTION( '', ( -1.00000000000000, 0.000000000000000, 0.000000000000000 ) );
#218 = SURFACE_STYLE_FILL_AREA( #281 );
#219 = ORIENTED_EDGE( '', *, *, #280, .T. );
#220 = ORIENTED_EDGE( '', *, *, #282, .F. );
#221 = CARTESIAN_POINT( '', ( 0.000000000000000, 0.000000000000000, 57.1500000000000 ) );
#222 = DIRECTION( '', ( -0.000000000000000, -0.000000000000000, -1.00000000000000 ) );
#223 = DIRECTION( '', ( 1.00000000000000, 0.000000000000000, 0.000000000000000 ) );
#224 = SURFACE_STYLE_FILL_AREA( #283 );
#225 = ORIENTED_EDGE( '', *, *, #284, .T. );
#226 = ORIENTED_EDGE( '', *, *, #271, .T. );
#227 = ORIENTED_EDGE( '', *, *, #276, .T. );
#228 = ORIENTED_EDGE( '', *, *, #273, .T. );
#229 = ORIENTED_EDGE( '', *, *, #285, .T. );
#230 = ORIENTED_EDGE( '', *, *, #262, .T. );
#231 = ORIENTED_EDGE( '', *, *, #267, .T. );
#232 = ORIENTED_EDGE( '', *, *, #264, .T. );
#233 = ORIENTED_EDGE( '', *, *, #286, .T. );
#234 = CARTESIAN_POINT( '', ( 0.000000000000000, 0.000000000000000, 57.1500000000000 ) );
#235 = DIRECTION( '', ( -0.000000000000000, -0.000000000000000, -1.00000000000000 ) );
#236 = DIRECTION( '', ( 1.00000000000000, 0.000000000000000, 0.000000000000000 ) );
#237 = SURFACE_STYLE_FILL_AREA( #287 );
#238 = ORIENTED_EDGE( '', *, *, #282, .T. );
#239 = ORIENTED_EDGE( '', *, *, #284, .F. );
#240 = CARTESIAN_POINT( '', ( 0.000000000000000, 0.000000000000000, 4.00000000000000 ) );
#241 = DIRECTION( '', ( -0.000000000000000, -0.000000000000000, 1.00000000000000 ) );
#242 = DIRECTION( '', ( 1.00000000000000, 0.000000000000000, 0.000000000000000 ) );
#243 = SURFACE_STYLE_FILL_AREA( #288 );
#244 = ORIENTED_EDGE( '', *, *, #279, .F. );
#245 = CARTESIAN_POINT( '', ( 0.000000000000000, 0.000000000000000, 4.00000000000000 ) );
#246 = DIRECTION( '', ( 0.000000000000000, 0.000000000000000, 1.00000000000000 ) );
#247 = DIRECTION( '', ( 1.00000000000000, 0.000000000000000, 0.000000000000000 ) );
#248 = SURFACE_STYLE_FILL_AREA( #289 );
#249 = ORIENTED_EDGE( '', *, *, #263, .T. );
#250 = ORIENTED_EDGE( '', *, *, #285, .F. );
#251 = ORIENTED_EDGE( '', *, *, #272, .F. );
#252 = ORIENTED_EDGE( '', *, *, #286, .F. );
#253 = CARTESIAN_POINT( '', ( -0.750000000000000, -10.0000000000000, 22.5000000000000 ) );
#254 = DIRECTION( '', ( 0.000000000000000, 0.000000000000000, 1.00000000000000 ) );
#255 = DIRECTION( '', ( 1.00000000000000, 0.000000000000000, 0.000000000000000 ) );
#256 = FILL_AREA_STYLE( '', ( #290 ) );
#257 = EDGE_CURVE( '', #291, #292, #293, .T. );
#258 = EDGE_CURVE( '', #292, #291, #294, .T. );
#259 = FILL_AREA_STYLE( '', ( #295 ) );
#260 = EDGE_CURVE( '', #296, #297, #298, .T. );
#261 = EDGE_CURVE( '', #297, #299, #300, .T. );
#262 = EDGE_CURVE( '', #301, #299, #302, .T. );
#263 = EDGE_CURVE( '', #303, #301, #304, .T. );
#264 = EDGE_CURVE( '', #305, #303, #306, .F. );
#265 = EDGE_CURVE( '', #305, #296, #307, .T. );
#266 = FILL_AREA_STYLE( '', ( #308 ) );
#267 = EDGE_CURVE( '', #299, #305, #309, .F. );
#268 = EDGE_CURVE( '', #296, #297, #310, .T. );
#269 = FILL_AREA_STYLE( '', ( #311 ) );
#270 = EDGE_CURVE( '', #291, #312, #313, .T. );
#271 = EDGE_CURVE( '', #314, #312, #315, .T. );
#272 = EDGE_CURVE( '', #314, #316, #317, .T. );
#273 = EDGE_CURVE( '', #318, #316, #319, .F. );
#274 = EDGE_CURVE( '', #318, #292, #320, .T. );
#275 = FILL_AREA_STYLE( '', ( #321 ) );
#276 = EDGE_CURVE( '', #312, #318, #322, .F. );
#277 = FILL_AREA_STYLE( '', ( #323 ) );
#278 = FILL_AREA_STYLE( '', ( #324 ) );
#279 = EDGE_CURVE( '', #325, #325, #326, .T. );
#280 = EDGE_CURVE( '', #327, #327, #328, .T. );
#281 = FILL_AREA_STYLE( '', ( #329 ) );
#282 = EDGE_CURVE( '', #330, #330, #331, .T. );
#283 = FILL_AREA_STYLE( '', ( #332 ) );
#284 = EDGE_CURVE( '', #333, #333, #334, .T. );
#285 = EDGE_CURVE( '', #316, #301, #335, .F. );
#286 = EDGE_CURVE( '', #303, #314, #336, .F. );
#287 = FILL_AREA_STYLE( '', ( #337 ) );
#288 = FILL_AREA_STYLE( '', ( #338 ) );
#289 = FILL_AREA_STYLE( '', ( #339 ) );
#290 = FILL_AREA_STYLE_COLOUR( '', #340 );
#291 = VERTEX_POINT( '', #341 );
#292 = VERTEX_POINT( '', #342 );
#293 = LINE( '', #343, #344 );
#294 = CIRCLE( '', #345, 5.00000000000000 );
#295 = FILL_AREA_STYLE_COLOUR( '', #346 );
#296 = VERTEX_POINT( '', #347 );
#297 = VERTEX_POINT( '', #348 );
#298 = LINE( '', #349, #350 );
#299 = VERTEX_POINT( '', #351 );
#300 = B_SPLINE_CURVE_WITH_KNOTS( '', 3, ( #352, #353, #354, #355 ), .UNSPECIFIED., .F., .F., ( 4, 4 ), ( 0.000000000000000, 0.00142095439128866 ), .UNSPECIFIED. );
#301 = VERTEX_POINT( '', #356 );
#302 = LINE( '', #357, #358 );
#303 = VERTEX_POINT( '', #359 );
#304 = LINE( '', #360, #361 );
#305 = VERTEX_POINT( '', #362 );
#306 = LINE( '', #363, #364 );
#307 = B_SPLINE_CURVE_WITH_KNOTS( '', 3, ( #365, #366, #367, #368 ), .UNSPECIFIED., .F., .F., ( 4, 4 ), ( 0.000000000000000, 0.00142095439128866 ), .UNSPECIFIED. );
#308 = FILL_AREA_STYLE_COLOUR( '', #369 );
#309 = CIRCLE( '', #370, 6.00000000000000 );
#310 = CIRCLE( '', #371, 5.00000000000000 );
#311 = FILL_AREA_STYLE_COLOUR( '', #372 );
#312 = VERTEX_POINT( '', #373 );
#313 = B_SPLINE_CURVE_WITH_KNOTS( '', 3, ( #374, #375, #376, #377 ), .UNSPECIFIED., .F., .F., ( 4, 4 ), ( 0.000000000000000, 0.00142095439128866 ), .UNSPECIFIED. );
#314 = VERTEX_POINT( '', #378 );
#315 = LINE( '', #379, #380 );
#316 = VERTEX_POINT( '', #381 );
#317 = LINE( '', #382, #383 );
#318 = VERTEX_POINT( '', #384 );
#319 = LINE( '', #385, #386 );
#320 = B_SPLINE_CURVE_WITH_KNOTS( '', 3, ( #387, #388, #389, #390 ), .UNSPECIFIED., .F., .F., ( 4, 4 ), ( 0.000000000000000, 0.00142095439128866 ), .UNSPECIFIED. );
#321 = FILL_AREA_STYLE_COLOUR( '', #391 );
#322 = CIRCLE( '', #392, 6.00000000000000 );
#323 = FILL_AREA_STYLE_COLOUR( '', #393 );
#324 = FILL_AREA_STYLE_COLOUR( '', #394 );
#325 = VERTEX_POINT( '', #395 );
#326 = CIRCLE( '', #396, 3.70809924354783 );
#327 = VERTEX_POINT( '', #397 );
#328 = CIRCLE( '', #398, 5.50000000000000 );
#329 = FILL_AREA_STYLE_COLOUR( '', #399 );
#330 = VERTEX_POINT( '', #400 );
#331 = CIRCLE( '', #401, 5.50000000000000 );
#332 = FILL_AREA_STYLE_COLOUR( '', #402 );
#333 = VERTEX_POINT( '', #403 );
#334 = CIRCLE( '', #404, 6.00000000000000 );
#335 = CIRCLE( '', #405, 6.00000000000000 );
#336 = CIRCLE( '', #406, 6.00000000000000 );
#337 = FILL_AREA_STYLE_COLOUR( '', #407 );
#338 = FILL_AREA_STYLE_COLOUR( '', #408 );
#339 = FILL_AREA_STYLE_COLOUR( '', #409 );
#340 = COLOUR_RGB( '', 0.800000011920929, 0.800000011920929, 0.800000011920929 );
#341 = CARTESIAN_POINT( '', ( -0.750000000000000, -4.94342998332130, 24.5000000000000 ) );
#342 = CARTESIAN_POINT( '', ( -0.750000000000000, 4.94342998332130, 24.5000000000000 ) );
#343 = CARTESIAN_POINT( '', ( -0.750000000000000, -10.0000000000000, 24.5000000000000 ) );
#344 = VECTOR( '', #410, 1000.00000000000 );
#345 = AXIS2_PLACEMENT_3D( '', #411, #412, #413 );
#346 = COLOUR_RGB( '', 0.800000011920929, 0.800000011920929, 0.800000011920929 );
#347 = CARTESIAN_POINT( '', ( 0.750000000000000, -4.94342998332130, 24.5000000000000 ) );
#348 = CARTESIAN_POINT( '', ( 0.750000000000000, 4.94342998332130, 24.5000000000000 ) );
#349 = CARTESIAN_POINT( '', ( 0.750000000000000, -10.0000000000000, 24.5000000000000 ) );
#350 = VECTOR( '', #414, 1000.00000000000 );
#351 = CARTESIAN_POINT( '', ( 0.750000000000000, 5.95294044989533, 23.5000000000000 ) );
#352 = CARTESIAN_POINT( '', ( 0.750000000000000, 4.94342998332130, 24.5000000000000 ) );
#353 = CARTESIAN_POINT( '', ( 0.750000000000000, 5.28025212865203, 24.1669886615451 ) );
#354 = CARTESIAN_POINT( '', ( 0.750000000000000, 5.61670228224376, 23.8336009648353 ) );
#355 = CARTESIAN_POINT( '', ( 0.750000000000000, 5.95294044989533, 23.5000000000000 ) );
#356 = CARTESIAN_POINT( '', ( 0.750000000000000, 5.95294044989533, 22.5000000000000 ) );
#357 = CARTESIAN_POINT( '', ( 0.750000000000000, 5.95294044989533, 57.1500000000000 ) );
#358 = VECTOR( '', #415, 1000.00000000000 );
#359 = CARTESIAN_POINT( '', ( 0.750000000000000, -5.95294044989533, 22.5000000000000 ) );
#360 = CARTESIAN_POINT( '', ( 0.750000000000000, -10.0000000000000, 22.5000000000000 ) );
#361 = VECTOR( '', #416, 1000.00000000000 );
#362 = CARTESIAN_POINT( '', ( 0.750000000000000, -5.95294044989533, 23.5000000000000 ) );
#363 = CARTESIAN_POINT( '', ( 0.750000000000000, -5.95294044989533, 57.1500000000000 ) );
#364 = VECTOR( '', #417, 1000.00000000000 );
#365 = CARTESIAN_POINT( '', ( 0.750000000000000, -5.95294044989533, 23.5000000000000 ) );
#366 = CARTESIAN_POINT( '', ( 0.750000000000000, -5.61670228224376, 23.8336009648353 ) );
#367 = CARTESIAN_POINT( '', ( 0.750000000000000, -5.28025212865203, 24.1669886615451 ) );
#368 = CARTESIAN_POINT( '', ( 0.750000000000000, -4.94342998332130, 24.5000000000000 ) );
#369 = COLOUR_RGB( '', 0.800000011920929, 0.800000011920929, 0.800000011920929 );
#370 = AXIS2_PLACEMENT_3D( '', #418, #419, #420 );
#371 = AXIS2_PLACEMENT_3D( '', #421, #422, #423 );
#372 = COLOUR_RGB( '', 0.800000011920929, 0.800000011920929, 0.800000011920929 );
#373 = CARTESIAN_POINT( '', ( -0.750000000000000, -5.95294044989533, 23.5000000000000 ) );
#374 = CARTESIAN_POINT( '', ( -0.750000000000000, -4.94342998332130, 24.5000000000000 ) );
#375 = CARTESIAN_POINT( '', ( -0.750000000000000, -5.28025212865203, 24.1669886615451 ) );
#376 = CARTESIAN_POINT( '', ( -0.750000000000000, -5.61670228224376, 23.8336009648353 ) );
#377 = CARTESIAN_POINT( '', ( -0.750000000000000, -5.95294044989533, 23.5000000000000 ) );
#378 = CARTESIAN_POINT( '', ( -0.750000000000000, -5.95294044989533, 22.5000000000000 ) );
#379 = CARTESIAN_POINT( '', ( -0.750000000000000, -5.95294044989533, 57.1500000000000 ) );
#380 = VECTOR( '', #424, 1000.00000000000 );
#381 = CARTESIAN_POINT( '', ( -0.750000000000000, 5.95294044989533, 22.5000000000000 ) );
#382 = CARTESIAN_POINT( '', ( -0.750000000000000, -10.0000000000000, 22.5000000000000 ) );
#383 = VECTOR( '', #425, 1000.00000000000 );
#384 = CARTESIAN_POINT( '', ( -0.750000000000000, 5.95294044989533, 23.5000000000000 ) );
#385 = CARTESIAN_POINT( '', ( -0.750000000000000, 5.95294044989533, 57.1500000000000 ) );
#386 = VECTOR( '', #426, 1000.00000000000 );
#387 = CARTESIAN_POINT( '', ( -0.750000000000000, 5.95294044989533, 23.5000000000000 ) );
#388 = CARTESIAN_POINT( '', ( -0.750000000000000, 5.61670228224376, 23.8336009648353 ) );
#389 = CARTESIAN_POINT( '', ( -0.750000000000000, 5.28025212865203, 24.1669886615451 ) );
#390 = CARTESIAN_POINT( '', ( -0.750000000000000, 4.94342998332130, 24.5000000000000 ) );
#391 = COLOUR_RGB( '', 0.800000011920929, 0.800000011920929, 0.800000011920929 );
#392 = AXIS2_PLACEMENT_3D( '', #427, #428, #429 );
#393 = COLOUR_RGB( '', 0.800000011920929, 0.800000011920929, 0.800000011920929 );
#394 = COLOUR_RGB( '', 0.800000011920929, 0.800000011920929, 0.800000011920929 );
#395 = CARTESIAN_POINT( '', ( 3.70809924354783, 0.000000000000000, 2.50000000000000 ) );
#396 = AXIS2_PLACEMENT_3D( '', #430, #431, #432 );
#397 = CARTESIAN_POINT( '', ( 5.50000000000000, 0.000000000000000, 2.50000000000000 ) );
#398 = AXIS2_PLACEMENT_3D( '', #433, #434, #435 );
#399 = COLOUR_RGB( '', 0.800000011920929, 0.800000011920929, 0.800000011920929 );
#400 = CARTESIAN_POINT( '', ( 5.50000000000000, 0.000000000000000, 3.50000000000000 ) );
#401 = AXIS2_PLACEMENT_3D( '', #436, #437, #438 );
#402 = COLOUR_RGB( '', 0.752941191196442, 0.752941191196442, 0.752941191196442 );
#403 = CARTESIAN_POINT( '', ( 6.00000000000000, 0.000000000000000, 4.00000000000000 ) );
#404 = AXIS2_PLACEMENT_3D( '', #439, #440, #441 );
#405 = AXIS2_PLACEMENT_3D( '', #442, #443, #444 );
#406 = AXIS2_PLACEMENT_3D( '', #445, #446, #447 );
#407 = COLOUR_RGB( '', 0.800000011920929, 0.800000011920929, 0.800000011920929 );
#408 = COLOUR_RGB( '', 0.800000011920929, 0.800000011920929, 0.800000011920929 );
#409 = COLOUR_RGB( '', 0.800000011920929, 0.800000011920929, 0.800000011920929 );
#410 = DIRECTION( '', ( 0.000000000000000, 1.00000000000000, 0.000000000000000 ) );
#411 = CARTESIAN_POINT( '', ( 0.000000000000000, 0.000000000000000, 24.5000000000000 ) );
#412 = DIRECTION( '', ( 0.000000000000000, 0.000000000000000, 1.00000000000000 ) );
#413 = DIRECTION( '', ( 1.00000000000000, 0.000000000000000, 0.000000000000000 ) );
#414 = DIRECTION( '', ( 0.000000000000000, 1.00000000000000, 0.000000000000000 ) );
#415 = DIRECTION( '', ( 0.000000000000000, 0.000000000000000, 1.00000000000000 ) );
#416 = DIRECTION( '', ( 0.000000000000000, 1.00000000000000, 0.000000000000000 ) );
#417 = DIRECTION( '', ( 0.000000000000000, 0.000000000000000, 1.00000000000000 ) );
#418 = CARTESIAN_POINT( '', ( 0.000000000000000, 0.000000000000000, 23.5000000000000 ) );
#419 = DIRECTION( '', ( 0.000000000000000, 0.000000000000000, 1.00000000000000 ) );
#420 = DIRECTION( '', ( 1.00000000000000, 0.000000000000000, 0.000000000000000 ) );
#421 = CARTESIAN_POINT( '', ( 0.000000000000000, 0.000000000000000, 24.5000000000000 ) );
#422 = DIRECTION( '', ( 0.000000000000000, 0.000000000000000, 1.00000000000000 ) );
#423 = DIRECTION( '', ( 1.00000000000000, 0.000000000000000, 0.000000000000000 ) );
#424 = DIRECTION( '', ( 0.000000000000000, 0.000000000000000, 1.00000000000000 ) );
#425 = DIRECTION( '', ( 0.000000000000000, 1.00000000000000, 0.000000000000000 ) );
#426 = DIRECTION( '', ( 0.000000000000000, 0.000000000000000, 1.00000000000000 ) );
#427 = CARTESIAN_POINT( '', ( 0.000000000000000, 0.000000000000000, 23.5000000000000 ) );
#428 = DIRECTION( '', ( 0.000000000000000, 0.000000000000000, 1.00000000000000 ) );
#429 = DIRECTION( '', ( 1.00000000000000, 0.000000000000000, 0.000000000000000 ) );
#430 = CARTESIAN_POINT( '', ( 0.000000000000000, 0.000000000000000, 2.50000000000000 ) );
#431 = DIRECTION( '', ( 0.000000000000000, 0.000000000000000, 1.00000000000000 ) );
#432 = DIRECTION( '', ( 1.00000000000000, 0.000000000000000, 0.000000000000000 ) );
#433 = CARTESIAN_POINT( '', ( 0.000000000000000, 0.000000000000000, 2.50000000000000 ) );
#434 = DIRECTION( '', ( 0.000000000000000, 0.000000000000000, 1.00000000000000 ) );
#435 = DIRECTION( '', ( 1.00000000000000, 0.000000000000000, 0.000000000000000 ) );
#436 = CARTESIAN_POINT( '', ( 0.000000000000000, 0.000000000000000, 3.50000000000000 ) );
#437 = DIRECTION( '', ( 0.000000000000000, 0.000000000000000, 1.00000000000000 ) );
#438 = DIRECTION( '', ( 1.00000000000000, 0.000000000000000, 0.000000000000000 ) );
#439 = CARTESIAN_POINT( '', ( 0.000000000000000, 0.000000000000000, 4.00000000000000 ) );
#440 = DIRECTION( '', ( 0.000000000000000, 0.000000000000000, 1.00000000000000 ) );
#441 = DIRECTION( '', ( 1.00000000000000, 0.000000000000000, 0.000000000000000 ) );
#442 = CARTESIAN_POINT( '', ( 0.000000000000000, 0.000000000000000, 22.5000000000000 ) );
#443 = DIRECTION( '', ( 0.000000000000000, 0.000000000000000, 1.00000000000000 ) );
#444 = DIRECTION( '', ( 1.00000000000000, 0.000000000000000, 0.000000000000000 ) );
#445 = CARTESIAN_POINT( '', ( 0.000000000000000, 0.000000000000000, 22.5000000000000 ) );
#446 = DIRECTION( '', ( 0.000000000000000, 0.000000000000000, 1.00000000000000 ) );
#447 = DIRECTION( '', ( 1.00000000000000, 0.000000000000000, 0.000000000000000 ) );
ENDSEC;
END-ISO-10303-21;
