ISO-10303-21;
HEADER;
FILE_DESCRIPTION( ( 'Unknown' ), '1' );
FILE_NAME( '//SBS2003/HD_Usb/Disegni/08_LIB/Users_3D/PROD_GAMM_3D/APS-I/7747545_APS_30_I.stp', 'Unknown', ( 'Unknown' ), ( 'Unknown' ), 'PSStep 14.0', 'Unknown', '  ' );
FILE_SCHEMA( ( 'AUTOMOTIVE_DESIGN { 1 0 10303 214 1 1 1 1 }' ) );
ENDSEC;
DATA;
#1 = MECHANICAL_DESIGN_GEOMETRIC_PRESENTATION_REPRESENTATION( ' ', ( #10, #11, #12, #13, #14, #15, #16, #17, #18, #19, #20, #21 ), #6 );
#2 = PRODUCT_DEFINITION_CONTEXT( '', #22, 'design' );
#3 = APPLICATION_PROTOCOL_DEFINITION( 'international standard', 'automotive_design', 2001, #22 );
#4 = PRODUCT_CATEGORY_RELATIONSHIP( 'NONE', 'NONE', #23, #24 );
#5 = SHAPE_DEFINITION_REPRESENTATION( #25, #26 );
#6 =  ( GEOMETRIC_REPRESENTATION_CONTEXT( 3 )GLOBAL_UNCERTAINTY_ASSIGNED_CONTEXT( ( #29 ) )GLOBAL_UNIT_ASSIGNED_CONTEXT( ( #31, #32, #33 ) )REPRESENTATION_CONTEXT( 'NONE', 'WORKSPACE' ) );
#10 = STYLED_ITEM( '', ( #35 ), #36 );
#11 = STYLED_ITEM( '', ( #37 ), #38 );
#12 = STYLED_ITEM( '', ( #39 ), #40 );
#13 = STYLED_ITEM( '', ( #41 ), #42 );
#14 = STYLED_ITEM( '', ( #43 ), #44 );
#15 = STYLED_ITEM( '', ( #45 ), #46 );
#16 = STYLED_ITEM( '', ( #47 ), #48 );
#17 = STYLED_ITEM( '', ( #49 ), #50 );
#18 = STYLED_ITEM( '', ( #51 ), #52 );
#19 = STYLED_ITEM( '', ( #53 ), #54 );
#20 = STYLED_ITEM( '', ( #55 ), #56 );
#21 = STYLED_ITEM( '', ( #57 ), #58 );
#22 = APPLICATION_CONTEXT( 'core data for automotive mechanical design processes' );
#23 = PRODUCT_CATEGORY( 'part', 'NONE' );
#24 = PRODUCT_RELATED_PRODUCT_CATEGORY( 'detail', ' ', ( #59 ) );
#25 = PRODUCT_DEFINITION_SHAPE( 'NONE', 'NONE', #60 );
#26 = ADVANCED_BREP_SHAPE_REPRESENTATION( '1', ( #61, #62 ), #6 );
#29 = UNCERTAINTY_MEASURE_WITH_UNIT( LENGTH_MEASURE( 0.00100000000000000 ), #31, '', '' );
#31 =  ( CONVERSION_BASED_UNIT( 'MILLIMETRE', #65 )LENGTH_UNIT(  )NAMED_UNIT( #68 ) );
#32 =  ( NAMED_UNIT( #70 )PLANE_ANGLE_UNIT(  )SI_UNIT( $, .RADIAN. ) );
#33 =  ( NAMED_UNIT( #70 )SI_UNIT( $, .STERADIAN. )SOLID_ANGLE_UNIT(  ) );
#35 = PRESENTATION_STYLE_ASSIGNMENT( ( #76 ) );
#36 = ADVANCED_FACE( '', ( #77 ), #78, .T. );
#37 = PRESENTATION_STYLE_ASSIGNMENT( ( #79 ) );
#38 = ADVANCED_FACE( '', ( #80, #81 ), #82, .T. );
#39 = PRESENTATION_STYLE_ASSIGNMENT( ( #83 ) );
#40 = ADVANCED_FACE( '', ( #84 ), #85, .T. );
#41 = PRESENTATION_STYLE_ASSIGNMENT( ( #86 ) );
#42 = ADVANCED_FACE( '', ( #87 ), #88, .T. );
#43 = PRESENTATION_STYLE_ASSIGNMENT( ( #89 ) );
#44 = ADVANCED_FACE( '', ( #90 ), #91, .T. );
#45 = PRESENTATION_STYLE_ASSIGNMENT( ( #92 ) );
#46 = ADVANCED_FACE( '', ( #93 ), #94, .T. );
#47 = PRESENTATION_STYLE_ASSIGNMENT( ( #95 ) );
#48 = ADVANCED_FACE( '', ( #96, #97 ), #98, .T. );
#49 = PRESENTATION_STYLE_ASSIGNMENT( ( #99 ) );
#50 = ADVANCED_FACE( '', ( #100 ), #101, .T. );
#51 = PRESENTATION_STYLE_ASSIGNMENT( ( #102 ) );
#52 = ADVANCED_FACE( '', ( #103, #104 ), #105, .T. );
#53 = PRESENTATION_STYLE_ASSIGNMENT( ( #106 ) );
#54 = ADVANCED_FACE( '', ( #107 ), #108, .T. );
#55 = PRESENTATION_STYLE_ASSIGNMENT( ( #109 ) );
#56 = ADVANCED_FACE( '', ( #110, #111 ), #112, .T. );
#57 = PRESENTATION_STYLE_ASSIGNMENT( ( #113 ) );
#58 = ADVANCED_FACE( '', ( #114 ), #115, .T. );
#59 = PRODUCT( '1', '1', 'PART-1-DESC', ( #116 ) );
#60 = PRODUCT_DEFINITION( 'NONE', 'NONE', #117, #2 );
#61 = MANIFOLD_SOLID_BREP( '1', #118 );
#62 = AXIS2_PLACEMENT_3D( '', #119, #120, #121 );
#65 = LENGTH_MEASURE_WITH_UNIT( LENGTH_MEASURE( 1.00000000000000 ), #122 );
#68 = DIMENSIONAL_EXPONENTS( 1.00000000000000, 0.000000000000000, 0.000000000000000, 0.000000000000000, 0.000000000000000, 0.000000000000000, 0.000000000000000 );
#70 = DIMENSIONAL_EXPONENTS( 0.000000000000000, 0.000000000000000, 0.000000000000000, 0.000000000000000, 0.000000000000000, 0.000000000000000, 0.000000000000000 );
#76 = SURFACE_STYLE_USAGE( .BOTH., #123 );
#77 = FACE_OUTER_BOUND( '', #124, .T. );
#78 = PLANE( '', #125 );
#79 = SURFACE_STYLE_USAGE( .BOTH., #126 );
#80 = FACE_BOUND( '', #127, .T. );
#81 = FACE_OUTER_BOUND( '', #128, .T. );
#82 = PLANE( '', #129 );
#83 = SURFACE_STYLE_USAGE( .BOTH., #130 );
#84 = FACE_OUTER_BOUND( '', #131, .T. );
#85 = PLANE( '', #132 );
#86 = SURFACE_STYLE_USAGE( .BOTH., #133 );
#87 = FACE_OUTER_BOUND( '', #134, .T. );
#88 = CONICAL_SURFACE( '', #135, 9.00000000000000, 0.785398163397448 );
#89 = SURFACE_STYLE_USAGE( .BOTH., #136 );
#90 = FACE_OUTER_BOUND( '', #137, .T. );
#91 = SPHERICAL_SURFACE( '', #138, 6.00000000000000 );
#92 = SURFACE_STYLE_USAGE( .BOTH., #139 );
#93 = FACE_OUTER_BOUND( '', #140, .T. );
#94 = CONICAL_SURFACE( '', #141, 9.00000000000000, 0.785398163397448 );
#95 = SURFACE_STYLE_USAGE( .BOTH., #142 );
#96 = FACE_BOUND( '', #143, .T. );
#97 = FACE_OUTER_BOUND( '', #144, .T. );
#98 = CONICAL_SURFACE( '', #145, 10.0000000000000, 0.785398163397445 );
#99 = SURFACE_STYLE_USAGE( .BOTH., #146 );
#100 = FACE_OUTER_BOUND( '', #147, .T. );
#101 = PLANE( '', #148 );
#102 = SURFACE_STYLE_USAGE( .BOTH., #149 );
#103 = FACE_OUTER_BOUND( '', #150, .T. );
#104 = FACE_OUTER_BOUND( '', #151, .T. );
#105 = CYLINDRICAL_SURFACE( '', #152, 10.0000000000000 );
#106 = SURFACE_STYLE_USAGE( .BOTH., #153 );
#107 = FACE_OUTER_BOUND( '', #154, .T. );
#108 = PLANE( '', #155 );
#109 = SURFACE_STYLE_USAGE( .BOTH., #156 );
#110 = FACE_OUTER_BOUND( '', #157, .T. );
#111 = FACE_OUTER_BOUND( '', #158, .T. );
#112 = CYLINDRICAL_SURFACE( '', #159, 9.50000000000000 );
#113 = SURFACE_STYLE_USAGE( .BOTH., #160 );
#114 = FACE_OUTER_BOUND( '', #161, .T. );
#115 = PLANE( '', #162 );
#116 = PRODUCT_CONTEXT( '', #22, 'mechanical' );
#117 = PRODUCT_DEFINITION_FORMATION_WITH_SPECIFIED_SOURCE( ' ', 'NONE', #59, .NOT_KNOWN. );
#118 = CLOSED_SHELL( '', ( #58, #42, #52, #50, #54, #36, #46, #40, #48, #56, #38, #44 ) );
#119 = CARTESIAN_POINT( '', ( 0.000000000000000, 0.000000000000000, 0.000000000000000 ) );
#120 = DIRECTION( '', ( 0.000000000000000, 0.000000000000000, 1.00000000000000 ) );
#121 = DIRECTION( '', ( 1.00000000000000, 0.000000000000000, 0.000000000000000 ) );
#122 =  ( LENGTH_UNIT(  )NAMED_UNIT( #68 )SI_UNIT( .MILLI., .METRE. ) );
#123 = SURFACE_SIDE_STYLE( '', ( #164 ) );
#124 = EDGE_LOOP( '', ( #165, #166, #167, #168, #169, #170 ) );
#125 = AXIS2_PLACEMENT_3D( '', #171, #172, #173 );
#126 = SURFACE_SIDE_STYLE( '', ( #174 ) );
#127 = EDGE_LOOP( '', ( #175 ) );
#128 = EDGE_LOOP( '', ( #176 ) );
#129 = AXIS2_PLACEMENT_3D( '', #177, #178, #179 );
#130 = SURFACE_SIDE_STYLE( '', ( #180 ) );
#131 = EDGE_LOOP( '', ( #181, #182 ) );
#132 = AXIS2_PLACEMENT_3D( '', #183, #184, #185 );
#133 = SURFACE_SIDE_STYLE( '', ( #186 ) );
#134 = EDGE_LOOP( '', ( #187, #188, #189, #190 ) );
#135 = AXIS2_PLACEMENT_3D( '', #191, #192, #193 );
#136 = SURFACE_SIDE_STYLE( '', ( #194 ) );
#137 = EDGE_LOOP( '', ( #195 ) );
#138 = AXIS2_PLACEMENT_3D( '', #196, #197, #198 );
#139 = SURFACE_SIDE_STYLE( '', ( #199 ) );
#140 = EDGE_LOOP( '', ( #200, #201, #202, #203 ) );
#141 = AXIS2_PLACEMENT_3D( '', #204, #205, #206 );
#142 = SURFACE_SIDE_STYLE( '', ( #207 ) );
#143 = EDGE_LOOP( '', ( #208 ) );
#144 = EDGE_LOOP( '', ( #209 ) );
#145 = AXIS2_PLACEMENT_3D( '', #210, #211, #212 );
#146 = SURFACE_SIDE_STYLE( '', ( #213 ) );
#147 = EDGE_LOOP( '', ( #214, #215, #216, #217 ) );
#148 = AXIS2_PLACEMENT_3D( '', #218, #219, #220 );
#149 = SURFACE_SIDE_STYLE( '', ( #221 ) );
#150 = EDGE_LOOP( '', ( #222 ) );
#151 = EDGE_LOOP( '', ( #223, #224, #225, #226, #227, #228, #229, #230 ) );
#152 = AXIS2_PLACEMENT_3D( '', #231, #232, #233 );
#153 = SURFACE_SIDE_STYLE( '', ( #234 ) );
#154 = EDGE_LOOP( '', ( #235, #236, #237, #238, #239, #240 ) );
#155 = AXIS2_PLACEMENT_3D( '', #241, #242, #243 );
#156 = SURFACE_SIDE_STYLE( '', ( #244 ) );
#157 = EDGE_LOOP( '', ( #245 ) );
#158 = EDGE_LOOP( '', ( #246 ) );
#159 = AXIS2_PLACEMENT_3D( '', #247, #248, #249 );
#160 = SURFACE_SIDE_STYLE( '', ( #250 ) );
#161 = EDGE_LOOP( '', ( #251, #252 ) );
#162 = AXIS2_PLACEMENT_3D( '', #253, #254, #255 );
#164 = SURFACE_STYLE_FILL_AREA( #256 );
#165 = ORIENTED_EDGE( '', *, *, #257, .F. );
#166 = ORIENTED_EDGE( '', *, *, #258, .T. );
#167 = ORIENTED_EDGE( '', *, *, #259, .F. );
#168 = ORIENTED_EDGE( '', *, *, #260, .T. );
#169 = ORIENTED_EDGE( '', *, *, #261, .F. );
#170 = ORIENTED_EDGE( '', *, *, #262, .T. );
#171 = CARTESIAN_POINT( '', ( -1.25000000000000, -10.0000000000000, 34.5000000000000 ) );
#172 = DIRECTION( '', ( 1.00000000000000, 0.000000000000000, 2.16840434497100E-016 ) );
#173 = DIRECTION( '', ( 2.16840434497101E-016, 0.000000000000000, -1.00000000000000 ) );
#174 = SURFACE_STYLE_FILL_AREA( #263 );
#175 = ORIENTED_EDGE( '', *, *, #264, .T. );
#176 = ORIENTED_EDGE( '', *, *, #265, .F. );
#177 = CARTESIAN_POINT( '', ( 5.80947501931113, 0.000000000000000, 4.50000000000000 ) );
#178 = DIRECTION( '', ( 0.000000000000000, 0.000000000000000, -1.00000000000000 ) );
#179 = DIRECTION( '', ( -1.00000000000000, 0.000000000000000, 0.000000000000000 ) );
#180 = SURFACE_STYLE_FILL_AREA( #266 );
#181 = ORIENTED_EDGE( '', *, *, #267, .F. );
#182 = ORIENTED_EDGE( '', *, *, #268, .T. );
#183 = CARTESIAN_POINT( '', ( 0.000000000000000, 0.000000000000000, 34.5000000000000 ) );
#184 = DIRECTION( '', ( 0.000000000000000, 0.000000000000000, 1.00000000000000 ) );
#185 = DIRECTION( '', ( 1.00000000000000, 0.000000000000000, 0.000000000000000 ) );
#186 = SURFACE_STYLE_FILL_AREA( #269 );
#187 = ORIENTED_EDGE( '', *, *, #270, .F. );
#188 = ORIENTED_EDGE( '', *, *, #271, .F. );
#189 = ORIENTED_EDGE( '', *, *, #272, .F. );
#190 = ORIENTED_EDGE( '', *, *, #268, .F. );
#191 = CARTESIAN_POINT( '', ( 0.000000000000000, 0.000000000000000, 34.5000000000000 ) );
#192 = DIRECTION( '', ( -0.000000000000000, 0.000000000000000, -1.00000000000000 ) );
#193 = DIRECTION( '', ( -1.00000000000000, 0.000000000000000, 0.000000000000000 ) );
#194 = SURFACE_STYLE_FILL_AREA( #273 );
#195 = ORIENTED_EDGE( '', *, *, #264, .F. );
#196 = CARTESIAN_POINT( '', ( 0.000000000000000, 0.000000000000000, 6.00000000000000 ) );
#197 = DIRECTION( '', ( 0.000000000000000, 0.000000000000000, 1.00000000000000 ) );
#198 = DIRECTION( '', ( 1.00000000000000, 0.000000000000000, 0.000000000000000 ) );
#199 = SURFACE_STYLE_FILL_AREA( #274 );
#200 = ORIENTED_EDGE( '', *, *, #262, .F. );
#201 = ORIENTED_EDGE( '', *, *, #275, .F. );
#202 = ORIENTED_EDGE( '', *, *, #258, .F. );
#203 = ORIENTED_EDGE( '', *, *, #276, .F. );
#204 = CARTESIAN_POINT( '', ( 0.000000000000000, 0.000000000000000, 34.5000000000000 ) );
#205 = DIRECTION( '', ( -0.000000000000000, 0.000000000000000, -1.00000000000000 ) );
#206 = DIRECTION( '', ( -1.00000000000000, 0.000000000000000, 0.000000000000000 ) );
#207 = SURFACE_STYLE_FILL_AREA( #277 );
#208 = ORIENTED_EDGE( '', *, *, #278, .T. );
#209 = ORIENTED_EDGE( '', *, *, #279, .F. );
#210 = CARTESIAN_POINT( '', ( 0.000000000000000, 0.000000000000000, 7.00000000000000 ) );
#211 = DIRECTION( '', ( -0.000000000000000, -0.000000000000000, 1.00000000000000 ) );
#212 = DIRECTION( '', ( 1.00000000000000, 0.000000000000000, 0.000000000000000 ) );
#213 = SURFACE_STYLE_FILL_AREA( #280 );
#214 = ORIENTED_EDGE( '', *, *, #281, .T. );
#215 = ORIENTED_EDGE( '', *, *, #282, .F. );
#216 = ORIENTED_EDGE( '', *, *, #260, .F. );
#217 = ORIENTED_EDGE( '', *, *, #283, .F. );
#218 = CARTESIAN_POINT( '', ( -1.25000000000000, -10.0000000000000, 32.5000000000000 ) );
#219 = DIRECTION( '', ( 0.000000000000000, 0.000000000000000, 1.00000000000000 ) );
#220 = DIRECTION( '', ( 1.00000000000000, 0.000000000000000, 0.000000000000000 ) );
#221 = SURFACE_STYLE_FILL_AREA( #284 );
#222 = ORIENTED_EDGE( '', *, *, #279, .T. );
#223 = ORIENTED_EDGE( '', *, *, #259, .T. );
#224 = ORIENTED_EDGE( '', *, *, #275, .T. );
#225 = ORIENTED_EDGE( '', *, *, #261, .T. );
#226 = ORIENTED_EDGE( '', *, *, #282, .T. );
#227 = ORIENTED_EDGE( '', *, *, #285, .T. );
#228 = ORIENTED_EDGE( '', *, *, #271, .T. );
#229 = ORIENTED_EDGE( '', *, *, #286, .T. );
#230 = ORIENTED_EDGE( '', *, *, #283, .T. );
#231 = CARTESIAN_POINT( '', ( 0.000000000000000, 0.000000000000000, 57.1500000000000 ) );
#232 = DIRECTION( '', ( -0.000000000000000, -0.000000000000000, -1.00000000000000 ) );
#233 = DIRECTION( '', ( 1.00000000000000, 0.000000000000000, 0.000000000000000 ) );
#234 = SURFACE_STYLE_FILL_AREA( #287 );
#235 = ORIENTED_EDGE( '', *, *, #267, .T. );
#236 = ORIENTED_EDGE( '', *, *, #272, .T. );
#237 = ORIENTED_EDGE( '', *, *, #285, .F. );
#238 = ORIENTED_EDGE( '', *, *, #281, .F. );
#239 = ORIENTED_EDGE( '', *, *, #286, .F. );
#240 = ORIENTED_EDGE( '', *, *, #270, .T. );
#241 = CARTESIAN_POINT( '', ( 1.25000000000000, -10.0000000000000, 32.5000000000000 ) );
#242 = DIRECTION( '', ( -1.00000000000000, 0.000000000000000, 2.16840434497100E-016 ) );
#243 = DIRECTION( '', ( 2.16840434497101E-016, 0.000000000000000, 1.00000000000000 ) );
#244 = SURFACE_STYLE_FILL_AREA( #288 );
#245 = ORIENTED_EDGE( '', *, *, #265, .T. );
#246 = ORIENTED_EDGE( '', *, *, #278, .F. );
#247 = CARTESIAN_POINT( '', ( 0.000000000000000, 0.000000000000000, 57.1500000000000 ) );
#248 = DIRECTION( '', ( -0.000000000000000, -0.000000000000000, -1.00000000000000 ) );
#249 = DIRECTION( '', ( 1.00000000000000, 0.000000000000000, 0.000000000000000 ) );
#250 = SURFACE_STYLE_FILL_AREA( #289 );
#251 = ORIENTED_EDGE( '', *, *, #257, .T. );
#252 = ORIENTED_EDGE( '', *, *, #276, .T. );
#253 = CARTESIAN_POINT( '', ( 0.000000000000000, 0.000000000000000, 34.5000000000000 ) );
#254 = DIRECTION( '', ( 0.000000000000000, 0.000000000000000, 1.00000000000000 ) );
#255 = DIRECTION( '', ( 1.00000000000000, 0.000000000000000, 0.000000000000000 ) );
#256 = FILL_AREA_STYLE( '', ( #290 ) );
#257 = EDGE_CURVE( '', #291, #292, #293, .T. );
#258 = EDGE_CURVE( '', #291, #294, #295, .T. );
#259 = EDGE_CURVE( '', #296, #294, #297, .T. );
#260 = EDGE_CURVE( '', #296, #298, #299, .T. );
#261 = EDGE_CURVE( '', #300, #298, #301, .F. );
#262 = EDGE_CURVE( '', #300, #292, #302, .T. );
#263 = FILL_AREA_STYLE( '', ( #303 ) );
#264 = EDGE_CURVE( '', #304, #304, #305, .T. );
#265 = EDGE_CURVE( '', #306, #306, #307, .T. );
#266 = FILL_AREA_STYLE( '', ( #308 ) );
#267 = EDGE_CURVE( '', #309, #310, #311, .T. );
#268 = EDGE_CURVE( '', #309, #310, #312, .T. );
#269 = FILL_AREA_STYLE( '', ( #313 ) );
#270 = EDGE_CURVE( '', #314, #309, #315, .T. );
#271 = EDGE_CURVE( '', #316, #314, #317, .F. );
#272 = EDGE_CURVE( '', #310, #316, #318, .T. );
#273 = FILL_AREA_STYLE( '', ( #319 ) );
#274 = FILL_AREA_STYLE( '', ( #320 ) );
#275 = EDGE_CURVE( '', #294, #300, #321, .F. );
#276 = EDGE_CURVE( '', #292, #291, #322, .T. );
#277 = FILL_AREA_STYLE( '', ( #323 ) );
#278 = EDGE_CURVE( '', #324, #324, #325, .T. );
#279 = EDGE_CURVE( '', #326, #326, #327, .T. );
#280 = FILL_AREA_STYLE( '', ( #328 ) );
#281 = EDGE_CURVE( '', #329, #330, #331, .T. );
#282 = EDGE_CURVE( '', #298, #330, #332, .F. );
#283 = EDGE_CURVE( '', #329, #296, #333, .F. );
#284 = FILL_AREA_STYLE( '', ( #334 ) );
#285 = EDGE_CURVE( '', #330, #316, #335, .T. );
#286 = EDGE_CURVE( '', #314, #329, #336, .F. );
#287 = FILL_AREA_STYLE( '', ( #337 ) );
#288 = FILL_AREA_STYLE( '', ( #338 ) );
#289 = FILL_AREA_STYLE( '', ( #339 ) );
#290 = FILL_AREA_STYLE_COLOUR( '', #340 );
#291 = VERTEX_POINT( '', #341 );
#292 = VERTEX_POINT( '', #342 );
#293 = LINE( '', #343, #344 );
#294 = VERTEX_POINT( '', #345 );
#295 = B_SPLINE_CURVE_WITH_KNOTS( '', 3, ( #346, #347, #348, #349 ), .UNSPECIFIED., .F., .F., ( 4, 4 ), ( 0.000000000000000, 0.00142044666461704 ), .UNSPECIFIED. );
#296 = VERTEX_POINT( '', #350 );
#297 = LINE( '', #351, #352 );
#298 = VERTEX_POINT( '', #353 );
#299 = LINE( '', #354, #355 );
#300 = VERTEX_POINT( '', #356 );
#301 = LINE( '', #357, #358 );
#302 = B_SPLINE_CURVE_WITH_KNOTS( '', 3, ( #359, #360, #361, #362 ), .UNSPECIFIED., .F., .F., ( 4, 4 ), ( 0.000000000000000, 0.00142044666461704 ), .UNSPECIFIED. );
#303 = FILL_AREA_STYLE_COLOUR( '', #363 );
#304 = VERTEX_POINT( '', #364 );
#305 = CIRCLE( '', #365, 5.80947501931113 );
#306 = VERTEX_POINT( '', #366 );
#307 = CIRCLE( '', #367, 9.50000000000000 );
#308 = FILL_AREA_STYLE_COLOUR( '', #368 );
#309 = VERTEX_POINT( '', #369 );
#310 = VERTEX_POINT( '', #370 );
#311 = LINE( '', #371, #372 );
#312 = CIRCLE( '', #373, 9.00000000000000 );
#313 = FILL_AREA_STYLE_COLOUR( '', #374 );
#314 = VERTEX_POINT( '', #375 );
#315 = B_SPLINE_CURVE_WITH_KNOTS( '', 3, ( #376, #377, #378, #379 ), .UNSPECIFIED., .F., .F., ( 4, 4 ), ( 0.000000000000000, 0.00142044666461705 ), .UNSPECIFIED. );
#316 = VERTEX_POINT( '', #380 );
#317 = CIRCLE( '', #381, 10.0000000000000 );
#318 = B_SPLINE_CURVE_WITH_KNOTS( '', 3, ( #382, #383, #384, #385 ), .UNSPECIFIED., .F., .F., ( 4, 4 ), ( 8.67361737988404E-018, 0.00142044666461704 ), .UNSPECIFIED. );
#319 = FILL_AREA_STYLE_COLOUR( '', #386 );
#320 = FILL_AREA_STYLE_COLOUR( '', #387 );
#321 = CIRCLE( '', #388, 10.0000000000000 );
#322 = CIRCLE( '', #389, 9.00000000000000 );
#323 = FILL_AREA_STYLE_COLOUR( '', #390 );
#324 = VERTEX_POINT( '', #391 );
#325 = CIRCLE( '', #392, 9.50000000000000 );
#326 = VERTEX_POINT( '', #393 );
#327 = CIRCLE( '', #394, 10.0000000000000 );
#328 = FILL_AREA_STYLE_COLOUR( '', #395 );
#329 = VERTEX_POINT( '', #396 );
#330 = VERTEX_POINT( '', #397 );
#331 = LINE( '', #398, #399 );
#332 = CIRCLE( '', #400, 10.0000000000000 );
#333 = CIRCLE( '', #401, 10.0000000000000 );
#334 = FILL_AREA_STYLE_COLOUR( '', #402 );
#335 = LINE( '', #403, #404 );
#336 = LINE( '', #405, #406 );
#337 = FILL_AREA_STYLE_COLOUR( '', #407 );
#338 = FILL_AREA_STYLE_COLOUR( '', #408 );
#339 = FILL_AREA_STYLE_COLOUR( '', #409 );
#340 = COLOUR_RGB( '', 0.800000011920929, 0.800000011920929, 0.800000011920929 );
#341 = CARTESIAN_POINT( '', ( -1.25000000000000, -8.91277173498794, 34.5000000000000 ) );
#342 = CARTESIAN_POINT( '', ( -1.25000000000000, 8.91277173498795, 34.5000000000000 ) );
#343 = CARTESIAN_POINT( '', ( -1.25000000000000, -10.0000000000000, 34.5000000000000 ) );
#344 = VECTOR( '', #410, 1000.00000000000 );
#345 = CARTESIAN_POINT( '', ( -1.25000000000000, -9.92156741649222, 33.5000000000000 ) );
#346 = CARTESIAN_POINT( '', ( -1.25000000000000, -8.91277173498794, 34.5000000000000 ) );
#347 = CARTESIAN_POINT( '', ( -1.25000000000000, -9.24920059427786, 34.1668318191207 ) );
#348 = CARTESIAN_POINT( '', ( -1.25000000000000, -9.58544939139186, 33.8334817645931 ) );
#349 = CARTESIAN_POINT( '', ( -1.25000000000000, -9.92156741649222, 33.5000000000000 ) );
#350 = CARTESIAN_POINT( '', ( -1.25000000000000, -9.92156741649222, 32.5000000000000 ) );
#351 = CARTESIAN_POINT( '', ( -1.25000000000000, -9.92156741649222, 57.1500000000000 ) );
#352 = VECTOR( '', #411, 1000.00000000000 );
#353 = CARTESIAN_POINT( '', ( -1.25000000000000, 9.92156741649222, 32.5000000000000 ) );
#354 = CARTESIAN_POINT( '', ( -1.25000000000000, -10.0000000000000, 32.5000000000000 ) );
#355 = VECTOR( '', #412, 1000.00000000000 );
#356 = CARTESIAN_POINT( '', ( -1.25000000000000, 9.92156741649222, 33.5000000000000 ) );
#357 = CARTESIAN_POINT( '', ( -1.25000000000000, 9.92156741649222, 57.1500000000000 ) );
#358 = VECTOR( '', #413, 1000.00000000000 );
#359 = CARTESIAN_POINT( '', ( -1.25000000000000, 9.92156741649222, 33.5000000000000 ) );
#360 = CARTESIAN_POINT( '', ( -1.25000000000000, 9.58544939139187, 33.8334817645931 ) );
#361 = CARTESIAN_POINT( '', ( -1.25000000000000, 9.24920059427787, 34.1668318191207 ) );
#362 = CARTESIAN_POINT( '', ( -1.25000000000000, 8.91277173498795, 34.5000000000000 ) );
#363 = COLOUR_RGB( '', 0.800000011920929, 0.800000011920929, 0.800000011920929 );
#364 = CARTESIAN_POINT( '', ( 5.80947501931113, 0.000000000000000, 4.50000000000000 ) );
#365 = AXIS2_PLACEMENT_3D( '', #414, #415, #416 );
#366 = CARTESIAN_POINT( '', ( 9.50000000000000, 0.000000000000000, 4.50000000000000 ) );
#367 = AXIS2_PLACEMENT_3D( '', #417, #418, #419 );
#368 = COLOUR_RGB( '', 0.800000011920929, 0.800000011920929, 0.800000011920929 );
#369 = CARTESIAN_POINT( '', ( 1.25000000000000, -8.91277173498794, 34.5000000000000 ) );
#370 = CARTESIAN_POINT( '', ( 1.25000000000000, 8.91277173498795, 34.5000000000000 ) );
#371 = CARTESIAN_POINT( '', ( 1.25000000000000, -10.0000000000000, 34.5000000000000 ) );
#372 = VECTOR( '', #420, 1000.00000000000 );
#373 = AXIS2_PLACEMENT_3D( '', #421, #422, #423 );
#374 = COLOUR_RGB( '', 0.800000011920929, 0.800000011920929, 0.800000011920929 );
#375 = CARTESIAN_POINT( '', ( 1.25000000000000, -9.92156741649222, 33.5000000000000 ) );
#376 = CARTESIAN_POINT( '', ( 1.25000000000000, -9.92156741649222, 33.5000000000000 ) );
#377 = CARTESIAN_POINT( '', ( 1.25000000000000, -9.58544939139187, 33.8334817645931 ) );
#378 = CARTESIAN_POINT( '', ( 1.25000000000000, -9.24920059427787, 34.1668318191207 ) );
#379 = CARTESIAN_POINT( '', ( 1.25000000000000, -8.91277173498795, 34.5000000000000 ) );
#380 = CARTESIAN_POINT( '', ( 1.25000000000000, 9.92156741649222, 33.5000000000000 ) );
#381 = AXIS2_PLACEMENT_3D( '', #424, #425, #426 );
#382 = CARTESIAN_POINT( '', ( 1.25000000000000, 8.91277173498794, 34.5000000000000 ) );
#383 = CARTESIAN_POINT( '', ( 1.25000000000000, 9.24920059427786, 34.1668318191207 ) );
#384 = CARTESIAN_POINT( '', ( 1.25000000000000, 9.58544939139186, 33.8334817645931 ) );
#385 = CARTESIAN_POINT( '', ( 1.25000000000000, 9.92156741649222, 33.5000000000000 ) );
#386 = COLOUR_RGB( '', 0.800000011920929, 0.800000011920929, 0.800000011920929 );
#387 = COLOUR_RGB( '', 0.800000011920929, 0.800000011920929, 0.800000011920929 );
#388 = AXIS2_PLACEMENT_3D( '', #427, #428, #429 );
#389 = AXIS2_PLACEMENT_3D( '', #430, #431, #432 );
#390 = COLOUR_RGB( '', 0.800000011920929, 0.800000011920929, 0.800000011920929 );
#391 = CARTESIAN_POINT( '', ( 9.50000000000000, 0.000000000000000, 6.50000000000000 ) );
#392 = AXIS2_PLACEMENT_3D( '', #433, #434, #435 );
#393 = CARTESIAN_POINT( '', ( 10.0000000000000, 0.000000000000000, 7.00000000000000 ) );
#394 = AXIS2_PLACEMENT_3D( '', #436, #437, #438 );
#395 = COLOUR_RGB( '', 0.800000011920929, 0.800000011920929, 0.800000011920929 );
#396 = CARTESIAN_POINT( '', ( 1.25000000000000, -9.92156741649222, 32.5000000000000 ) );
#397 = CARTESIAN_POINT( '', ( 1.25000000000000, 9.92156741649222, 32.5000000000000 ) );
#398 = CARTESIAN_POINT( '', ( 1.25000000000000, -10.0000000000000, 32.5000000000000 ) );
#399 = VECTOR( '', #439, 1000.00000000000 );
#400 = AXIS2_PLACEMENT_3D( '', #440, #441, #442 );
#401 = AXIS2_PLACEMENT_3D( '', #443, #444, #445 );
#402 = COLOUR_RGB( '', 0.752941191196442, 0.752941191196442, 0.752941191196442 );
#403 = CARTESIAN_POINT( '', ( 1.25000000000000, 9.92156741649222, 57.1500000000000 ) );
#404 = VECTOR( '', #446, 1000.00000000000 );
#405 = CARTESIAN_POINT( '', ( 1.25000000000000, -9.92156741649222, 57.1500000000000 ) );
#406 = VECTOR( '', #447, 1000.00000000000 );
#407 = COLOUR_RGB( '', 0.800000011920929, 0.800000011920929, 0.800000011920929 );
#408 = COLOUR_RGB( '', 0.800000011920929, 0.800000011920929, 0.800000011920929 );
#409 = COLOUR_RGB( '', 0.800000011920929, 0.800000011920929, 0.800000011920929 );
#410 = DIRECTION( '', ( 0.000000000000000, 1.00000000000000, 0.000000000000000 ) );
#411 = DIRECTION( '', ( 0.000000000000000, 0.000000000000000, 1.00000000000000 ) );
#412 = DIRECTION( '', ( 0.000000000000000, 1.00000000000000, 0.000000000000000 ) );
#413 = DIRECTION( '', ( 0.000000000000000, 0.000000000000000, 1.00000000000000 ) );
#414 = CARTESIAN_POINT( '', ( 0.000000000000000, 0.000000000000000, 4.50000000000000 ) );
#415 = DIRECTION( '', ( 0.000000000000000, 0.000000000000000, 1.00000000000000 ) );
#416 = DIRECTION( '', ( 1.00000000000000, 0.000000000000000, 0.000000000000000 ) );
#417 = CARTESIAN_POINT( '', ( 0.000000000000000, 0.000000000000000, 4.50000000000000 ) );
#418 = DIRECTION( '', ( 0.000000000000000, 0.000000000000000, 1.00000000000000 ) );
#419 = DIRECTION( '', ( 1.00000000000000, 0.000000000000000, 0.000000000000000 ) );
#420 = DIRECTION( '', ( 0.000000000000000, 1.00000000000000, 0.000000000000000 ) );
#421 = CARTESIAN_POINT( '', ( 0.000000000000000, 0.000000000000000, 34.5000000000000 ) );
#422 = DIRECTION( '', ( 0.000000000000000, 0.000000000000000, 1.00000000000000 ) );
#423 = DIRECTION( '', ( 1.00000000000000, 0.000000000000000, 0.000000000000000 ) );
#424 = CARTESIAN_POINT( '', ( 0.000000000000000, 0.000000000000000, 33.5000000000000 ) );
#425 = DIRECTION( '', ( 0.000000000000000, 0.000000000000000, 1.00000000000000 ) );
#426 = DIRECTION( '', ( 1.00000000000000, 0.000000000000000, 0.000000000000000 ) );
#427 = CARTESIAN_POINT( '', ( 0.000000000000000, 0.000000000000000, 33.5000000000000 ) );
#428 = DIRECTION( '', ( 0.000000000000000, 0.000000000000000, 1.00000000000000 ) );
#429 = DIRECTION( '', ( 1.00000000000000, 0.000000000000000, 0.000000000000000 ) );
#430 = CARTESIAN_POINT( '', ( 0.000000000000000, 0.000000000000000, 34.5000000000000 ) );
#431 = DIRECTION( '', ( 0.000000000000000, 0.000000000000000, 1.00000000000000 ) );
#432 = DIRECTION( '', ( 1.00000000000000, 0.000000000000000, 0.000000000000000 ) );
#433 = CARTESIAN_POINT( '', ( 0.000000000000000, 0.000000000000000, 6.50000000000000 ) );
#434 = DIRECTION( '', ( 0.000000000000000, 0.000000000000000, 1.00000000000000 ) );
#435 = DIRECTION( '', ( 1.00000000000000, 0.000000000000000, 0.000000000000000 ) );
#436 = CARTESIAN_POINT( '', ( 0.000000000000000, 0.000000000000000, 7.00000000000000 ) );
#437 = DIRECTION( '', ( 0.000000000000000, 0.000000000000000, 1.00000000000000 ) );
#438 = DIRECTION( '', ( 1.00000000000000, 0.000000000000000, 0.000000000000000 ) );
#439 = DIRECTION( '', ( 0.000000000000000, 1.00000000000000, 0.000000000000000 ) );
#440 = CARTESIAN_POINT( '', ( 0.000000000000000, 0.000000000000000, 32.5000000000000 ) );
#441 = DIRECTION( '', ( 0.000000000000000, 0.000000000000000, 1.00000000000000 ) );
#442 = DIRECTION( '', ( 1.00000000000000, 0.000000000000000, 0.000000000000000 ) );
#443 = CARTESIAN_POINT( '', ( 0.000000000000000, 0.000000000000000, 32.5000000000000 ) );
#444 = DIRECTION( '', ( 0.000000000000000, 0.000000000000000, 1.00000000000000 ) );
#445 = DIRECTION( '', ( 1.00000000000000, 0.000000000000000, 0.000000000000000 ) );
#446 = DIRECTION( '', ( 0.000000000000000, 0.000000000000000, 1.00000000000000 ) );
#447 = DIRECTION( '', ( 0.000000000000000, 0.000000000000000, 1.00000000000000 ) );
ENDSEC;
END-ISO-10303-21;
