ISO-10303-21;
HEADER;
FILE_DESCRIPTION( ( 'Unknown' ), '1' );
FILE_NAME( '//SBS2003/HD_Usb/Disegni/08_LIB/Users_3D/PROD_GAMM_3D/APS-I/7747546_APS_30_IR.stp', 'Unknown', ( 'Unknown' ), ( 'Unknown' ), 'PSStep 14.0', 'Unknown', '  ' );
FILE_SCHEMA( ( 'AUTOMOTIVE_DESIGN { 1 0 10303 214 1 1 1 1 }' ) );
ENDSEC;
DATA;
#1 = MECHANICAL_DESIGN_GEOMETRIC_PRESENTATION_REPRESENTATION( ' ', ( #10, #11, #12, #13, #14, #15, #16, #17, #18, #19, #20, #21 ), #6 );
#2 = PRODUCT_DEFINITION_CONTEXT( '', #22, 'design' );
#3 = APPLICATION_PROTOCOL_DEFINITION( 'international standard', 'automotive_design', 2001, #22 );
#4 = PRODUCT_CATEGORY_RELATIONSHIP( 'NONE', 'NONE', #23, #24 );
#5 = SHAPE_DEFINITION_REPRESENTATION( #25, #26 );
#6 =  ( GEOMETRIC_REPRESENTATION_CONTEXT( 3 )GLOBAL_UNCERTAINTY_ASSIGNED_CONTEXT( ( #29 ) )GLOBAL_UNIT_ASSIGNED_CONTEXT( ( #31, #32, #33 ) )REPRESENTATION_CONTEXT( 'NONE', 'WORKSPACE' ) );
#10 = STYLED_ITEM( '', ( #35 ), #36 );
#11 = STYLED_ITEM( '', ( #37 ), #38 );
#12 = STYLED_ITEM( '', ( #39 ), #40 );
#13 = STYLED_ITEM( '', ( #41 ), #42 );
#14 = STYLED_ITEM( '', ( #43 ), #44 );
#15 = STYLED_ITEM( '', ( #45 ), #46 );
#16 = STYLED_ITEM( '', ( #47 ), #48 );
#17 = STYLED_ITEM( '', ( #49 ), #50 );
#18 = STYLED_ITEM( '', ( #51 ), #52 );
#19 = STYLED_ITEM( '', ( #53 ), #54 );
#20 = STYLED_ITEM( '', ( #55 ), #56 );
#21 = STYLED_ITEM( '', ( #57 ), #58 );
#22 = APPLICATION_CONTEXT( 'core data for automotive mechanical design processes' );
#23 = PRODUCT_CATEGORY( 'part', 'NONE' );
#24 = PRODUCT_RELATED_PRODUCT_CATEGORY( 'detail', ' ', ( #59 ) );
#25 = PRODUCT_DEFINITION_SHAPE( 'NONE', 'NONE', #60 );
#26 = ADVANCED_BREP_SHAPE_REPRESENTATION( '1', ( #61, #62 ), #6 );
#29 = UNCERTAINTY_MEASURE_WITH_UNIT( LENGTH_MEASURE( 0.00100000000000000 ), #31, '', '' );
#31 =  ( CONVERSION_BASED_UNIT( 'MILLIMETRE', #65 )LENGTH_UNIT(  )NAMED_UNIT( #68 ) );
#32 =  ( NAMED_UNIT( #70 )PLANE_ANGLE_UNIT(  )SI_UNIT( $, .RADIAN. ) );
#33 =  ( NAMED_UNIT( #70 )SI_UNIT( $, .STERADIAN. )SOLID_ANGLE_UNIT(  ) );
#35 = PRESENTATION_STYLE_ASSIGNMENT( ( #76 ) );
#36 = ADVANCED_FACE( '', ( #77, #78 ), #79, .T. );
#37 = PRESENTATION_STYLE_ASSIGNMENT( ( #80 ) );
#38 = ADVANCED_FACE( '', ( #81, #82 ), #83, .T. );
#39 = PRESENTATION_STYLE_ASSIGNMENT( ( #84 ) );
#40 = ADVANCED_FACE( '', ( #85 ), #86, .T. );
#41 = PRESENTATION_STYLE_ASSIGNMENT( ( #87 ) );
#42 = ADVANCED_FACE( '', ( #88 ), #89, .T. );
#43 = PRESENTATION_STYLE_ASSIGNMENT( ( #90 ) );
#44 = ADVANCED_FACE( '', ( #91, #92 ), #93, .T. );
#45 = PRESENTATION_STYLE_ASSIGNMENT( ( #94 ) );
#46 = ADVANCED_FACE( '', ( #95 ), #96, .T. );
#47 = PRESENTATION_STYLE_ASSIGNMENT( ( #97 ) );
#48 = ADVANCED_FACE( '', ( #98 ), #99, .T. );
#49 = PRESENTATION_STYLE_ASSIGNMENT( ( #100 ) );
#50 = ADVANCED_FACE( '', ( #101 ), #102, .T. );
#51 = PRESENTATION_STYLE_ASSIGNMENT( ( #103 ) );
#52 = ADVANCED_FACE( '', ( #104 ), #105, .T. );
#53 = PRESENTATION_STYLE_ASSIGNMENT( ( #106 ) );
#54 = ADVANCED_FACE( '', ( #107 ), #108, .T. );
#55 = PRESENTATION_STYLE_ASSIGNMENT( ( #109 ) );
#56 = ADVANCED_FACE( '', ( #110, #111 ), #112, .T. );
#57 = PRESENTATION_STYLE_ASSIGNMENT( ( #113 ) );
#58 = ADVANCED_FACE( '', ( #114 ), #115, .T. );
#59 = PRODUCT( '1', '1', 'PART-1-DESC', ( #116 ) );
#60 = PRODUCT_DEFINITION( 'NONE', 'NONE', #117, #2 );
#61 = MANIFOLD_SOLID_BREP( '1', #118 );
#62 = AXIS2_PLACEMENT_3D( '', #119, #120, #121 );
#65 = LENGTH_MEASURE_WITH_UNIT( LENGTH_MEASURE( 1.00000000000000 ), #122 );
#68 = DIMENSIONAL_EXPONENTS( 1.00000000000000, 0.000000000000000, 0.000000000000000, 0.000000000000000, 0.000000000000000, 0.000000000000000, 0.000000000000000 );
#70 = DIMENSIONAL_EXPONENTS( 0.000000000000000, 0.000000000000000, 0.000000000000000, 0.000000000000000, 0.000000000000000, 0.000000000000000, 0.000000000000000 );
#76 = SURFACE_STYLE_USAGE( .BOTH., #123 );
#77 = FACE_OUTER_BOUND( '', #124, .T. );
#78 = FACE_OUTER_BOUND( '', #125, .T. );
#79 = CYLINDRICAL_SURFACE( '', #126, 9.50000000000000 );
#80 = SURFACE_STYLE_USAGE( .BOTH., #127 );
#81 = FACE_BOUND( '', #128, .T. );
#82 = FACE_OUTER_BOUND( '', #129, .T. );
#83 = PLANE( '', #130 );
#84 = SURFACE_STYLE_USAGE( .BOTH., #131 );
#85 = FACE_OUTER_BOUND( '', #132, .T. );
#86 = PLANE( '', #133 );
#87 = SURFACE_STYLE_USAGE( .BOTH., #134 );
#88 = FACE_OUTER_BOUND( '', #135, .T. );
#89 = CONICAL_SURFACE( '', #136, 9.00000000000000, 0.785398163397448 );
#90 = SURFACE_STYLE_USAGE( .BOTH., #137 );
#91 = FACE_OUTER_BOUND( '', #138, .T. );
#92 = FACE_OUTER_BOUND( '', #139, .T. );
#93 = CYLINDRICAL_SURFACE( '', #140, 10.0000000000000 );
#94 = SURFACE_STYLE_USAGE( .BOTH., #141 );
#95 = FACE_OUTER_BOUND( '', #142, .T. );
#96 = PLANE( '', #143 );
#97 = SURFACE_STYLE_USAGE( .BOTH., #144 );
#98 = FACE_OUTER_BOUND( '', #145, .T. );
#99 = CONICAL_SURFACE( '', #146, 9.00000000000000, 0.785398163397448 );
#100 = SURFACE_STYLE_USAGE( .BOTH., #147 );
#101 = FACE_OUTER_BOUND( '', #148, .T. );
#102 = PLANE( '', #149 );
#103 = SURFACE_STYLE_USAGE( .BOTH., #150 );
#104 = FACE_OUTER_BOUND( '', #151, .T. );
#105 = PLANE( '', #152 );
#106 = SURFACE_STYLE_USAGE( .BOTH., #153 );
#107 = FACE_OUTER_BOUND( '', #154, .T. );
#108 = SPHERICAL_SURFACE( '', #155, 6.00000000000000 );
#109 = SURFACE_STYLE_USAGE( .BOTH., #156 );
#110 = FACE_BOUND( '', #157, .T. );
#111 = FACE_OUTER_BOUND( '', #158, .T. );
#112 = CONICAL_SURFACE( '', #159, 10.0000000000000, 0.785398163397445 );
#113 = SURFACE_STYLE_USAGE( .BOTH., #160 );
#114 = FACE_OUTER_BOUND( '', #161, .T. );
#115 = PLANE( '', #162 );
#116 = PRODUCT_CONTEXT( '', #22, 'mechanical' );
#117 = PRODUCT_DEFINITION_FORMATION_WITH_SPECIFIED_SOURCE( ' ', 'NONE', #59, .NOT_KNOWN. );
#118 = CLOSED_SHELL( '', ( #40, #42, #44, #46, #50, #52, #48, #58, #56, #36, #38, #54 ) );
#119 = CARTESIAN_POINT( '', ( 0.000000000000000, 0.000000000000000, 0.000000000000000 ) );
#120 = DIRECTION( '', ( 0.000000000000000, 0.000000000000000, 1.00000000000000 ) );
#121 = DIRECTION( '', ( 1.00000000000000, 0.000000000000000, 0.000000000000000 ) );
#122 =  ( LENGTH_UNIT(  )NAMED_UNIT( #68 )SI_UNIT( .MILLI., .METRE. ) );
#123 = SURFACE_SIDE_STYLE( '', ( #164 ) );
#124 = EDGE_LOOP( '', ( #165 ) );
#125 = EDGE_LOOP( '', ( #166 ) );
#126 = AXIS2_PLACEMENT_3D( '', #167, #168, #169 );
#127 = SURFACE_SIDE_STYLE( '', ( #170 ) );
#128 = EDGE_LOOP( '', ( #171 ) );
#129 = EDGE_LOOP( '', ( #172 ) );
#130 = AXIS2_PLACEMENT_3D( '', #173, #174, #175 );
#131 = SURFACE_SIDE_STYLE( '', ( #176 ) );
#132 = EDGE_LOOP( '', ( #177, #178 ) );
#133 = AXIS2_PLACEMENT_3D( '', #179, #180, #181 );
#134 = SURFACE_SIDE_STYLE( '', ( #182 ) );
#135 = EDGE_LOOP( '', ( #183, #184, #185, #186 ) );
#136 = AXIS2_PLACEMENT_3D( '', #187, #188, #189 );
#137 = SURFACE_SIDE_STYLE( '', ( #190 ) );
#138 = EDGE_LOOP( '', ( #191 ) );
#139 = EDGE_LOOP( '', ( #192, #193, #194, #195, #196, #197, #198, #199 ) );
#140 = AXIS2_PLACEMENT_3D( '', #200, #201, #202 );
#141 = SURFACE_SIDE_STYLE( '', ( #203 ) );
#142 = EDGE_LOOP( '', ( #204, #205, #206, #207 ) );
#143 = AXIS2_PLACEMENT_3D( '', #208, #209, #210 );
#144 = SURFACE_SIDE_STYLE( '', ( #211 ) );
#145 = EDGE_LOOP( '', ( #212, #213, #214, #215 ) );
#146 = AXIS2_PLACEMENT_3D( '', #216, #217, #218 );
#147 = SURFACE_SIDE_STYLE( '', ( #219 ) );
#148 = EDGE_LOOP( '', ( #220, #221, #222, #223, #224, #225 ) );
#149 = AXIS2_PLACEMENT_3D( '', #226, #227, #228 );
#150 = SURFACE_SIDE_STYLE( '', ( #229 ) );
#151 = EDGE_LOOP( '', ( #230, #231, #232, #233, #234, #235 ) );
#152 = AXIS2_PLACEMENT_3D( '', #236, #237, #238 );
#153 = SURFACE_SIDE_STYLE( '', ( #239 ) );
#154 = EDGE_LOOP( '', ( #240 ) );
#155 = AXIS2_PLACEMENT_3D( '', #241, #242, #243 );
#156 = SURFACE_SIDE_STYLE( '', ( #244 ) );
#157 = EDGE_LOOP( '', ( #245 ) );
#158 = EDGE_LOOP( '', ( #246 ) );
#159 = AXIS2_PLACEMENT_3D( '', #247, #248, #249 );
#160 = SURFACE_SIDE_STYLE( '', ( #250 ) );
#161 = EDGE_LOOP( '', ( #251, #252 ) );
#162 = AXIS2_PLACEMENT_3D( '', #253, #254, #255 );
#164 = SURFACE_STYLE_FILL_AREA( #256 );
#165 = ORIENTED_EDGE( '', *, *, #257, .T. );
#166 = ORIENTED_EDGE( '', *, *, #258, .F. );
#167 = CARTESIAN_POINT( '', ( 0.000000000000000, 0.000000000000000, 57.1500000000000 ) );
#168 = DIRECTION( '', ( -0.000000000000000, -0.000000000000000, -1.00000000000000 ) );
#169 = DIRECTION( '', ( 1.00000000000000, 0.000000000000000, 0.000000000000000 ) );
#170 = SURFACE_STYLE_FILL_AREA( #259 );
#171 = ORIENTED_EDGE( '', *, *, #260, .T. );
#172 = ORIENTED_EDGE( '', *, *, #257, .F. );
#173 = CARTESIAN_POINT( '', ( 5.80947501931113, 0.000000000000000, 4.50000000000000 ) );
#174 = DIRECTION( '', ( 0.000000000000000, 0.000000000000000, -1.00000000000000 ) );
#175 = DIRECTION( '', ( -1.00000000000000, 0.000000000000000, 0.000000000000000 ) );
#176 = SURFACE_STYLE_FILL_AREA( #261 );
#177 = ORIENTED_EDGE( '', *, *, #262, .T. );
#178 = ORIENTED_EDGE( '', *, *, #263, .T. );
#179 = CARTESIAN_POINT( '', ( 0.000000000000000, 0.000000000000000, 34.5000000000000 ) );
#180 = DIRECTION( '', ( 0.000000000000000, 0.000000000000000, 1.00000000000000 ) );
#181 = DIRECTION( '', ( 1.00000000000000, 0.000000000000000, 0.000000000000000 ) );
#182 = SURFACE_STYLE_FILL_AREA( #264 );
#183 = ORIENTED_EDGE( '', *, *, #265, .F. );
#184 = ORIENTED_EDGE( '', *, *, #266, .F. );
#185 = ORIENTED_EDGE( '', *, *, #267, .F. );
#186 = ORIENTED_EDGE( '', *, *, #268, .F. );
#187 = CARTESIAN_POINT( '', ( 0.000000000000000, 0.000000000000000, 34.5000000000000 ) );
#188 = DIRECTION( '', ( -0.000000000000000, 0.000000000000000, -1.00000000000000 ) );
#189 = DIRECTION( '', ( -1.00000000000000, 0.000000000000000, 0.000000000000000 ) );
#190 = SURFACE_STYLE_FILL_AREA( #269 );
#191 = ORIENTED_EDGE( '', *, *, #270, .T. );
#192 = ORIENTED_EDGE( '', *, *, #271, .T. );
#193 = ORIENTED_EDGE( '', *, *, #272, .T. );
#194 = ORIENTED_EDGE( '', *, *, #273, .T. );
#195 = ORIENTED_EDGE( '', *, *, #274, .T. );
#196 = ORIENTED_EDGE( '', *, *, #275, .T. );
#197 = ORIENTED_EDGE( '', *, *, #266, .T. );
#198 = ORIENTED_EDGE( '', *, *, #276, .T. );
#199 = ORIENTED_EDGE( '', *, *, #277, .T. );
#200 = CARTESIAN_POINT( '', ( 0.000000000000000, 0.000000000000000, 57.1500000000000 ) );
#201 = DIRECTION( '', ( -0.000000000000000, -0.000000000000000, -1.00000000000000 ) );
#202 = DIRECTION( '', ( 1.00000000000000, 0.000000000000000, 0.000000000000000 ) );
#203 = SURFACE_STYLE_FILL_AREA( #278 );
#204 = ORIENTED_EDGE( '', *, *, #279, .T. );
#205 = ORIENTED_EDGE( '', *, *, #274, .F. );
#206 = ORIENTED_EDGE( '', *, *, #280, .F. );
#207 = ORIENTED_EDGE( '', *, *, #277, .F. );
#208 = CARTESIAN_POINT( '', ( -1.25000000000000, -10.0000000000000, 32.5000000000000 ) );
#209 = DIRECTION( '', ( 0.000000000000000, 0.000000000000000, 1.00000000000000 ) );
#210 = DIRECTION( '', ( 1.00000000000000, 0.000000000000000, 0.000000000000000 ) );
#211 = SURFACE_STYLE_FILL_AREA( #281 );
#212 = ORIENTED_EDGE( '', *, *, #282, .F. );
#213 = ORIENTED_EDGE( '', *, *, #272, .F. );
#214 = ORIENTED_EDGE( '', *, *, #283, .F. );
#215 = ORIENTED_EDGE( '', *, *, #263, .F. );
#216 = CARTESIAN_POINT( '', ( 0.000000000000000, 0.000000000000000, 34.5000000000000 ) );
#217 = DIRECTION( '', ( -0.000000000000000, 0.000000000000000, -1.00000000000000 ) );
#218 = DIRECTION( '', ( -1.00000000000000, 0.000000000000000, 0.000000000000000 ) );
#219 = SURFACE_STYLE_FILL_AREA( #284 );
#220 = ORIENTED_EDGE( '', *, *, #285, .T. );
#221 = ORIENTED_EDGE( '', *, *, #267, .T. );
#222 = ORIENTED_EDGE( '', *, *, #275, .F. );
#223 = ORIENTED_EDGE( '', *, *, #279, .F. );
#224 = ORIENTED_EDGE( '', *, *, #276, .F. );
#225 = ORIENTED_EDGE( '', *, *, #265, .T. );
#226 = CARTESIAN_POINT( '', ( 1.25000000000000, -10.0000000000000, 32.5000000000000 ) );
#227 = DIRECTION( '', ( -1.00000000000000, 0.000000000000000, 2.16840434497100E-016 ) );
#228 = DIRECTION( '', ( 2.16840434497101E-016, 0.000000000000000, 1.00000000000000 ) );
#229 = SURFACE_STYLE_FILL_AREA( #286 );
#230 = ORIENTED_EDGE( '', *, *, #262, .F. );
#231 = ORIENTED_EDGE( '', *, *, #283, .T. );
#232 = ORIENTED_EDGE( '', *, *, #271, .F. );
#233 = ORIENTED_EDGE( '', *, *, #280, .T. );
#234 = ORIENTED_EDGE( '', *, *, #273, .F. );
#235 = ORIENTED_EDGE( '', *, *, #282, .T. );
#236 = CARTESIAN_POINT( '', ( -1.25000000000000, -10.0000000000000, 34.5000000000000 ) );
#237 = DIRECTION( '', ( 1.00000000000000, 0.000000000000000, 2.16840434497100E-016 ) );
#238 = DIRECTION( '', ( 2.16840434497101E-016, 0.000000000000000, -1.00000000000000 ) );
#239 = SURFACE_STYLE_FILL_AREA( #287 );
#240 = ORIENTED_EDGE( '', *, *, #260, .F. );
#241 = CARTESIAN_POINT( '', ( 0.000000000000000, 0.000000000000000, 6.00000000000000 ) );
#242 = DIRECTION( '', ( 0.000000000000000, 0.000000000000000, 1.00000000000000 ) );
#243 = DIRECTION( '', ( 1.00000000000000, 0.000000000000000, 0.000000000000000 ) );
#244 = SURFACE_STYLE_FILL_AREA( #288 );
#245 = ORIENTED_EDGE( '', *, *, #258, .T. );
#246 = ORIENTED_EDGE( '', *, *, #270, .F. );
#247 = CARTESIAN_POINT( '', ( 0.000000000000000, 0.000000000000000, 7.00000000000000 ) );
#248 = DIRECTION( '', ( -0.000000000000000, -0.000000000000000, 1.00000000000000 ) );
#249 = DIRECTION( '', ( 1.00000000000000, 0.000000000000000, 0.000000000000000 ) );
#250 = SURFACE_STYLE_FILL_AREA( #289 );
#251 = ORIENTED_EDGE( '', *, *, #285, .F. );
#252 = ORIENTED_EDGE( '', *, *, #268, .T. );
#253 = CARTESIAN_POINT( '', ( 0.000000000000000, 0.000000000000000, 34.5000000000000 ) );
#254 = DIRECTION( '', ( 0.000000000000000, 0.000000000000000, 1.00000000000000 ) );
#255 = DIRECTION( '', ( 1.00000000000000, 0.000000000000000, 0.000000000000000 ) );
#256 = FILL_AREA_STYLE( '', ( #290 ) );
#257 = EDGE_CURVE( '', #291, #291, #292, .T. );
#258 = EDGE_CURVE( '', #293, #293, #294, .T. );
#259 = FILL_AREA_STYLE( '', ( #295 ) );
#260 = EDGE_CURVE( '', #296, #296, #297, .T. );
#261 = FILL_AREA_STYLE( '', ( #298 ) );
#262 = EDGE_CURVE( '', #299, #300, #301, .T. );
#263 = EDGE_CURVE( '', #300, #299, #302, .T. );
#264 = FILL_AREA_STYLE( '', ( #303 ) );
#265 = EDGE_CURVE( '', #304, #305, #306, .T. );
#266 = EDGE_CURVE( '', #307, #304, #308, .F. );
#267 = EDGE_CURVE( '', #309, #307, #310, .T. );
#268 = EDGE_CURVE( '', #305, #309, #311, .T. );
#269 = FILL_AREA_STYLE( '', ( #312 ) );
#270 = EDGE_CURVE( '', #313, #313, #314, .T. );
#271 = EDGE_CURVE( '', #315, #316, #317, .T. );
#272 = EDGE_CURVE( '', #316, #318, #319, .F. );
#273 = EDGE_CURVE( '', #318, #320, #321, .F. );
#274 = EDGE_CURVE( '', #320, #322, #323, .F. );
#275 = EDGE_CURVE( '', #322, #307, #324, .T. );
#276 = EDGE_CURVE( '', #304, #325, #326, .F. );
#277 = EDGE_CURVE( '', #325, #315, #327, .F. );
#278 = FILL_AREA_STYLE( '', ( #328 ) );
#279 = EDGE_CURVE( '', #325, #322, #329, .T. );
#280 = EDGE_CURVE( '', #315, #320, #330, .T. );
#281 = FILL_AREA_STYLE( '', ( #331 ) );
#282 = EDGE_CURVE( '', #318, #300, #332, .T. );
#283 = EDGE_CURVE( '', #299, #316, #333, .T. );
#284 = FILL_AREA_STYLE( '', ( #334 ) );
#285 = EDGE_CURVE( '', #305, #309, #335, .T. );
#286 = FILL_AREA_STYLE( '', ( #336 ) );
#287 = FILL_AREA_STYLE( '', ( #337 ) );
#288 = FILL_AREA_STYLE( '', ( #338 ) );
#289 = FILL_AREA_STYLE( '', ( #339 ) );
#290 = FILL_AREA_STYLE_COLOUR( '', #340 );
#291 = VERTEX_POINT( '', #341 );
#292 = CIRCLE( '', #342, 9.50000000000000 );
#293 = VERTEX_POINT( '', #343 );
#294 = CIRCLE( '', #344, 9.50000000000000 );
#295 = FILL_AREA_STYLE_COLOUR( '', #345 );
#296 = VERTEX_POINT( '', #346 );
#297 = CIRCLE( '', #347, 5.80947501931113 );
#298 = FILL_AREA_STYLE_COLOUR( '', #348 );
#299 = VERTEX_POINT( '', #349 );
#300 = VERTEX_POINT( '', #350 );
#301 = LINE( '', #351, #352 );
#302 = CIRCLE( '', #353, 9.00000000000000 );
#303 = FILL_AREA_STYLE_COLOUR( '', #354 );
#304 = VERTEX_POINT( '', #355 );
#305 = VERTEX_POINT( '', #356 );
#306 = B_SPLINE_CURVE_WITH_KNOTS( '', 3, ( #357, #358, #359, #360 ), .UNSPECIFIED., .F., .F., ( 4, 4 ), ( 0.000000000000000, 0.00142044666461705 ), .UNSPECIFIED. );
#307 = VERTEX_POINT( '', #361 );
#308 = CIRCLE( '', #362, 10.0000000000000 );
#309 = VERTEX_POINT( '', #363 );
#310 = B_SPLINE_CURVE_WITH_KNOTS( '', 3, ( #364, #365, #366, #367 ), .UNSPECIFIED., .F., .F., ( 4, 4 ), ( 8.67361737988404E-018, 0.00142044666461704 ), .UNSPECIFIED. );
#311 = CIRCLE( '', #368, 9.00000000000000 );
#312 = FILL_AREA_STYLE_COLOUR( '', #369 );
#313 = VERTEX_POINT( '', #370 );
#314 = CIRCLE( '', #371, 10.0000000000000 );
#315 = VERTEX_POINT( '', #372 );
#316 = VERTEX_POINT( '', #373 );
#317 = LINE( '', #374, #375 );
#318 = VERTEX_POINT( '', #376 );
#319 = CIRCLE( '', #377, 10.0000000000000 );
#320 = VERTEX_POINT( '', #378 );
#321 = LINE( '', #379, #380 );
#322 = VERTEX_POINT( '', #381 );
#323 = CIRCLE( '', #382, 10.0000000000000 );
#324 = LINE( '', #383, #384 );
#325 = VERTEX_POINT( '', #385 );
#326 = LINE( '', #386, #387 );
#327 = CIRCLE( '', #388, 10.0000000000000 );
#328 = FILL_AREA_STYLE_COLOUR( '', #389 );
#329 = LINE( '', #390, #391 );
#330 = LINE( '', #392, #393 );
#331 = FILL_AREA_STYLE_COLOUR( '', #394 );
#332 = B_SPLINE_CURVE_WITH_KNOTS( '', 3, ( #395, #396, #397, #398 ), .UNSPECIFIED., .F., .F., ( 4, 4 ), ( 0.000000000000000, 0.00142044666461704 ), .UNSPECIFIED. );
#333 = B_SPLINE_CURVE_WITH_KNOTS( '', 3, ( #399, #400, #401, #402 ), .UNSPECIFIED., .F., .F., ( 4, 4 ), ( 0.000000000000000, 0.00142044666461704 ), .UNSPECIFIED. );
#334 = FILL_AREA_STYLE_COLOUR( '', #403 );
#335 = LINE( '', #404, #405 );
#336 = FILL_AREA_STYLE_COLOUR( '', #406 );
#337 = FILL_AREA_STYLE_COLOUR( '', #407 );
#338 = FILL_AREA_STYLE_COLOUR( '', #408 );
#339 = FILL_AREA_STYLE_COLOUR( '', #409 );
#340 = COLOUR_RGB( '', 0.800000011920929, 0.800000011920929, 0.800000011920929 );
#341 = CARTESIAN_POINT( '', ( 9.50000000000000, 0.000000000000000, 4.50000000000000 ) );
#342 = AXIS2_PLACEMENT_3D( '', #410, #411, #412 );
#343 = CARTESIAN_POINT( '', ( 9.50000000000000, 0.000000000000000, 6.50000000000000 ) );
#344 = AXIS2_PLACEMENT_3D( '', #413, #414, #415 );
#345 = COLOUR_RGB( '', 0.800000011920929, 0.800000011920929, 0.800000011920929 );
#346 = CARTESIAN_POINT( '', ( 5.80947501931113, 0.000000000000000, 4.50000000000000 ) );
#347 = AXIS2_PLACEMENT_3D( '', #416, #417, #418 );
#348 = COLOUR_RGB( '', 0.800000011920929, 0.800000011920929, 0.800000011920929 );
#349 = CARTESIAN_POINT( '', ( -1.25000000000000, -8.91277173498794, 34.5000000000000 ) );
#350 = CARTESIAN_POINT( '', ( -1.25000000000000, 8.91277173498795, 34.5000000000000 ) );
#351 = CARTESIAN_POINT( '', ( -1.25000000000000, -10.0000000000000, 34.5000000000000 ) );
#352 = VECTOR( '', #419, 1000.00000000000 );
#353 = AXIS2_PLACEMENT_3D( '', #420, #421, #422 );
#354 = COLOUR_RGB( '', 0.800000011920929, 0.800000011920929, 0.800000011920929 );
#355 = CARTESIAN_POINT( '', ( 1.25000000000000, -9.92156741649222, 33.5000000000000 ) );
#356 = CARTESIAN_POINT( '', ( 1.25000000000000, -8.91277173498794, 34.5000000000000 ) );
#357 = CARTESIAN_POINT( '', ( 1.25000000000000, -9.92156741649222, 33.5000000000000 ) );
#358 = CARTESIAN_POINT( '', ( 1.25000000000000, -9.58544939139187, 33.8334817645931 ) );
#359 = CARTESIAN_POINT( '', ( 1.25000000000000, -9.24920059427787, 34.1668318191207 ) );
#360 = CARTESIAN_POINT( '', ( 1.25000000000000, -8.91277173498795, 34.5000000000000 ) );
#361 = CARTESIAN_POINT( '', ( 1.25000000000000, 9.92156741649222, 33.5000000000000 ) );
#362 = AXIS2_PLACEMENT_3D( '', #423, #424, #425 );
#363 = CARTESIAN_POINT( '', ( 1.25000000000000, 8.91277173498795, 34.5000000000000 ) );
#364 = CARTESIAN_POINT( '', ( 1.25000000000000, 8.91277173498794, 34.5000000000000 ) );
#365 = CARTESIAN_POINT( '', ( 1.25000000000000, 9.24920059427786, 34.1668318191207 ) );
#366 = CARTESIAN_POINT( '', ( 1.25000000000000, 9.58544939139186, 33.8334817645931 ) );
#367 = CARTESIAN_POINT( '', ( 1.25000000000000, 9.92156741649222, 33.5000000000000 ) );
#368 = AXIS2_PLACEMENT_3D( '', #426, #427, #428 );
#369 = COLOUR_RGB( '', 0.752941191196442, 0.752941191196442, 0.752941191196442 );
#370 = CARTESIAN_POINT( '', ( 10.0000000000000, 0.000000000000000, 7.00000000000000 ) );
#371 = AXIS2_PLACEMENT_3D( '', #429, #430, #431 );
#372 = CARTESIAN_POINT( '', ( -1.25000000000000, -9.92156741649222, 32.5000000000000 ) );
#373 = CARTESIAN_POINT( '', ( -1.25000000000000, -9.92156741649222, 33.5000000000000 ) );
#374 = CARTESIAN_POINT( '', ( -1.25000000000000, -9.92156741649222, 57.1500000000000 ) );
#375 = VECTOR( '', #432, 1000.00000000000 );
#376 = CARTESIAN_POINT( '', ( -1.25000000000000, 9.92156741649222, 33.5000000000000 ) );
#377 = AXIS2_PLACEMENT_3D( '', #433, #434, #435 );
#378 = CARTESIAN_POINT( '', ( -1.25000000000000, 9.92156741649222, 32.5000000000000 ) );
#379 = CARTESIAN_POINT( '', ( -1.25000000000000, 9.92156741649222, 57.1500000000000 ) );
#380 = VECTOR( '', #436, 1000.00000000000 );
#381 = CARTESIAN_POINT( '', ( 1.25000000000000, 9.92156741649222, 32.5000000000000 ) );
#382 = AXIS2_PLACEMENT_3D( '', #437, #438, #439 );
#383 = CARTESIAN_POINT( '', ( 1.25000000000000, 9.92156741649222, 57.1500000000000 ) );
#384 = VECTOR( '', #440, 1000.00000000000 );
#385 = CARTESIAN_POINT( '', ( 1.25000000000000, -9.92156741649222, 32.5000000000000 ) );
#386 = CARTESIAN_POINT( '', ( 1.25000000000000, -9.92156741649222, 57.1500000000000 ) );
#387 = VECTOR( '', #441, 1000.00000000000 );
#388 = AXIS2_PLACEMENT_3D( '', #442, #443, #444 );
#389 = COLOUR_RGB( '', 0.800000011920929, 0.800000011920929, 0.800000011920929 );
#390 = CARTESIAN_POINT( '', ( 1.25000000000000, -10.0000000000000, 32.5000000000000 ) );
#391 = VECTOR( '', #445, 1000.00000000000 );
#392 = CARTESIAN_POINT( '', ( -1.25000000000000, -10.0000000000000, 32.5000000000000 ) );
#393 = VECTOR( '', #446, 1000.00000000000 );
#394 = COLOUR_RGB( '', 0.800000011920929, 0.800000011920929, 0.800000011920929 );
#395 = CARTESIAN_POINT( '', ( -1.25000000000000, 9.92156741649222, 33.5000000000000 ) );
#396 = CARTESIAN_POINT( '', ( -1.25000000000000, 9.58544939139187, 33.8334817645931 ) );
#397 = CARTESIAN_POINT( '', ( -1.25000000000000, 9.24920059427787, 34.1668318191207 ) );
#398 = CARTESIAN_POINT( '', ( -1.25000000000000, 8.91277173498795, 34.5000000000000 ) );
#399 = CARTESIAN_POINT( '', ( -1.25000000000000, -8.91277173498794, 34.5000000000000 ) );
#400 = CARTESIAN_POINT( '', ( -1.25000000000000, -9.24920059427786, 34.1668318191207 ) );
#401 = CARTESIAN_POINT( '', ( -1.25000000000000, -9.58544939139186, 33.8334817645931 ) );
#402 = CARTESIAN_POINT( '', ( -1.25000000000000, -9.92156741649222, 33.5000000000000 ) );
#403 = COLOUR_RGB( '', 0.800000011920929, 0.800000011920929, 0.800000011920929 );
#404 = CARTESIAN_POINT( '', ( 1.25000000000000, -10.0000000000000, 34.5000000000000 ) );
#405 = VECTOR( '', #447, 1000.00000000000 );
#406 = COLOUR_RGB( '', 0.800000011920929, 0.800000011920929, 0.800000011920929 );
#407 = COLOUR_RGB( '', 0.800000011920929, 0.800000011920929, 0.800000011920929 );
#408 = COLOUR_RGB( '', 0.800000011920929, 0.800000011920929, 0.800000011920929 );
#409 = COLOUR_RGB( '', 0.800000011920929, 0.800000011920929, 0.800000011920929 );
#410 = CARTESIAN_POINT( '', ( 0.000000000000000, 0.000000000000000, 4.50000000000000 ) );
#411 = DIRECTION( '', ( 0.000000000000000, 0.000000000000000, 1.00000000000000 ) );
#412 = DIRECTION( '', ( 1.00000000000000, 0.000000000000000, 0.000000000000000 ) );
#413 = CARTESIAN_POINT( '', ( 0.000000000000000, 0.000000000000000, 6.50000000000000 ) );
#414 = DIRECTION( '', ( 0.000000000000000, 0.000000000000000, 1.00000000000000 ) );
#415 = DIRECTION( '', ( 1.00000000000000, 0.000000000000000, 0.000000000000000 ) );
#416 = CARTESIAN_POINT( '', ( 0.000000000000000, 0.000000000000000, 4.50000000000000 ) );
#417 = DIRECTION( '', ( 0.000000000000000, 0.000000000000000, 1.00000000000000 ) );
#418 = DIRECTION( '', ( 1.00000000000000, 0.000000000000000, 0.000000000000000 ) );
#419 = DIRECTION( '', ( 0.000000000000000, 1.00000000000000, 0.000000000000000 ) );
#420 = CARTESIAN_POINT( '', ( 0.000000000000000, 0.000000000000000, 34.5000000000000 ) );
#421 = DIRECTION( '', ( 0.000000000000000, 0.000000000000000, 1.00000000000000 ) );
#422 = DIRECTION( '', ( 1.00000000000000, 0.000000000000000, 0.000000000000000 ) );
#423 = CARTESIAN_POINT( '', ( 0.000000000000000, 0.000000000000000, 33.5000000000000 ) );
#424 = DIRECTION( '', ( 0.000000000000000, 0.000000000000000, 1.00000000000000 ) );
#425 = DIRECTION( '', ( 1.00000000000000, 0.000000000000000, 0.000000000000000 ) );
#426 = CARTESIAN_POINT( '', ( 0.000000000000000, 0.000000000000000, 34.5000000000000 ) );
#427 = DIRECTION( '', ( 0.000000000000000, 0.000000000000000, 1.00000000000000 ) );
#428 = DIRECTION( '', ( 1.00000000000000, 0.000000000000000, 0.000000000000000 ) );
#429 = CARTESIAN_POINT( '', ( 0.000000000000000, 0.000000000000000, 7.00000000000000 ) );
#430 = DIRECTION( '', ( 0.000000000000000, 0.000000000000000, 1.00000000000000 ) );
#431 = DIRECTION( '', ( 1.00000000000000, 0.000000000000000, 0.000000000000000 ) );
#432 = DIRECTION( '', ( 0.000000000000000, 0.000000000000000, 1.00000000000000 ) );
#433 = CARTESIAN_POINT( '', ( 0.000000000000000, 0.000000000000000, 33.5000000000000 ) );
#434 = DIRECTION( '', ( 0.000000000000000, 0.000000000000000, 1.00000000000000 ) );
#435 = DIRECTION( '', ( 1.00000000000000, 0.000000000000000, 0.000000000000000 ) );
#436 = DIRECTION( '', ( 0.000000000000000, 0.000000000000000, 1.00000000000000 ) );
#437 = CARTESIAN_POINT( '', ( 0.000000000000000, 0.000000000000000, 32.5000000000000 ) );
#438 = DIRECTION( '', ( 0.000000000000000, 0.000000000000000, 1.00000000000000 ) );
#439 = DIRECTION( '', ( 1.00000000000000, 0.000000000000000, 0.000000000000000 ) );
#440 = DIRECTION( '', ( 0.000000000000000, 0.000000000000000, 1.00000000000000 ) );
#441 = DIRECTION( '', ( 0.000000000000000, 0.000000000000000, 1.00000000000000 ) );
#442 = CARTESIAN_POINT( '', ( 0.000000000000000, 0.000000000000000, 32.5000000000000 ) );
#443 = DIRECTION( '', ( 0.000000000000000, 0.000000000000000, 1.00000000000000 ) );
#444 = DIRECTION( '', ( 1.00000000000000, 0.000000000000000, 0.000000000000000 ) );
#445 = DIRECTION( '', ( 0.000000000000000, 1.00000000000000, 0.000000000000000 ) );
#446 = DIRECTION( '', ( 0.000000000000000, 1.00000000000000, 0.000000000000000 ) );
#447 = DIRECTION( '', ( 0.000000000000000, 1.00000000000000, 0.000000000000000 ) );
ENDSEC;
END-ISO-10303-21;
