ISO-10303-21;
HEADER;
FILE_DESCRIPTION( ( 'Unknown' ), '1' );
FILE_NAME( '//SBS2003/HD_Usb/Disegni/08_LIB/Users_3D/PROD_GAMM_3D/APV/7747560_APV_9.stp', 'Unknown', ( 'Unknown' ), ( 'Unknown' ), 'PSStep 14.0', 'Unknown', '  ' );
FILE_SCHEMA( ( 'AUTOMOTIVE_DESIGN { 1 0 10303 214 1 1 1 1 }' ) );
ENDSEC;
DATA;
#1 = MECHANICAL_DESIGN_GEOMETRIC_PRESENTATION_REPRESENTATION( ' ', ( #10, #11, #12, #13, #14, #15, #16, #17, #18, #19, #20, #21, #22, #23 ), #6 );
#2 = PRODUCT_DEFINITION_CONTEXT( '', #24, 'design' );
#3 = APPLICATION_PROTOCOL_DEFINITION( 'international standard', 'automotive_design', 2001, #24 );
#4 = PRODUCT_CATEGORY_RELATIONSHIP( 'NONE', 'NONE', #25, #26 );
#5 = SHAPE_DEFINITION_REPRESENTATION( #27, #28 );
#6 =  ( GEOMETRIC_REPRESENTATION_CONTEXT( 3 )GLOBAL_UNCERTAINTY_ASSIGNED_CONTEXT( ( #31 ) )GLOBAL_UNIT_ASSIGNED_CONTEXT( ( #33, #34, #35 ) )REPRESENTATION_CONTEXT( 'NONE', 'WORKSPACE' ) );
#10 = STYLED_ITEM( '', ( #37 ), #38 );
#11 = STYLED_ITEM( '', ( #39 ), #40 );
#12 = STYLED_ITEM( '', ( #41 ), #42 );
#13 = STYLED_ITEM( '', ( #43 ), #44 );
#14 = STYLED_ITEM( '', ( #45 ), #46 );
#15 = STYLED_ITEM( '', ( #47 ), #48 );
#16 = STYLED_ITEM( '', ( #49 ), #50 );
#17 = STYLED_ITEM( '', ( #51 ), #52 );
#18 = STYLED_ITEM( '', ( #53 ), #54 );
#19 = STYLED_ITEM( '', ( #55 ), #56 );
#20 = STYLED_ITEM( '', ( #57 ), #58 );
#21 = STYLED_ITEM( '', ( #59 ), #60 );
#22 = STYLED_ITEM( '', ( #61 ), #62 );
#23 = STYLED_ITEM( '', ( #63 ), #64 );
#24 = APPLICATION_CONTEXT( 'core data for automotive mechanical design processes' );
#25 = PRODUCT_CATEGORY( 'part', 'NONE' );
#26 = PRODUCT_RELATED_PRODUCT_CATEGORY( 'detail', ' ', ( #65 ) );
#27 = PRODUCT_DEFINITION_SHAPE( 'NONE', 'NONE', #66 );
#28 = ADVANCED_BREP_SHAPE_REPRESENTATION( '1', ( #67, #68 ), #6 );
#31 = UNCERTAINTY_MEASURE_WITH_UNIT( LENGTH_MEASURE( 0.00100000000000000 ), #33, '', '' );
#33 =  ( CONVERSION_BASED_UNIT( 'MILLIMETRE', #71 )LENGTH_UNIT(  )NAMED_UNIT( #74 ) );
#34 =  ( NAMED_UNIT( #76 )PLANE_ANGLE_UNIT(  )SI_UNIT( $, .RADIAN. ) );
#35 =  ( NAMED_UNIT( #76 )SI_UNIT( $, .STERADIAN. )SOLID_ANGLE_UNIT(  ) );
#37 = PRESENTATION_STYLE_ASSIGNMENT( ( #82 ) );
#38 = ADVANCED_FACE( '', ( #83, #84 ), #85, .T. );
#39 = PRESENTATION_STYLE_ASSIGNMENT( ( #86 ) );
#40 = ADVANCED_FACE( '', ( #87, #88 ), #89, .T. );
#41 = PRESENTATION_STYLE_ASSIGNMENT( ( #90 ) );
#42 = ADVANCED_FACE( '', ( #91, #92 ), #93, .T. );
#43 = PRESENTATION_STYLE_ASSIGNMENT( ( #94 ) );
#44 = ADVANCED_FACE( '', ( #95 ), #96, .T. );
#45 = PRESENTATION_STYLE_ASSIGNMENT( ( #97 ) );
#46 = ADVANCED_FACE( '', ( #98 ), #99, .T. );
#47 = PRESENTATION_STYLE_ASSIGNMENT( ( #100 ) );
#48 = ADVANCED_FACE( '', ( #101 ), #102, .T. );
#49 = PRESENTATION_STYLE_ASSIGNMENT( ( #103 ) );
#50 = ADVANCED_FACE( '', ( #104 ), #105, .T. );
#51 = PRESENTATION_STYLE_ASSIGNMENT( ( #106 ) );
#52 = ADVANCED_FACE( '', ( #107 ), #108, .T. );
#53 = PRESENTATION_STYLE_ASSIGNMENT( ( #109 ) );
#54 = ADVANCED_FACE( '', ( #110, #111 ), #112, .T. );
#55 = PRESENTATION_STYLE_ASSIGNMENT( ( #113 ) );
#56 = ADVANCED_FACE( '', ( #114 ), #115, .T. );
#57 = PRESENTATION_STYLE_ASSIGNMENT( ( #116 ) );
#58 = ADVANCED_FACE( '', ( #117 ), #118, .T. );
#59 = PRESENTATION_STYLE_ASSIGNMENT( ( #119 ) );
#60 = ADVANCED_FACE( '', ( #120, #121 ), #122, .T. );
#61 = PRESENTATION_STYLE_ASSIGNMENT( ( #123 ) );
#62 = ADVANCED_FACE( '', ( #124 ), #125, .T. );
#63 = PRESENTATION_STYLE_ASSIGNMENT( ( #126 ) );
#64 = ADVANCED_FACE( '', ( #127, #128 ), #129, .T. );
#65 = PRODUCT( '1', '1', 'PART-1-DESC', ( #130 ) );
#66 = PRODUCT_DEFINITION( 'NONE', 'NONE', #131, #2 );
#67 = MANIFOLD_SOLID_BREP( '1', #132 );
#68 = AXIS2_PLACEMENT_3D( '', #133, #134, #135 );
#71 = LENGTH_MEASURE_WITH_UNIT( LENGTH_MEASURE( 1.00000000000000 ), #136 );
#74 = DIMENSIONAL_EXPONENTS( 1.00000000000000, 0.000000000000000, 0.000000000000000, 0.000000000000000, 0.000000000000000, 0.000000000000000, 0.000000000000000 );
#76 = DIMENSIONAL_EXPONENTS( 0.000000000000000, 0.000000000000000, 0.000000000000000, 0.000000000000000, 0.000000000000000, 0.000000000000000, 0.000000000000000 );
#82 = SURFACE_STYLE_USAGE( .BOTH., #137 );
#83 = FACE_OUTER_BOUND( '', #138, .T. );
#84 = FACE_OUTER_BOUND( '', #139, .T. );
#85 = CYLINDRICAL_SURFACE( '', #140, 1.50000000000000 );
#86 = SURFACE_STYLE_USAGE( .BOTH., #141 );
#87 = FACE_OUTER_BOUND( '', #142, .T. );
#88 = FACE_OUTER_BOUND( '', #143, .T. );
#89 = CYLINDRICAL_SURFACE( '', #144, 3.00000000000000 );
#90 = SURFACE_STYLE_USAGE( .BOTH., #145 );
#91 = FACE_BOUND( '', #146, .T. );
#92 = FACE_OUTER_BOUND( '', #147, .T. );
#93 = CONICAL_SURFACE( '', #148, 2.00000000000000, 0.785398163397448 );
#94 = SURFACE_STYLE_USAGE( .BOTH., #149 );
#95 = FACE_OUTER_BOUND( '', #150, .T. );
#96 = PLANE( '', #151 );
#97 = SURFACE_STYLE_USAGE( .BOTH., #152 );
#98 = FACE_OUTER_BOUND( '', #153, .T. );
#99 = CONICAL_SURFACE( '', #154, 2.80000000000000, 0.785398163397452 );
#100 = SURFACE_STYLE_USAGE( .BOTH., #155 );
#101 = FACE_OUTER_BOUND( '', #156, .T. );
#102 = PLANE( '', #157 );
#103 = SURFACE_STYLE_USAGE( .BOTH., #158 );
#104 = FACE_OUTER_BOUND( '', #159, .T. );
#105 = PLANE( '', #160 );
#106 = SURFACE_STYLE_USAGE( .BOTH., #161 );
#107 = FACE_OUTER_BOUND( '', #162, .T. );
#108 = CONICAL_SURFACE( '', #163, 2.80000000000000, 0.785398163397452 );
#109 = SURFACE_STYLE_USAGE( .BOTH., #164 );
#110 = FACE_BOUND( '', #165, .T. );
#111 = FACE_OUTER_BOUND( '', #166, .T. );
#112 = PLANE( '', #167 );
#113 = SURFACE_STYLE_USAGE( .BOTH., #168 );
#114 = FACE_OUTER_BOUND( '', #169, .T. );
#115 = PLANE( '', #170 );
#116 = SURFACE_STYLE_USAGE( .BOTH., #171 );
#117 = FACE_OUTER_BOUND( '', #172, .T. );
#118 = PLANE( '', #173 );
#119 = SURFACE_STYLE_USAGE( .BOTH., #174 );
#120 = FACE_BOUND( '', #175, .T. );
#121 = FACE_OUTER_BOUND( '', #176, .T. );
#122 = PLANE( '', #177 );
#123 = SURFACE_STYLE_USAGE( .BOTH., #178 );
#124 = FACE_OUTER_BOUND( '', #179, .T. );
#125 = SPHERICAL_SURFACE( '', #180, 1.25000000000000 );
#126 = SURFACE_STYLE_USAGE( .BOTH., #181 );
#127 = FACE_OUTER_BOUND( '', #182, .T. );
#128 = FACE_OUTER_BOUND( '', #183, .T. );
#129 = CYLINDRICAL_SURFACE( '', #184, 2.00000000000000 );
#130 = PRODUCT_CONTEXT( '', #24, 'mechanical' );
#131 = PRODUCT_DEFINITION_FORMATION_WITH_SPECIFIED_SOURCE( ' ', 'NONE', #65, .NOT_KNOWN. );
#132 = CLOSED_SHELL( '', ( #44, #42, #40, #58, #48, #50, #46, #52, #62, #56, #60, #64, #38, #54 ) );
#133 = CARTESIAN_POINT( '', ( 0.000000000000000, 0.000000000000000, 0.000000000000000 ) );
#134 = DIRECTION( '', ( 0.000000000000000, 0.000000000000000, 1.00000000000000 ) );
#135 = DIRECTION( '', ( 1.00000000000000, 0.000000000000000, 0.000000000000000 ) );
#136 =  ( LENGTH_UNIT(  )NAMED_UNIT( #74 )SI_UNIT( .MILLI., .METRE. ) );
#137 = SURFACE_SIDE_STYLE( '', ( #186 ) );
#138 = EDGE_LOOP( '', ( #187 ) );
#139 = EDGE_LOOP( '', ( #188 ) );
#140 = AXIS2_PLACEMENT_3D( '', #189, #190, #191 );
#141 = SURFACE_SIDE_STYLE( '', ( #192 ) );
#142 = EDGE_LOOP( '', ( #193 ) );
#143 = EDGE_LOOP( '', ( #194, #195, #196, #197, #198, #199, #200, #201 ) );
#144 = AXIS2_PLACEMENT_3D( '', #202, #203, #204 );
#145 = SURFACE_SIDE_STYLE( '', ( #205 ) );
#146 = EDGE_LOOP( '', ( #206 ) );
#147 = EDGE_LOOP( '', ( #207 ) );
#148 = AXIS2_PLACEMENT_3D( '', #208, #209, #210 );
#149 = SURFACE_SIDE_STYLE( '', ( #211 ) );
#150 = EDGE_LOOP( '', ( #212, #213 ) );
#151 = AXIS2_PLACEMENT_3D( '', #214, #215, #216 );
#152 = SURFACE_SIDE_STYLE( '', ( #217 ) );
#153 = EDGE_LOOP( '', ( #218, #219, #220, #221 ) );
#154 = AXIS2_PLACEMENT_3D( '', #222, #223, #224 );
#155 = SURFACE_SIDE_STYLE( '', ( #225 ) );
#156 = EDGE_LOOP( '', ( #226, #227, #228, #229, #230, #231 ) );
#157 = AXIS2_PLACEMENT_3D( '', #232, #233, #234 );
#158 = SURFACE_SIDE_STYLE( '', ( #235 ) );
#159 = EDGE_LOOP( '', ( #236, #237, #238, #239, #240, #241 ) );
#160 = AXIS2_PLACEMENT_3D( '', #242, #243, #244 );
#161 = SURFACE_SIDE_STYLE( '', ( #245 ) );
#162 = EDGE_LOOP( '', ( #246, #247, #248, #249 ) );
#163 = AXIS2_PLACEMENT_3D( '', #250, #251, #252 );
#164 = SURFACE_SIDE_STYLE( '', ( #253 ) );
#165 = EDGE_LOOP( '', ( #254 ) );
#166 = EDGE_LOOP( '', ( #255 ) );
#167 = AXIS2_PLACEMENT_3D( '', #256, #257, #258 );
#168 = SURFACE_SIDE_STYLE( '', ( #259 ) );
#169 = EDGE_LOOP( '', ( #260, #261 ) );
#170 = AXIS2_PLACEMENT_3D( '', #262, #263, #264 );
#171 = SURFACE_SIDE_STYLE( '', ( #265 ) );
#172 = EDGE_LOOP( '', ( #266, #267, #268, #269 ) );
#173 = AXIS2_PLACEMENT_3D( '', #270, #271, #272 );
#174 = SURFACE_SIDE_STYLE( '', ( #273 ) );
#175 = EDGE_LOOP( '', ( #274 ) );
#176 = EDGE_LOOP( '', ( #275 ) );
#177 = AXIS2_PLACEMENT_3D( '', #276, #277, #278 );
#178 = SURFACE_SIDE_STYLE( '', ( #279 ) );
#179 = EDGE_LOOP( '', ( #280 ) );
#180 = AXIS2_PLACEMENT_3D( '', #281, #282, #283 );
#181 = SURFACE_SIDE_STYLE( '', ( #284 ) );
#182 = EDGE_LOOP( '', ( #285 ) );
#183 = EDGE_LOOP( '', ( #286 ) );
#184 = AXIS2_PLACEMENT_3D( '', #287, #288, #289 );
#186 = SURFACE_STYLE_FILL_AREA( #290 );
#187 = ORIENTED_EDGE( '', *, *, #291, .T. );
#188 = ORIENTED_EDGE( '', *, *, #292, .F. );
#189 = CARTESIAN_POINT( '', ( 0.000000000000000, 0.000000000000000, 57.1500000000000 ) );
#190 = DIRECTION( '', ( -0.000000000000000, -0.000000000000000, -1.00000000000000 ) );
#191 = DIRECTION( '', ( 1.00000000000000, 0.000000000000000, 0.000000000000000 ) );
#192 = SURFACE_STYLE_FILL_AREA( #293 );
#193 = ORIENTED_EDGE( '', *, *, #294, .T. );
#194 = ORIENTED_EDGE( '', *, *, #295, .T. );
#195 = ORIENTED_EDGE( '', *, *, #296, .T. );
#196 = ORIENTED_EDGE( '', *, *, #297, .T. );
#197 = ORIENTED_EDGE( '', *, *, #298, .T. );
#198 = ORIENTED_EDGE( '', *, *, #299, .T. );
#199 = ORIENTED_EDGE( '', *, *, #300, .T. );
#200 = ORIENTED_EDGE( '', *, *, #301, .T. );
#201 = ORIENTED_EDGE( '', *, *, #302, .T. );
#202 = CARTESIAN_POINT( '', ( 0.000000000000000, 0.000000000000000, 57.1500000000000 ) );
#203 = DIRECTION( '', ( -0.000000000000000, -0.000000000000000, -1.00000000000000 ) );
#204 = DIRECTION( '', ( 1.00000000000000, 0.000000000000000, 0.000000000000000 ) );
#205 = SURFACE_STYLE_FILL_AREA( #303 );
#206 = ORIENTED_EDGE( '', *, *, #292, .T. );
#207 = ORIENTED_EDGE( '', *, *, #304, .F. );
#208 = CARTESIAN_POINT( '', ( 0.000000000000000, 0.000000000000000, 2.30000000000000 ) );
#209 = DIRECTION( '', ( -0.000000000000000, -0.000000000000000, 1.00000000000000 ) );
#210 = DIRECTION( '', ( 1.00000000000000, 0.000000000000000, 0.000000000000000 ) );
#211 = SURFACE_STYLE_FILL_AREA( #305 );
#212 = ORIENTED_EDGE( '', *, *, #306, .T. );
#213 = ORIENTED_EDGE( '', *, *, #307, .T. );
#214 = CARTESIAN_POINT( '', ( 0.000000000000000, 0.000000000000000, 9.80000000000000 ) );
#215 = DIRECTION( '', ( 0.000000000000000, 0.000000000000000, 1.00000000000000 ) );
#216 = DIRECTION( '', ( 1.00000000000000, 0.000000000000000, 0.000000000000000 ) );
#217 = SURFACE_STYLE_FILL_AREA( #308 );
#218 = ORIENTED_EDGE( '', *, *, #309, .F. );
#219 = ORIENTED_EDGE( '', *, *, #296, .F. );
#220 = ORIENTED_EDGE( '', *, *, #310, .F. );
#221 = ORIENTED_EDGE( '', *, *, #307, .F. );
#222 = CARTESIAN_POINT( '', ( 0.000000000000000, 0.000000000000000, 9.80000000000000 ) );
#223 = DIRECTION( '', ( -0.000000000000000, 0.000000000000000, -1.00000000000000 ) );
#224 = DIRECTION( '', ( -1.00000000000000, 0.000000000000000, 0.000000000000000 ) );
#225 = SURFACE_STYLE_FILL_AREA( #311 );
#226 = ORIENTED_EDGE( '', *, *, #312, .T. );
#227 = ORIENTED_EDGE( '', *, *, #313, .T. );
#228 = ORIENTED_EDGE( '', *, *, #299, .F. );
#229 = ORIENTED_EDGE( '', *, *, #314, .F. );
#230 = ORIENTED_EDGE( '', *, *, #301, .F. );
#231 = ORIENTED_EDGE( '', *, *, #315, .T. );
#232 = CARTESIAN_POINT( '', ( 0.250000000000000, -10.0000000000000, 8.80000000000000 ) );
#233 = DIRECTION( '', ( -1.00000000000000, 0.000000000000000, 1.08420217248550E-016 ) );
#234 = DIRECTION( '', ( 1.08420217248550E-016, 0.000000000000000, 1.00000000000000 ) );
#235 = SURFACE_STYLE_FILL_AREA( #316 );
#236 = ORIENTED_EDGE( '', *, *, #306, .F. );
#237 = ORIENTED_EDGE( '', *, *, #310, .T. );
#238 = ORIENTED_EDGE( '', *, *, #295, .F. );
#239 = ORIENTED_EDGE( '', *, *, #317, .T. );
#240 = ORIENTED_EDGE( '', *, *, #297, .F. );
#241 = ORIENTED_EDGE( '', *, *, #309, .T. );
#242 = CARTESIAN_POINT( '', ( -0.250000000000000, -10.0000000000000, 9.80000000000000 ) );
#243 = DIRECTION( '', ( 1.00000000000000, 0.000000000000000, 1.08420217248550E-016 ) );
#244 = DIRECTION( '', ( 1.08420217248550E-016, 0.000000000000000, -1.00000000000000 ) );
#245 = SURFACE_STYLE_FILL_AREA( #318 );
#246 = ORIENTED_EDGE( '', *, *, #315, .F. );
#247 = ORIENTED_EDGE( '', *, *, #300, .F. );
#248 = ORIENTED_EDGE( '', *, *, #313, .F. );
#249 = ORIENTED_EDGE( '', *, *, #319, .F. );
#250 = CARTESIAN_POINT( '', ( 0.000000000000000, 0.000000000000000, 9.80000000000000 ) );
#251 = DIRECTION( '', ( -0.000000000000000, 0.000000000000000, -1.00000000000000 ) );
#252 = DIRECTION( '', ( -1.00000000000000, 0.000000000000000, 0.000000000000000 ) );
#253 = SURFACE_STYLE_FILL_AREA( #320 );
#254 = ORIENTED_EDGE( '', *, *, #321, .T. );
#255 = ORIENTED_EDGE( '', *, *, #291, .F. );
#256 = CARTESIAN_POINT( '', ( 1.50000000000000, 0.000000000000000, 0.800000000000000 ) );
#257 = DIRECTION( '', ( 0.000000000000000, 0.000000000000000, -1.00000000000000 ) );
#258 = DIRECTION( '', ( -1.00000000000000, 0.000000000000000, 0.000000000000000 ) );
#259 = SURFACE_STYLE_FILL_AREA( #322 );
#260 = ORIENTED_EDGE( '', *, *, #312, .F. );
#261 = ORIENTED_EDGE( '', *, *, #319, .T. );
#262 = CARTESIAN_POINT( '', ( 0.000000000000000, 0.000000000000000, 9.80000000000000 ) );
#263 = DIRECTION( '', ( 0.000000000000000, 0.000000000000000, 1.00000000000000 ) );
#264 = DIRECTION( '', ( 1.00000000000000, 0.000000000000000, 0.000000000000000 ) );
#265 = SURFACE_STYLE_FILL_AREA( #323 );
#266 = ORIENTED_EDGE( '', *, *, #314, .T. );
#267 = ORIENTED_EDGE( '', *, *, #298, .F. );
#268 = ORIENTED_EDGE( '', *, *, #317, .F. );
#269 = ORIENTED_EDGE( '', *, *, #302, .F. );
#270 = CARTESIAN_POINT( '', ( -0.250000000000000, -10.0000000000000, 8.80000000000000 ) );
#271 = DIRECTION( '', ( 0.000000000000000, 0.000000000000000, 1.00000000000000 ) );
#272 = DIRECTION( '', ( 1.00000000000000, 0.000000000000000, 0.000000000000000 ) );
#273 = SURFACE_STYLE_FILL_AREA( #324 );
#274 = ORIENTED_EDGE( '', *, *, #325, .T. );
#275 = ORIENTED_EDGE( '', *, *, #294, .F. );
#276 = CARTESIAN_POINT( '', ( 3.00000000000000, 0.000000000000000, 7.10000000000000 ) );
#277 = DIRECTION( '', ( 0.000000000000000, 0.000000000000000, -1.00000000000000 ) );
#278 = DIRECTION( '', ( -1.00000000000000, 0.000000000000000, 0.000000000000000 ) );
#279 = SURFACE_STYLE_FILL_AREA( #326 );
#280 = ORIENTED_EDGE( '', *, *, #321, .F. );
#281 = CARTESIAN_POINT( '', ( 0.000000000000000, 0.000000000000000, 1.25000000000000 ) );
#282 = DIRECTION( '', ( 0.000000000000000, 0.000000000000000, 1.00000000000000 ) );
#283 = DIRECTION( '', ( 1.00000000000000, 0.000000000000000, 0.000000000000000 ) );
#284 = SURFACE_STYLE_FILL_AREA( #327 );
#285 = ORIENTED_EDGE( '', *, *, #304, .T. );
#286 = ORIENTED_EDGE( '', *, *, #325, .F. );
#287 = CARTESIAN_POINT( '', ( 0.000000000000000, 0.000000000000000, 57.1500000000000 ) );
#288 = DIRECTION( '', ( -0.000000000000000, -0.000000000000000, -1.00000000000000 ) );
#289 = DIRECTION( '', ( 1.00000000000000, 0.000000000000000, 0.000000000000000 ) );
#290 = FILL_AREA_STYLE( '', ( #328 ) );
#291 = EDGE_CURVE( '', #329, #329, #330, .T. );
#292 = EDGE_CURVE( '', #331, #331, #332, .T. );
#293 = FILL_AREA_STYLE( '', ( #333 ) );
#294 = EDGE_CURVE( '', #334, #334, #335, .T. );
#295 = EDGE_CURVE( '', #336, #337, #338, .T. );
#296 = EDGE_CURVE( '', #337, #339, #340, .F. );
#297 = EDGE_CURVE( '', #339, #341, #342, .F. );
#298 = EDGE_CURVE( '', #341, #343, #344, .F. );
#299 = EDGE_CURVE( '', #343, #345, #346, .T. );
#300 = EDGE_CURVE( '', #345, #347, #348, .F. );
#301 = EDGE_CURVE( '', #347, #349, #350, .F. );
#302 = EDGE_CURVE( '', #349, #336, #351, .F. );
#303 = FILL_AREA_STYLE( '', ( #352 ) );
#304 = EDGE_CURVE( '', #353, #353, #354, .F. );
#305 = FILL_AREA_STYLE( '', ( #355 ) );
#306 = EDGE_CURVE( '', #356, #357, #358, .T. );
#307 = EDGE_CURVE( '', #357, #356, #359, .T. );
#308 = FILL_AREA_STYLE( '', ( #360 ) );
#309 = EDGE_CURVE( '', #339, #357, #361, .T. );
#310 = EDGE_CURVE( '', #356, #337, #362, .T. );
#311 = FILL_AREA_STYLE( '', ( #363 ) );
#312 = EDGE_CURVE( '', #364, #365, #366, .T. );
#313 = EDGE_CURVE( '', #365, #345, #367, .T. );
#314 = EDGE_CURVE( '', #349, #343, #368, .T. );
#315 = EDGE_CURVE( '', #347, #364, #369, .T. );
#316 = FILL_AREA_STYLE( '', ( #370 ) );
#317 = EDGE_CURVE( '', #336, #341, #371, .T. );
#318 = FILL_AREA_STYLE( '', ( #372 ) );
#319 = EDGE_CURVE( '', #364, #365, #373, .T. );
#320 = FILL_AREA_STYLE( '', ( #374 ) );
#321 = EDGE_CURVE( '', #375, #375, #376, .T. );
#322 = FILL_AREA_STYLE( '', ( #377 ) );
#323 = FILL_AREA_STYLE( '', ( #378 ) );
#324 = FILL_AREA_STYLE( '', ( #379 ) );
#325 = EDGE_CURVE( '', #380, #380, #381, .T. );
#326 = FILL_AREA_STYLE( '', ( #382 ) );
#327 = FILL_AREA_STYLE( '', ( #383 ) );
#328 = FILL_AREA_STYLE_COLOUR( '', #384 );
#329 = VERTEX_POINT( '', #385 );
#330 = CIRCLE( '', #386, 1.50000000000000 );
#331 = VERTEX_POINT( '', #387 );
#332 = CIRCLE( '', #388, 1.50000000000000 );
#333 = FILL_AREA_STYLE_COLOUR( '', #389 );
#334 = VERTEX_POINT( '', #390 );
#335 = CIRCLE( '', #391, 3.00000000000000 );
#336 = VERTEX_POINT( '', #392 );
#337 = VERTEX_POINT( '', #393 );
#338 = LINE( '', #394, #395 );
#339 = VERTEX_POINT( '', #396 );
#340 = CIRCLE( '', #397, 3.00000000000000 );
#341 = VERTEX_POINT( '', #398 );
#342 = LINE( '', #399, #400 );
#343 = VERTEX_POINT( '', #401 );
#344 = CIRCLE( '', #402, 3.00000000000000 );
#345 = VERTEX_POINT( '', #403 );
#346 = LINE( '', #404, #405 );
#347 = VERTEX_POINT( '', #406 );
#348 = CIRCLE( '', #407, 3.00000000000000 );
#349 = VERTEX_POINT( '', #408 );
#350 = LINE( '', #409, #410 );
#351 = CIRCLE( '', #411, 3.00000000000000 );
#352 = FILL_AREA_STYLE_COLOUR( '', #412 );
#353 = VERTEX_POINT( '', #413 );
#354 = CIRCLE( '', #414, 2.00000000000000 );
#355 = FILL_AREA_STYLE_COLOUR( '', #415 );
#356 = VERTEX_POINT( '', #416 );
#357 = VERTEX_POINT( '', #417 );
#358 = LINE( '', #418, #419 );
#359 = CIRCLE( '', #420, 2.80000000000000 );
#360 = FILL_AREA_STYLE_COLOUR( '', #421 );
#361 = B_SPLINE_CURVE_WITH_KNOTS( '', 3, ( #422, #423, #424, #425 ), .UNSPECIFIED., .F., .F., ( 4, 4 ), ( 0.000000000000000, 0.000283372286525985 ), .UNSPECIFIED. );
#362 = B_SPLINE_CURVE_WITH_KNOTS( '', 3, ( #426, #427, #428, #429 ), .UNSPECIFIED., .F., .F., ( 4, 4 ), ( 3.12731722069275E-018, 0.000283372286525988 ), .UNSPECIFIED. );
#363 = FILL_AREA_STYLE_COLOUR( '', #430 );
#364 = VERTEX_POINT( '', #431 );
#365 = VERTEX_POINT( '', #432 );
#366 = LINE( '', #433, #434 );
#367 = B_SPLINE_CURVE_WITH_KNOTS( '', 3, ( #435, #436, #437, #438 ), .UNSPECIFIED., .F., .F., ( 4, 4 ), ( 3.12731722069275E-018, 0.000283372286525988 ), .UNSPECIFIED. );
#368 = LINE( '', #439, #440 );
#369 = B_SPLINE_CURVE_WITH_KNOTS( '', 3, ( #441, #442, #443, #444 ), .UNSPECIFIED., .F., .F., ( 4, 4 ), ( 0.000000000000000, 0.000283372286525985 ), .UNSPECIFIED. );
#370 = FILL_AREA_STYLE_COLOUR( '', #445 );
#371 = LINE( '', #446, #447 );
#372 = FILL_AREA_STYLE_COLOUR( '', #448 );
#373 = CIRCLE( '', #449, 2.80000000000000 );
#374 = FILL_AREA_STYLE_COLOUR( '', #450 );
#375 = VERTEX_POINT( '', #451 );
#376 = CIRCLE( '', #452, 1.16619037896906 );
#377 = FILL_AREA_STYLE_COLOUR( '', #453 );
#378 = FILL_AREA_STYLE_COLOUR( '', #454 );
#379 = FILL_AREA_STYLE_COLOUR( '', #455 );
#380 = VERTEX_POINT( '', #456 );
#381 = CIRCLE( '', #457, 2.00000000000000 );
#382 = FILL_AREA_STYLE_COLOUR( '', #458 );
#383 = FILL_AREA_STYLE_COLOUR( '', #459 );
#384 = COLOUR_RGB( '', 0.200000002980232, 0.200000002980232, 0.200000002980232 );
#385 = CARTESIAN_POINT( '', ( 1.50000000000000, 0.000000000000000, 0.800000000000000 ) );
#386 = AXIS2_PLACEMENT_3D( '', #460, #461, #462 );
#387 = CARTESIAN_POINT( '', ( 1.50000000000000, 0.000000000000000, 1.80000000000000 ) );
#388 = AXIS2_PLACEMENT_3D( '', #463, #464, #465 );
#389 = COLOUR_RGB( '', 0.200000002980232, 0.200000002980232, 0.200000002980232 );
#390 = CARTESIAN_POINT( '', ( 3.00000000000000, 0.000000000000000, 7.10000000000000 ) );
#391 = AXIS2_PLACEMENT_3D( '', #466, #467, #468 );
#392 = CARTESIAN_POINT( '', ( -0.250000000000000, -2.98956518577535, 8.80000000000000 ) );
#393 = CARTESIAN_POINT( '', ( -0.250000000000006, -2.98956518577535, 9.60000000000000 ) );
#394 = CARTESIAN_POINT( '', ( -0.250000000000006, -2.98956518577535, 57.1500000000000 ) );
#395 = VECTOR( '', #469, 1000.00000000000 );
#396 = CARTESIAN_POINT( '', ( -0.250000000000006, 2.98956518577535, 9.60000000000000 ) );
#397 = AXIS2_PLACEMENT_3D( '', #470, #471, #472 );
#398 = CARTESIAN_POINT( '', ( -0.250000000000000, 2.98956518577535, 8.80000000000000 ) );
#399 = CARTESIAN_POINT( '', ( -0.250000000000006, 2.98956518577535, 57.1500000000000 ) );
#400 = VECTOR( '', #473, 1000.00000000000 );
#401 = CARTESIAN_POINT( '', ( 0.250000000000000, 2.98956518577535, 8.80000000000000 ) );
#402 = AXIS2_PLACEMENT_3D( '', #474, #475, #476 );
#403 = CARTESIAN_POINT( '', ( 0.250000000000006, 2.98956518577535, 9.60000000000000 ) );
#404 = CARTESIAN_POINT( '', ( 0.250000000000006, 2.98956518577535, 57.1500000000000 ) );
#405 = VECTOR( '', #477, 1000.00000000000 );
#406 = CARTESIAN_POINT( '', ( 0.250000000000006, -2.98956518577535, 9.60000000000000 ) );
#407 = AXIS2_PLACEMENT_3D( '', #478, #479, #480 );
#408 = CARTESIAN_POINT( '', ( 0.250000000000000, -2.98956518577535, 8.80000000000000 ) );
#409 = CARTESIAN_POINT( '', ( 0.250000000000006, -2.98956518577535, 57.1500000000000 ) );
#410 = VECTOR( '', #481, 1000.00000000000 );
#411 = AXIS2_PLACEMENT_3D( '', #482, #483, #484 );
#412 = COLOUR_RGB( '', 0.200000002980232, 0.200000002980232, 0.200000002980232 );
#413 = CARTESIAN_POINT( '', ( -2.00000000000000, 0.000000000000000, 2.30000000000000 ) );
#414 = AXIS2_PLACEMENT_3D( '', #485, #486, #487 );
#415 = COLOUR_RGB( '', 0.200000002980232, 0.200000002980232, 0.200000002980232 );
#416 = CARTESIAN_POINT( '', ( -0.250000000000000, -2.78881695347687, 9.80000000000000 ) );
#417 = CARTESIAN_POINT( '', ( -0.250000000000000, 2.78881695347687, 9.80000000000000 ) );
#418 = CARTESIAN_POINT( '', ( -0.250000000000000, -10.0000000000000, 9.80000000000000 ) );
#419 = VECTOR( '', #488, 1000.00000000000 );
#420 = AXIS2_PLACEMENT_3D( '', #489, #490, #491 );
#421 = COLOUR_RGB( '', 0.200000002980232, 0.200000002980232, 0.200000002980232 );
#422 = CARTESIAN_POINT( '', ( -0.250000000000006, 2.98956518577535, 9.60000000000000 ) );
#423 = CARTESIAN_POINT( '', ( -0.250000000000006, 2.92265743701353, 9.66667502545231 ) );
#424 = CARTESIAN_POINT( '', ( -0.250000000000000, 2.85574195562762, 9.73334229263947 ) );
#425 = CARTESIAN_POINT( '', ( -0.250000000000000, 2.78881695347687, 9.80000000000000 ) );
#426 = CARTESIAN_POINT( '', ( -0.250000000000000, -2.78881695347687, 9.80000000000000 ) );
#427 = CARTESIAN_POINT( '', ( -0.250000000000000, -2.85574195562762, 9.73334229263947 ) );
#428 = CARTESIAN_POINT( '', ( -0.250000000000000, -2.92265743701353, 9.66667502545231 ) );
#429 = CARTESIAN_POINT( '', ( -0.250000000000000, -2.98956518577535, 9.60000000000000 ) );
#430 = COLOUR_RGB( '', 0.200000002980232, 0.200000002980232, 0.200000002980232 );
#431 = CARTESIAN_POINT( '', ( 0.250000000000000, -2.78881695347687, 9.80000000000000 ) );
#432 = CARTESIAN_POINT( '', ( 0.250000000000000, 2.78881695347687, 9.80000000000000 ) );
#433 = CARTESIAN_POINT( '', ( 0.250000000000000, -10.0000000000000, 9.80000000000000 ) );
#434 = VECTOR( '', #492, 1000.00000000000 );
#435 = CARTESIAN_POINT( '', ( 0.250000000000000, 2.78881695347687, 9.80000000000000 ) );
#436 = CARTESIAN_POINT( '', ( 0.250000000000000, 2.85574195562762, 9.73334229263947 ) );
#437 = CARTESIAN_POINT( '', ( 0.250000000000000, 2.92265743701353, 9.66667502545231 ) );
#438 = CARTESIAN_POINT( '', ( 0.250000000000000, 2.98956518577535, 9.60000000000000 ) );
#439 = CARTESIAN_POINT( '', ( 0.250000000000000, -10.0000000000000, 8.80000000000000 ) );
#440 = VECTOR( '', #493, 1000.00000000000 );
#441 = CARTESIAN_POINT( '', ( 0.250000000000006, -2.98956518577535, 9.60000000000000 ) );
#442 = CARTESIAN_POINT( '', ( 0.250000000000006, -2.92265743701353, 9.66667502545231 ) );
#443 = CARTESIAN_POINT( '', ( 0.250000000000000, -2.85574195562762, 9.73334229263947 ) );
#444 = CARTESIAN_POINT( '', ( 0.250000000000000, -2.78881695347687, 9.80000000000000 ) );
#445 = COLOUR_RGB( '', 0.200000002980232, 0.200000002980232, 0.200000002980232 );
#446 = CARTESIAN_POINT( '', ( -0.250000000000000, -10.0000000000000, 8.80000000000000 ) );
#447 = VECTOR( '', #494, 1000.00000000000 );
#448 = COLOUR_RGB( '', 0.200000002980232, 0.200000002980232, 0.200000002980232 );
#449 = AXIS2_PLACEMENT_3D( '', #495, #496, #497 );
#450 = COLOUR_RGB( '', 0.200000002980232, 0.200000002980232, 0.200000002980232 );
#451 = CARTESIAN_POINT( '', ( 1.16619037896906, 0.000000000000000, 0.800000000000000 ) );
#452 = AXIS2_PLACEMENT_3D( '', #498, #499, #500 );
#453 = COLOUR_RGB( '', 0.200000002980232, 0.200000002980232, 0.200000002980232 );
#454 = COLOUR_RGB( '', 0.200000002980232, 0.200000002980232, 0.200000002980232 );
#455 = COLOUR_RGB( '', 0.200000002980232, 0.200000002980232, 0.200000002980232 );
#456 = CARTESIAN_POINT( '', ( 2.00000000000000, 0.000000000000000, 7.10000000000000 ) );
#457 = AXIS2_PLACEMENT_3D( '', #501, #502, #503 );
#458 = COLOUR_RGB( '', 0.200000002980232, 0.200000002980232, 0.200000002980232 );
#459 = COLOUR_RGB( '', 0.752941191196442, 0.752941191196442, 0.752941191196442 );
#460 = CARTESIAN_POINT( '', ( 0.000000000000000, 0.000000000000000, 0.800000000000000 ) );
#461 = DIRECTION( '', ( 0.000000000000000, 0.000000000000000, 1.00000000000000 ) );
#462 = DIRECTION( '', ( 1.00000000000000, 0.000000000000000, 0.000000000000000 ) );
#463 = CARTESIAN_POINT( '', ( 0.000000000000000, 0.000000000000000, 1.80000000000000 ) );
#464 = DIRECTION( '', ( 0.000000000000000, 0.000000000000000, 1.00000000000000 ) );
#465 = DIRECTION( '', ( 1.00000000000000, 0.000000000000000, 0.000000000000000 ) );
#466 = CARTESIAN_POINT( '', ( 0.000000000000000, 0.000000000000000, 7.10000000000000 ) );
#467 = DIRECTION( '', ( 0.000000000000000, 0.000000000000000, 1.00000000000000 ) );
#468 = DIRECTION( '', ( 1.00000000000000, 0.000000000000000, 0.000000000000000 ) );
#469 = DIRECTION( '', ( 0.000000000000000, 0.000000000000000, 1.00000000000000 ) );
#470 = CARTESIAN_POINT( '', ( 0.000000000000000, 0.000000000000000, 9.60000000000000 ) );
#471 = DIRECTION( '', ( 0.000000000000000, 0.000000000000000, 1.00000000000000 ) );
#472 = DIRECTION( '', ( 1.00000000000000, 0.000000000000000, 0.000000000000000 ) );
#473 = DIRECTION( '', ( 0.000000000000000, 0.000000000000000, 1.00000000000000 ) );
#474 = CARTESIAN_POINT( '', ( 0.000000000000000, 0.000000000000000, 8.80000000000000 ) );
#475 = DIRECTION( '', ( 0.000000000000000, 0.000000000000000, 1.00000000000000 ) );
#476 = DIRECTION( '', ( 1.00000000000000, 0.000000000000000, 0.000000000000000 ) );
#477 = DIRECTION( '', ( 0.000000000000000, 0.000000000000000, 1.00000000000000 ) );
#478 = CARTESIAN_POINT( '', ( 0.000000000000000, 0.000000000000000, 9.60000000000000 ) );
#479 = DIRECTION( '', ( 0.000000000000000, 0.000000000000000, 1.00000000000000 ) );
#480 = DIRECTION( '', ( 1.00000000000000, 0.000000000000000, 0.000000000000000 ) );
#481 = DIRECTION( '', ( 0.000000000000000, 0.000000000000000, 1.00000000000000 ) );
#482 = CARTESIAN_POINT( '', ( 0.000000000000000, 0.000000000000000, 8.80000000000000 ) );
#483 = DIRECTION( '', ( 0.000000000000000, 0.000000000000000, 1.00000000000000 ) );
#484 = DIRECTION( '', ( 1.00000000000000, 0.000000000000000, 0.000000000000000 ) );
#485 = CARTESIAN_POINT( '', ( 0.000000000000000, 0.000000000000000, 2.30000000000000 ) );
#486 = DIRECTION( '', ( 0.000000000000000, 0.000000000000000, -1.00000000000000 ) );
#487 = DIRECTION( '', ( -1.00000000000000, 0.000000000000000, 0.000000000000000 ) );
#488 = DIRECTION( '', ( 0.000000000000000, 1.00000000000000, 0.000000000000000 ) );
#489 = CARTESIAN_POINT( '', ( 0.000000000000000, 0.000000000000000, 9.80000000000000 ) );
#490 = DIRECTION( '', ( 0.000000000000000, 0.000000000000000, 1.00000000000000 ) );
#491 = DIRECTION( '', ( 1.00000000000000, 0.000000000000000, 0.000000000000000 ) );
#492 = DIRECTION( '', ( 0.000000000000000, 1.00000000000000, 0.000000000000000 ) );
#493 = DIRECTION( '', ( 0.000000000000000, 1.00000000000000, 0.000000000000000 ) );
#494 = DIRECTION( '', ( 0.000000000000000, 1.00000000000000, 0.000000000000000 ) );
#495 = CARTESIAN_POINT( '', ( 0.000000000000000, 0.000000000000000, 9.80000000000000 ) );
#496 = DIRECTION( '', ( 0.000000000000000, 0.000000000000000, 1.00000000000000 ) );
#497 = DIRECTION( '', ( 1.00000000000000, 0.000000000000000, 0.000000000000000 ) );
#498 = CARTESIAN_POINT( '', ( 0.000000000000000, 0.000000000000000, 0.800000000000000 ) );
#499 = DIRECTION( '', ( 0.000000000000000, 0.000000000000000, 1.00000000000000 ) );
#500 = DIRECTION( '', ( 1.00000000000000, 0.000000000000000, 0.000000000000000 ) );
#501 = CARTESIAN_POINT( '', ( 0.000000000000000, 0.000000000000000, 7.10000000000000 ) );
#502 = DIRECTION( '', ( 0.000000000000000, 0.000000000000000, 1.00000000000000 ) );
#503 = DIRECTION( '', ( 1.00000000000000, 0.000000000000000, 0.000000000000000 ) );
ENDSEC;
END-ISO-10303-21;
