ISO-10303-21;
HEADER;
FILE_DESCRIPTION( ( 'Unknown' ), '1' );
FILE_NAME( '//SBS2003/HD_Usb/Disegni/08_LIB/Users_3D/PROD_GAMM_3D/APVX/7747561_APVX_9.stp', 'Unknown', ( 'Unknown' ), ( 'Unknown' ), 'PSStep 14.0', 'Unknown', '  ' );
FILE_SCHEMA( ( 'AUTOMOTIVE_DESIGN { 1 0 10303 214 1 1 1 1 }' ) );
ENDSEC;
DATA;
#1 = MECHANICAL_DESIGN_GEOMETRIC_PRESENTATION_REPRESENTATION( ' ', ( #10, #11, #12, #13, #14, #15, #16, #17, #18, #19, #20, #21, #22, #23 ), #6 );
#2 = PRODUCT_DEFINITION_CONTEXT( '', #24, 'design' );
#3 = APPLICATION_PROTOCOL_DEFINITION( 'international standard', 'automotive_design', 2001, #24 );
#4 = PRODUCT_CATEGORY_RELATIONSHIP( 'NONE', 'NONE', #25, #26 );
#5 = SHAPE_DEFINITION_REPRESENTATION( #27, #28 );
#6 =  ( GEOMETRIC_REPRESENTATION_CONTEXT( 3 )GLOBAL_UNCERTAINTY_ASSIGNED_CONTEXT( ( #31 ) )GLOBAL_UNIT_ASSIGNED_CONTEXT( ( #33, #34, #35 ) )REPRESENTATION_CONTEXT( 'NONE', 'WORKSPACE' ) );
#10 = STYLED_ITEM( '', ( #37 ), #38 );
#11 = STYLED_ITEM( '', ( #39 ), #40 );
#12 = STYLED_ITEM( '', ( #41 ), #42 );
#13 = STYLED_ITEM( '', ( #43 ), #44 );
#14 = STYLED_ITEM( '', ( #45 ), #46 );
#15 = STYLED_ITEM( '', ( #47 ), #48 );
#16 = STYLED_ITEM( '', ( #49 ), #50 );
#17 = STYLED_ITEM( '', ( #51 ), #52 );
#18 = STYLED_ITEM( '', ( #53 ), #54 );
#19 = STYLED_ITEM( '', ( #55 ), #56 );
#20 = STYLED_ITEM( '', ( #57 ), #58 );
#21 = STYLED_ITEM( '', ( #59 ), #60 );
#22 = STYLED_ITEM( '', ( #61 ), #62 );
#23 = STYLED_ITEM( '', ( #63 ), #64 );
#24 = APPLICATION_CONTEXT( 'core data for automotive mechanical design processes' );
#25 = PRODUCT_CATEGORY( 'part', 'NONE' );
#26 = PRODUCT_RELATED_PRODUCT_CATEGORY( 'detail', ' ', ( #65 ) );
#27 = PRODUCT_DEFINITION_SHAPE( 'NONE', 'NONE', #66 );
#28 = ADVANCED_BREP_SHAPE_REPRESENTATION( '1', ( #67, #68 ), #6 );
#31 = UNCERTAINTY_MEASURE_WITH_UNIT( LENGTH_MEASURE( 0.00100000000000000 ), #33, '', '' );
#33 =  ( CONVERSION_BASED_UNIT( 'MILLIMETRE', #71 )LENGTH_UNIT(  )NAMED_UNIT( #74 ) );
#34 =  ( NAMED_UNIT( #76 )PLANE_ANGLE_UNIT(  )SI_UNIT( $, .RADIAN. ) );
#35 =  ( NAMED_UNIT( #76 )SI_UNIT( $, .STERADIAN. )SOLID_ANGLE_UNIT(  ) );
#37 = PRESENTATION_STYLE_ASSIGNMENT( ( #82 ) );
#38 = ADVANCED_FACE( '', ( #83 ), #84, .T. );
#39 = PRESENTATION_STYLE_ASSIGNMENT( ( #85 ) );
#40 = ADVANCED_FACE( '', ( #86 ), #87, .T. );
#41 = PRESENTATION_STYLE_ASSIGNMENT( ( #88 ) );
#42 = ADVANCED_FACE( '', ( #89 ), #90, .T. );
#43 = PRESENTATION_STYLE_ASSIGNMENT( ( #91 ) );
#44 = ADVANCED_FACE( '', ( #92, #93 ), #94, .T. );
#45 = PRESENTATION_STYLE_ASSIGNMENT( ( #95 ) );
#46 = ADVANCED_FACE( '', ( #96 ), #97, .T. );
#47 = PRESENTATION_STYLE_ASSIGNMENT( ( #98 ) );
#48 = ADVANCED_FACE( '', ( #99, #100 ), #101, .T. );
#49 = PRESENTATION_STYLE_ASSIGNMENT( ( #102 ) );
#50 = ADVANCED_FACE( '', ( #103 ), #104, .T. );
#51 = PRESENTATION_STYLE_ASSIGNMENT( ( #105 ) );
#52 = ADVANCED_FACE( '', ( #106, #107 ), #108, .T. );
#53 = PRESENTATION_STYLE_ASSIGNMENT( ( #109 ) );
#54 = ADVANCED_FACE( '', ( #110 ), #111, .T. );
#55 = PRESENTATION_STYLE_ASSIGNMENT( ( #112 ) );
#56 = ADVANCED_FACE( '', ( #113, #114 ), #115, .T. );
#57 = PRESENTATION_STYLE_ASSIGNMENT( ( #116 ) );
#58 = ADVANCED_FACE( '', ( #117 ), #118, .T. );
#59 = PRESENTATION_STYLE_ASSIGNMENT( ( #119 ) );
#60 = ADVANCED_FACE( '', ( #120 ), #121, .T. );
#61 = PRESENTATION_STYLE_ASSIGNMENT( ( #122 ) );
#62 = ADVANCED_FACE( '', ( #123, #124 ), #125, .T. );
#63 = PRESENTATION_STYLE_ASSIGNMENT( ( #126 ) );
#64 = ADVANCED_FACE( '', ( #127, #128 ), #129, .T. );
#65 = PRODUCT( '1', '1', 'PART-1-DESC', ( #130 ) );
#66 = PRODUCT_DEFINITION( 'NONE', 'NONE', #131, #2 );
#67 = MANIFOLD_SOLID_BREP( '1', #132 );
#68 = AXIS2_PLACEMENT_3D( '', #133, #134, #135 );
#71 = LENGTH_MEASURE_WITH_UNIT( LENGTH_MEASURE( 1.00000000000000 ), #136 );
#74 = DIMENSIONAL_EXPONENTS( 1.00000000000000, 0.000000000000000, 0.000000000000000, 0.000000000000000, 0.000000000000000, 0.000000000000000, 0.000000000000000 );
#76 = DIMENSIONAL_EXPONENTS( 0.000000000000000, 0.000000000000000, 0.000000000000000, 0.000000000000000, 0.000000000000000, 0.000000000000000, 0.000000000000000 );
#82 = SURFACE_STYLE_USAGE( .BOTH., #137 );
#83 = FACE_OUTER_BOUND( '', #138, .T. );
#84 = CONICAL_SURFACE( '', #139, 2.80000000000000, 0.785398163397452 );
#85 = SURFACE_STYLE_USAGE( .BOTH., #140 );
#86 = FACE_OUTER_BOUND( '', #141, .T. );
#87 = CONICAL_SURFACE( '', #142, 2.80000000000000, 0.785398163397452 );
#88 = SURFACE_STYLE_USAGE( .BOTH., #143 );
#89 = FACE_OUTER_BOUND( '', #144, .T. );
#90 = PLANE( '', #145 );
#91 = SURFACE_STYLE_USAGE( .BOTH., #146 );
#92 = FACE_OUTER_BOUND( '', #147, .T. );
#93 = FACE_OUTER_BOUND( '', #148, .T. );
#94 = CYLINDRICAL_SURFACE( '', #149, 2.00000000000000 );
#95 = SURFACE_STYLE_USAGE( .BOTH., #150 );
#96 = FACE_OUTER_BOUND( '', #151, .T. );
#97 = PLANE( '', #152 );
#98 = SURFACE_STYLE_USAGE( .BOTH., #153 );
#99 = FACE_BOUND( '', #154, .T. );
#100 = FACE_OUTER_BOUND( '', #155, .T. );
#101 = CONICAL_SURFACE( '', #156, 2.00000000000000, 0.785398163397448 );
#102 = SURFACE_STYLE_USAGE( .BOTH., #157 );
#103 = FACE_OUTER_BOUND( '', #158, .T. );
#104 = PLANE( '', #159 );
#105 = SURFACE_STYLE_USAGE( .BOTH., #160 );
#106 = FACE_BOUND( '', #161, .T. );
#107 = FACE_OUTER_BOUND( '', #162, .T. );
#108 = PLANE( '', #163 );
#109 = SURFACE_STYLE_USAGE( .BOTH., #164 );
#110 = FACE_OUTER_BOUND( '', #165, .T. );
#111 = PLANE( '', #166 );
#112 = SURFACE_STYLE_USAGE( .BOTH., #167 );
#113 = FACE_OUTER_BOUND( '', #168, .T. );
#114 = FACE_OUTER_BOUND( '', #169, .T. );
#115 = CYLINDRICAL_SURFACE( '', #170, 3.00000000000000 );
#116 = SURFACE_STYLE_USAGE( .BOTH., #171 );
#117 = FACE_OUTER_BOUND( '', #172, .T. );
#118 = PLANE( '', #173 );
#119 = SURFACE_STYLE_USAGE( .BOTH., #174 );
#120 = FACE_OUTER_BOUND( '', #175, .T. );
#121 = SPHERICAL_SURFACE( '', #176, 1.25000000000000 );
#122 = SURFACE_STYLE_USAGE( .BOTH., #177 );
#123 = FACE_BOUND( '', #178, .T. );
#124 = FACE_OUTER_BOUND( '', #179, .T. );
#125 = PLANE( '', #180 );
#126 = SURFACE_STYLE_USAGE( .BOTH., #181 );
#127 = FACE_OUTER_BOUND( '', #182, .T. );
#128 = FACE_OUTER_BOUND( '', #183, .T. );
#129 = CYLINDRICAL_SURFACE( '', #184, 1.50000000000000 );
#130 = PRODUCT_CONTEXT( '', #24, 'mechanical' );
#131 = PRODUCT_DEFINITION_FORMATION_WITH_SPECIFIED_SOURCE( ' ', 'NONE', #65, .NOT_KNOWN. );
#132 = CLOSED_SHELL( '', ( #46, #48, #56, #58, #42, #50, #40, #38, #60, #54, #52, #44, #64, #62 ) );
#133 = CARTESIAN_POINT( '', ( 0.000000000000000, 0.000000000000000, 0.000000000000000 ) );
#134 = DIRECTION( '', ( 0.000000000000000, 0.000000000000000, 1.00000000000000 ) );
#135 = DIRECTION( '', ( 1.00000000000000, 0.000000000000000, 0.000000000000000 ) );
#136 =  ( LENGTH_UNIT(  )NAMED_UNIT( #74 )SI_UNIT( .MILLI., .METRE. ) );
#137 = SURFACE_SIDE_STYLE( '', ( #186 ) );
#138 = EDGE_LOOP( '', ( #187, #188, #189, #190 ) );
#139 = AXIS2_PLACEMENT_3D( '', #191, #192, #193 );
#140 = SURFACE_SIDE_STYLE( '', ( #194 ) );
#141 = EDGE_LOOP( '', ( #195, #196, #197, #198 ) );
#142 = AXIS2_PLACEMENT_3D( '', #199, #200, #201 );
#143 = SURFACE_SIDE_STYLE( '', ( #202 ) );
#144 = EDGE_LOOP( '', ( #203, #204, #205, #206, #207, #208 ) );
#145 = AXIS2_PLACEMENT_3D( '', #209, #210, #211 );
#146 = SURFACE_SIDE_STYLE( '', ( #212 ) );
#147 = EDGE_LOOP( '', ( #213 ) );
#148 = EDGE_LOOP( '', ( #214 ) );
#149 = AXIS2_PLACEMENT_3D( '', #215, #216, #217 );
#150 = SURFACE_SIDE_STYLE( '', ( #218 ) );
#151 = EDGE_LOOP( '', ( #219, #220 ) );
#152 = AXIS2_PLACEMENT_3D( '', #221, #222, #223 );
#153 = SURFACE_SIDE_STYLE( '', ( #224 ) );
#154 = EDGE_LOOP( '', ( #225 ) );
#155 = EDGE_LOOP( '', ( #226 ) );
#156 = AXIS2_PLACEMENT_3D( '', #227, #228, #229 );
#157 = SURFACE_SIDE_STYLE( '', ( #230 ) );
#158 = EDGE_LOOP( '', ( #231, #232, #233, #234, #235, #236 ) );
#159 = AXIS2_PLACEMENT_3D( '', #237, #238, #239 );
#160 = SURFACE_SIDE_STYLE( '', ( #240 ) );
#161 = EDGE_LOOP( '', ( #241 ) );
#162 = EDGE_LOOP( '', ( #242 ) );
#163 = AXIS2_PLACEMENT_3D( '', #243, #244, #245 );
#164 = SURFACE_SIDE_STYLE( '', ( #246 ) );
#165 = EDGE_LOOP( '', ( #247, #248 ) );
#166 = AXIS2_PLACEMENT_3D( '', #249, #250, #251 );
#167 = SURFACE_SIDE_STYLE( '', ( #252 ) );
#168 = EDGE_LOOP( '', ( #253 ) );
#169 = EDGE_LOOP( '', ( #254, #255, #256, #257, #258, #259, #260, #261 ) );
#170 = AXIS2_PLACEMENT_3D( '', #262, #263, #264 );
#171 = SURFACE_SIDE_STYLE( '', ( #265 ) );
#172 = EDGE_LOOP( '', ( #266, #267, #268, #269 ) );
#173 = AXIS2_PLACEMENT_3D( '', #270, #271, #272 );
#174 = SURFACE_SIDE_STYLE( '', ( #273 ) );
#175 = EDGE_LOOP( '', ( #274 ) );
#176 = AXIS2_PLACEMENT_3D( '', #275, #276, #277 );
#177 = SURFACE_SIDE_STYLE( '', ( #278 ) );
#178 = EDGE_LOOP( '', ( #279 ) );
#179 = EDGE_LOOP( '', ( #280 ) );
#180 = AXIS2_PLACEMENT_3D( '', #281, #282, #283 );
#181 = SURFACE_SIDE_STYLE( '', ( #284 ) );
#182 = EDGE_LOOP( '', ( #285 ) );
#183 = EDGE_LOOP( '', ( #286 ) );
#184 = AXIS2_PLACEMENT_3D( '', #287, #288, #289 );
#186 = SURFACE_STYLE_FILL_AREA( #290 );
#187 = ORIENTED_EDGE( '', *, *, #291, .F. );
#188 = ORIENTED_EDGE( '', *, *, #292, .F. );
#189 = ORIENTED_EDGE( '', *, *, #293, .F. );
#190 = ORIENTED_EDGE( '', *, *, #294, .F. );
#191 = CARTESIAN_POINT( '', ( 0.000000000000000, 0.000000000000000, 9.80000000000000 ) );
#192 = DIRECTION( '', ( -0.000000000000000, 0.000000000000000, -1.00000000000000 ) );
#193 = DIRECTION( '', ( -1.00000000000000, 0.000000000000000, 0.000000000000000 ) );
#194 = SURFACE_STYLE_FILL_AREA( #295 );
#195 = ORIENTED_EDGE( '', *, *, #296, .F. );
#196 = ORIENTED_EDGE( '', *, *, #297, .F. );
#197 = ORIENTED_EDGE( '', *, *, #298, .F. );
#198 = ORIENTED_EDGE( '', *, *, #299, .F. );
#199 = CARTESIAN_POINT( '', ( 0.000000000000000, 0.000000000000000, 9.80000000000000 ) );
#200 = DIRECTION( '', ( -0.000000000000000, 0.000000000000000, -1.00000000000000 ) );
#201 = DIRECTION( '', ( -1.00000000000000, 0.000000000000000, 0.000000000000000 ) );
#202 = SURFACE_STYLE_FILL_AREA( #300 );
#203 = ORIENTED_EDGE( '', *, *, #301, .T. );
#204 = ORIENTED_EDGE( '', *, *, #293, .T. );
#205 = ORIENTED_EDGE( '', *, *, #302, .F. );
#206 = ORIENTED_EDGE( '', *, *, #303, .F. );
#207 = ORIENTED_EDGE( '', *, *, #304, .F. );
#208 = ORIENTED_EDGE( '', *, *, #291, .T. );
#209 = CARTESIAN_POINT( '', ( 0.250000000000000, -10.0000000000000, 8.80000000000000 ) );
#210 = DIRECTION( '', ( -1.00000000000000, 0.000000000000000, 1.08420217248550E-016 ) );
#211 = DIRECTION( '', ( 1.08420217248550E-016, 0.000000000000000, 1.00000000000000 ) );
#212 = SURFACE_STYLE_FILL_AREA( #305 );
#213 = ORIENTED_EDGE( '', *, *, #306, .T. );
#214 = ORIENTED_EDGE( '', *, *, #307, .F. );
#215 = CARTESIAN_POINT( '', ( 0.000000000000000, 0.000000000000000, 57.1500000000000 ) );
#216 = DIRECTION( '', ( -0.000000000000000, -0.000000000000000, -1.00000000000000 ) );
#217 = DIRECTION( '', ( 1.00000000000000, 0.000000000000000, 0.000000000000000 ) );
#218 = SURFACE_STYLE_FILL_AREA( #308 );
#219 = ORIENTED_EDGE( '', *, *, #309, .T. );
#220 = ORIENTED_EDGE( '', *, *, #299, .T. );
#221 = CARTESIAN_POINT( '', ( 0.000000000000000, 0.000000000000000, 9.80000000000000 ) );
#222 = DIRECTION( '', ( 0.000000000000000, 0.000000000000000, 1.00000000000000 ) );
#223 = DIRECTION( '', ( 1.00000000000000, 0.000000000000000, 0.000000000000000 ) );
#224 = SURFACE_STYLE_FILL_AREA( #310 );
#225 = ORIENTED_EDGE( '', *, *, #311, .T. );
#226 = ORIENTED_EDGE( '', *, *, #306, .F. );
#227 = CARTESIAN_POINT( '', ( 0.000000000000000, 0.000000000000000, 2.30000000000000 ) );
#228 = DIRECTION( '', ( -0.000000000000000, -0.000000000000000, 1.00000000000000 ) );
#229 = DIRECTION( '', ( 1.00000000000000, 0.000000000000000, 0.000000000000000 ) );
#230 = SURFACE_STYLE_FILL_AREA( #312 );
#231 = ORIENTED_EDGE( '', *, *, #309, .F. );
#232 = ORIENTED_EDGE( '', *, *, #298, .T. );
#233 = ORIENTED_EDGE( '', *, *, #313, .F. );
#234 = ORIENTED_EDGE( '', *, *, #314, .T. );
#235 = ORIENTED_EDGE( '', *, *, #315, .F. );
#236 = ORIENTED_EDGE( '', *, *, #296, .T. );
#237 = CARTESIAN_POINT( '', ( -0.250000000000000, -10.0000000000000, 9.80000000000000 ) );
#238 = DIRECTION( '', ( 1.00000000000000, 0.000000000000000, 1.08420217248550E-016 ) );
#239 = DIRECTION( '', ( 1.08420217248550E-016, 0.000000000000000, -1.00000000000000 ) );
#240 = SURFACE_STYLE_FILL_AREA( #316 );
#241 = ORIENTED_EDGE( '', *, *, #307, .T. );
#242 = ORIENTED_EDGE( '', *, *, #317, .F. );
#243 = CARTESIAN_POINT( '', ( 3.00000000000000, 0.000000000000000, 7.10000000000000 ) );
#244 = DIRECTION( '', ( 0.000000000000000, 0.000000000000000, -1.00000000000000 ) );
#245 = DIRECTION( '', ( -1.00000000000000, 0.000000000000000, 0.000000000000000 ) );
#246 = SURFACE_STYLE_FILL_AREA( #318 );
#247 = ORIENTED_EDGE( '', *, *, #301, .F. );
#248 = ORIENTED_EDGE( '', *, *, #294, .T. );
#249 = CARTESIAN_POINT( '', ( 0.000000000000000, 0.000000000000000, 9.80000000000000 ) );
#250 = DIRECTION( '', ( 0.000000000000000, 0.000000000000000, 1.00000000000000 ) );
#251 = DIRECTION( '', ( 1.00000000000000, 0.000000000000000, 0.000000000000000 ) );
#252 = SURFACE_STYLE_FILL_AREA( #319 );
#253 = ORIENTED_EDGE( '', *, *, #317, .T. );
#254 = ORIENTED_EDGE( '', *, *, #313, .T. );
#255 = ORIENTED_EDGE( '', *, *, #297, .T. );
#256 = ORIENTED_EDGE( '', *, *, #315, .T. );
#257 = ORIENTED_EDGE( '', *, *, #320, .T. );
#258 = ORIENTED_EDGE( '', *, *, #302, .T. );
#259 = ORIENTED_EDGE( '', *, *, #292, .T. );
#260 = ORIENTED_EDGE( '', *, *, #304, .T. );
#261 = ORIENTED_EDGE( '', *, *, #321, .T. );
#262 = CARTESIAN_POINT( '', ( 0.000000000000000, 0.000000000000000, 57.1500000000000 ) );
#263 = DIRECTION( '', ( -0.000000000000000, -0.000000000000000, -1.00000000000000 ) );
#264 = DIRECTION( '', ( 1.00000000000000, 0.000000000000000, 0.000000000000000 ) );
#265 = SURFACE_STYLE_FILL_AREA( #322 );
#266 = ORIENTED_EDGE( '', *, *, #303, .T. );
#267 = ORIENTED_EDGE( '', *, *, #320, .F. );
#268 = ORIENTED_EDGE( '', *, *, #314, .F. );
#269 = ORIENTED_EDGE( '', *, *, #321, .F. );
#270 = CARTESIAN_POINT( '', ( -0.250000000000000, -10.0000000000000, 8.80000000000000 ) );
#271 = DIRECTION( '', ( 0.000000000000000, 0.000000000000000, 1.00000000000000 ) );
#272 = DIRECTION( '', ( 1.00000000000000, 0.000000000000000, 0.000000000000000 ) );
#273 = SURFACE_STYLE_FILL_AREA( #323 );
#274 = ORIENTED_EDGE( '', *, *, #324, .F. );
#275 = CARTESIAN_POINT( '', ( 0.000000000000000, 0.000000000000000, 1.25000000000000 ) );
#276 = DIRECTION( '', ( 0.000000000000000, 0.000000000000000, 1.00000000000000 ) );
#277 = DIRECTION( '', ( 1.00000000000000, 0.000000000000000, 0.000000000000000 ) );
#278 = SURFACE_STYLE_FILL_AREA( #325 );
#279 = ORIENTED_EDGE( '', *, *, #324, .T. );
#280 = ORIENTED_EDGE( '', *, *, #326, .F. );
#281 = CARTESIAN_POINT( '', ( 1.50000000000000, 0.000000000000000, 0.800000000000000 ) );
#282 = DIRECTION( '', ( 0.000000000000000, 0.000000000000000, -1.00000000000000 ) );
#283 = DIRECTION( '', ( -1.00000000000000, 0.000000000000000, 0.000000000000000 ) );
#284 = SURFACE_STYLE_FILL_AREA( #327 );
#285 = ORIENTED_EDGE( '', *, *, #326, .T. );
#286 = ORIENTED_EDGE( '', *, *, #311, .F. );
#287 = CARTESIAN_POINT( '', ( 0.000000000000000, 0.000000000000000, 57.1500000000000 ) );
#288 = DIRECTION( '', ( -0.000000000000000, -0.000000000000000, -1.00000000000000 ) );
#289 = DIRECTION( '', ( 1.00000000000000, 0.000000000000000, 0.000000000000000 ) );
#290 = FILL_AREA_STYLE( '', ( #328 ) );
#291 = EDGE_CURVE( '', #329, #330, #331, .T. );
#292 = EDGE_CURVE( '', #332, #329, #333, .F. );
#293 = EDGE_CURVE( '', #334, #332, #335, .T. );
#294 = EDGE_CURVE( '', #330, #334, #336, .T. );
#295 = FILL_AREA_STYLE( '', ( #337 ) );
#296 = EDGE_CURVE( '', #338, #339, #340, .T. );
#297 = EDGE_CURVE( '', #341, #338, #342, .F. );
#298 = EDGE_CURVE( '', #343, #341, #344, .T. );
#299 = EDGE_CURVE( '', #339, #343, #345, .T. );
#300 = FILL_AREA_STYLE( '', ( #346 ) );
#301 = EDGE_CURVE( '', #330, #334, #347, .T. );
#302 = EDGE_CURVE( '', #348, #332, #349, .T. );
#303 = EDGE_CURVE( '', #350, #348, #351, .T. );
#304 = EDGE_CURVE( '', #329, #350, #352, .F. );
#305 = FILL_AREA_STYLE( '', ( #353 ) );
#306 = EDGE_CURVE( '', #354, #354, #355, .F. );
#307 = EDGE_CURVE( '', #356, #356, #357, .T. );
#308 = FILL_AREA_STYLE( '', ( #358 ) );
#309 = EDGE_CURVE( '', #343, #339, #359, .T. );
#310 = FILL_AREA_STYLE( '', ( #360 ) );
#311 = EDGE_CURVE( '', #361, #361, #362, .T. );
#312 = FILL_AREA_STYLE( '', ( #363 ) );
#313 = EDGE_CURVE( '', #364, #341, #365, .T. );
#314 = EDGE_CURVE( '', #364, #366, #367, .T. );
#315 = EDGE_CURVE( '', #338, #366, #368, .F. );
#316 = FILL_AREA_STYLE( '', ( #369 ) );
#317 = EDGE_CURVE( '', #370, #370, #371, .T. );
#318 = FILL_AREA_STYLE( '', ( #372 ) );
#319 = FILL_AREA_STYLE( '', ( #373 ) );
#320 = EDGE_CURVE( '', #366, #348, #374, .F. );
#321 = EDGE_CURVE( '', #350, #364, #375, .F. );
#322 = FILL_AREA_STYLE( '', ( #376 ) );
#323 = FILL_AREA_STYLE( '', ( #377 ) );
#324 = EDGE_CURVE( '', #378, #378, #379, .T. );
#325 = FILL_AREA_STYLE( '', ( #380 ) );
#326 = EDGE_CURVE( '', #381, #381, #382, .T. );
#327 = FILL_AREA_STYLE( '', ( #383 ) );
#328 = FILL_AREA_STYLE_COLOUR( '', #384 );
#329 = VERTEX_POINT( '', #385 );
#330 = VERTEX_POINT( '', #386 );
#331 = B_SPLINE_CURVE_WITH_KNOTS( '', 3, ( #387, #388, #389, #390 ), .UNSPECIFIED., .F., .F., ( 4, 4 ), ( 0.000000000000000, 0.000283372286525985 ), .UNSPECIFIED. );
#332 = VERTEX_POINT( '', #391 );
#333 = CIRCLE( '', #392, 3.00000000000000 );
#334 = VERTEX_POINT( '', #393 );
#335 = B_SPLINE_CURVE_WITH_KNOTS( '', 3, ( #394, #395, #396, #397 ), .UNSPECIFIED., .F., .F., ( 4, 4 ), ( 3.12731722069275E-018, 0.000283372286525988 ), .UNSPECIFIED. );
#336 = CIRCLE( '', #398, 2.80000000000000 );
#337 = FILL_AREA_STYLE_COLOUR( '', #399 );
#338 = VERTEX_POINT( '', #400 );
#339 = VERTEX_POINT( '', #401 );
#340 = B_SPLINE_CURVE_WITH_KNOTS( '', 3, ( #402, #403, #404, #405 ), .UNSPECIFIED., .F., .F., ( 4, 4 ), ( 0.000000000000000, 0.000283372286525985 ), .UNSPECIFIED. );
#341 = VERTEX_POINT( '', #406 );
#342 = CIRCLE( '', #407, 3.00000000000000 );
#343 = VERTEX_POINT( '', #408 );
#344 = B_SPLINE_CURVE_WITH_KNOTS( '', 3, ( #409, #410, #411, #412 ), .UNSPECIFIED., .F., .F., ( 4, 4 ), ( 3.12731722069275E-018, 0.000283372286525988 ), .UNSPECIFIED. );
#345 = CIRCLE( '', #413, 2.80000000000000 );
#346 = FILL_AREA_STYLE_COLOUR( '', #414 );
#347 = LINE( '', #415, #416 );
#348 = VERTEX_POINT( '', #417 );
#349 = LINE( '', #418, #419 );
#350 = VERTEX_POINT( '', #420 );
#351 = LINE( '', #421, #422 );
#352 = LINE( '', #423, #424 );
#353 = FILL_AREA_STYLE_COLOUR( '', #425 );
#354 = VERTEX_POINT( '', #426 );
#355 = CIRCLE( '', #427, 2.00000000000000 );
#356 = VERTEX_POINT( '', #428 );
#357 = CIRCLE( '', #429, 2.00000000000000 );
#358 = FILL_AREA_STYLE_COLOUR( '', #430 );
#359 = LINE( '', #431, #432 );
#360 = FILL_AREA_STYLE_COLOUR( '', #433 );
#361 = VERTEX_POINT( '', #434 );
#362 = CIRCLE( '', #435, 1.50000000000000 );
#363 = FILL_AREA_STYLE_COLOUR( '', #436 );
#364 = VERTEX_POINT( '', #437 );
#365 = LINE( '', #438, #439 );
#366 = VERTEX_POINT( '', #440 );
#367 = LINE( '', #441, #442 );
#368 = LINE( '', #443, #444 );
#369 = FILL_AREA_STYLE_COLOUR( '', #445 );
#370 = VERTEX_POINT( '', #446 );
#371 = CIRCLE( '', #447, 3.00000000000000 );
#372 = FILL_AREA_STYLE_COLOUR( '', #448 );
#373 = FILL_AREA_STYLE_COLOUR( '', #449 );
#374 = CIRCLE( '', #450, 3.00000000000000 );
#375 = CIRCLE( '', #451, 3.00000000000000 );
#376 = FILL_AREA_STYLE_COLOUR( '', #452 );
#377 = FILL_AREA_STYLE_COLOUR( '', #453 );
#378 = VERTEX_POINT( '', #454 );
#379 = CIRCLE( '', #455, 1.16619037896906 );
#380 = FILL_AREA_STYLE_COLOUR( '', #456 );
#381 = VERTEX_POINT( '', #457 );
#382 = CIRCLE( '', #458, 1.50000000000000 );
#383 = FILL_AREA_STYLE_COLOUR( '', #459 );
#384 = COLOUR_RGB( '', 0.800000011920929, 0.800000011920929, 0.800000011920929 );
#385 = CARTESIAN_POINT( '', ( 0.250000000000006, -2.98956518577535, 9.60000000000000 ) );
#386 = CARTESIAN_POINT( '', ( 0.250000000000000, -2.78881695347687, 9.80000000000000 ) );
#387 = CARTESIAN_POINT( '', ( 0.250000000000006, -2.98956518577535, 9.60000000000000 ) );
#388 = CARTESIAN_POINT( '', ( 0.250000000000006, -2.92265743701353, 9.66667502545231 ) );
#389 = CARTESIAN_POINT( '', ( 0.250000000000000, -2.85574195562762, 9.73334229263947 ) );
#390 = CARTESIAN_POINT( '', ( 0.250000000000000, -2.78881695347687, 9.80000000000000 ) );
#391 = CARTESIAN_POINT( '', ( 0.250000000000006, 2.98956518577535, 9.60000000000000 ) );
#392 = AXIS2_PLACEMENT_3D( '', #460, #461, #462 );
#393 = CARTESIAN_POINT( '', ( 0.250000000000000, 2.78881695347687, 9.80000000000000 ) );
#394 = CARTESIAN_POINT( '', ( 0.250000000000000, 2.78881695347687, 9.80000000000000 ) );
#395 = CARTESIAN_POINT( '', ( 0.250000000000000, 2.85574195562762, 9.73334229263947 ) );
#396 = CARTESIAN_POINT( '', ( 0.250000000000000, 2.92265743701353, 9.66667502545231 ) );
#397 = CARTESIAN_POINT( '', ( 0.250000000000000, 2.98956518577535, 9.60000000000000 ) );
#398 = AXIS2_PLACEMENT_3D( '', #463, #464, #465 );
#399 = COLOUR_RGB( '', 0.800000011920929, 0.800000011920929, 0.800000011920929 );
#400 = CARTESIAN_POINT( '', ( -0.250000000000006, 2.98956518577535, 9.60000000000000 ) );
#401 = CARTESIAN_POINT( '', ( -0.250000000000000, 2.78881695347687, 9.80000000000000 ) );
#402 = CARTESIAN_POINT( '', ( -0.250000000000006, 2.98956518577535, 9.60000000000000 ) );
#403 = CARTESIAN_POINT( '', ( -0.250000000000006, 2.92265743701353, 9.66667502545231 ) );
#404 = CARTESIAN_POINT( '', ( -0.250000000000000, 2.85574195562762, 9.73334229263947 ) );
#405 = CARTESIAN_POINT( '', ( -0.250000000000000, 2.78881695347687, 9.80000000000000 ) );
#406 = CARTESIAN_POINT( '', ( -0.250000000000006, -2.98956518577535, 9.60000000000000 ) );
#407 = AXIS2_PLACEMENT_3D( '', #466, #467, #468 );
#408 = CARTESIAN_POINT( '', ( -0.250000000000000, -2.78881695347687, 9.80000000000000 ) );
#409 = CARTESIAN_POINT( '', ( -0.250000000000000, -2.78881695347687, 9.80000000000000 ) );
#410 = CARTESIAN_POINT( '', ( -0.250000000000000, -2.85574195562762, 9.73334229263947 ) );
#411 = CARTESIAN_POINT( '', ( -0.250000000000000, -2.92265743701353, 9.66667502545231 ) );
#412 = CARTESIAN_POINT( '', ( -0.250000000000000, -2.98956518577535, 9.60000000000000 ) );
#413 = AXIS2_PLACEMENT_3D( '', #469, #470, #471 );
#414 = COLOUR_RGB( '', 0.800000011920929, 0.800000011920929, 0.800000011920929 );
#415 = CARTESIAN_POINT( '', ( 0.250000000000000, -10.0000000000000, 9.80000000000000 ) );
#416 = VECTOR( '', #472, 1000.00000000000 );
#417 = CARTESIAN_POINT( '', ( 0.250000000000000, 2.98956518577535, 8.80000000000000 ) );
#418 = CARTESIAN_POINT( '', ( 0.250000000000006, 2.98956518577535, 57.1500000000000 ) );
#419 = VECTOR( '', #473, 1000.00000000000 );
#420 = CARTESIAN_POINT( '', ( 0.250000000000000, -2.98956518577535, 8.80000000000000 ) );
#421 = CARTESIAN_POINT( '', ( 0.250000000000000, -10.0000000000000, 8.80000000000000 ) );
#422 = VECTOR( '', #474, 1000.00000000000 );
#423 = CARTESIAN_POINT( '', ( 0.250000000000006, -2.98956518577535, 57.1500000000000 ) );
#424 = VECTOR( '', #475, 1000.00000000000 );
#425 = COLOUR_RGB( '', 0.752941191196442, 0.752941191196442, 0.752941191196442 );
#426 = CARTESIAN_POINT( '', ( -2.00000000000000, 0.000000000000000, 2.30000000000000 ) );
#427 = AXIS2_PLACEMENT_3D( '', #476, #477, #478 );
#428 = CARTESIAN_POINT( '', ( 2.00000000000000, 0.000000000000000, 7.10000000000000 ) );
#429 = AXIS2_PLACEMENT_3D( '', #479, #480, #481 );
#430 = COLOUR_RGB( '', 0.800000011920929, 0.800000011920929, 0.800000011920929 );
#431 = CARTESIAN_POINT( '', ( -0.250000000000000, -10.0000000000000, 9.80000000000000 ) );
#432 = VECTOR( '', #482, 1000.00000000000 );
#433 = COLOUR_RGB( '', 0.800000011920929, 0.800000011920929, 0.800000011920929 );
#434 = CARTESIAN_POINT( '', ( 1.50000000000000, 0.000000000000000, 1.80000000000000 ) );
#435 = AXIS2_PLACEMENT_3D( '', #483, #484, #485 );
#436 = COLOUR_RGB( '', 0.800000011920929, 0.800000011920929, 0.800000011920929 );
#437 = CARTESIAN_POINT( '', ( -0.250000000000000, -2.98956518577535, 8.80000000000000 ) );
#438 = CARTESIAN_POINT( '', ( -0.250000000000006, -2.98956518577535, 57.1500000000000 ) );
#439 = VECTOR( '', #486, 1000.00000000000 );
#440 = CARTESIAN_POINT( '', ( -0.250000000000000, 2.98956518577535, 8.80000000000000 ) );
#441 = CARTESIAN_POINT( '', ( -0.250000000000000, -10.0000000000000, 8.80000000000000 ) );
#442 = VECTOR( '', #487, 1000.00000000000 );
#443 = CARTESIAN_POINT( '', ( -0.250000000000006, 2.98956518577535, 57.1500000000000 ) );
#444 = VECTOR( '', #488, 1000.00000000000 );
#445 = COLOUR_RGB( '', 0.800000011920929, 0.800000011920929, 0.800000011920929 );
#446 = CARTESIAN_POINT( '', ( 3.00000000000000, 0.000000000000000, 7.10000000000000 ) );
#447 = AXIS2_PLACEMENT_3D( '', #489, #490, #491 );
#448 = COLOUR_RGB( '', 0.800000011920929, 0.800000011920929, 0.800000011920929 );
#449 = COLOUR_RGB( '', 0.800000011920929, 0.800000011920929, 0.800000011920929 );
#450 = AXIS2_PLACEMENT_3D( '', #492, #493, #494 );
#451 = AXIS2_PLACEMENT_3D( '', #495, #496, #497 );
#452 = COLOUR_RGB( '', 0.800000011920929, 0.800000011920929, 0.800000011920929 );
#453 = COLOUR_RGB( '', 0.800000011920929, 0.800000011920929, 0.800000011920929 );
#454 = CARTESIAN_POINT( '', ( 1.16619037896906, 0.000000000000000, 0.800000000000000 ) );
#455 = AXIS2_PLACEMENT_3D( '', #498, #499, #500 );
#456 = COLOUR_RGB( '', 0.800000011920929, 0.800000011920929, 0.800000011920929 );
#457 = CARTESIAN_POINT( '', ( 1.50000000000000, 0.000000000000000, 0.800000000000000 ) );
#458 = AXIS2_PLACEMENT_3D( '', #501, #502, #503 );
#459 = COLOUR_RGB( '', 0.800000011920929, 0.800000011920929, 0.800000011920929 );
#460 = CARTESIAN_POINT( '', ( 0.000000000000000, 0.000000000000000, 9.60000000000000 ) );
#461 = DIRECTION( '', ( 0.000000000000000, 0.000000000000000, 1.00000000000000 ) );
#462 = DIRECTION( '', ( 1.00000000000000, 0.000000000000000, 0.000000000000000 ) );
#463 = CARTESIAN_POINT( '', ( 0.000000000000000, 0.000000000000000, 9.80000000000000 ) );
#464 = DIRECTION( '', ( 0.000000000000000, 0.000000000000000, 1.00000000000000 ) );
#465 = DIRECTION( '', ( 1.00000000000000, 0.000000000000000, 0.000000000000000 ) );
#466 = CARTESIAN_POINT( '', ( 0.000000000000000, 0.000000000000000, 9.60000000000000 ) );
#467 = DIRECTION( '', ( 0.000000000000000, 0.000000000000000, 1.00000000000000 ) );
#468 = DIRECTION( '', ( 1.00000000000000, 0.000000000000000, 0.000000000000000 ) );
#469 = CARTESIAN_POINT( '', ( 0.000000000000000, 0.000000000000000, 9.80000000000000 ) );
#470 = DIRECTION( '', ( 0.000000000000000, 0.000000000000000, 1.00000000000000 ) );
#471 = DIRECTION( '', ( 1.00000000000000, 0.000000000000000, 0.000000000000000 ) );
#472 = DIRECTION( '', ( 0.000000000000000, 1.00000000000000, 0.000000000000000 ) );
#473 = DIRECTION( '', ( 0.000000000000000, 0.000000000000000, 1.00000000000000 ) );
#474 = DIRECTION( '', ( 0.000000000000000, 1.00000000000000, 0.000000000000000 ) );
#475 = DIRECTION( '', ( 0.000000000000000, 0.000000000000000, 1.00000000000000 ) );
#476 = CARTESIAN_POINT( '', ( 0.000000000000000, 0.000000000000000, 2.30000000000000 ) );
#477 = DIRECTION( '', ( 0.000000000000000, 0.000000000000000, -1.00000000000000 ) );
#478 = DIRECTION( '', ( -1.00000000000000, 0.000000000000000, 0.000000000000000 ) );
#479 = CARTESIAN_POINT( '', ( 0.000000000000000, 0.000000000000000, 7.10000000000000 ) );
#480 = DIRECTION( '', ( 0.000000000000000, 0.000000000000000, 1.00000000000000 ) );
#481 = DIRECTION( '', ( 1.00000000000000, 0.000000000000000, 0.000000000000000 ) );
#482 = DIRECTION( '', ( 0.000000000000000, 1.00000000000000, 0.000000000000000 ) );
#483 = CARTESIAN_POINT( '', ( 0.000000000000000, 0.000000000000000, 1.80000000000000 ) );
#484 = DIRECTION( '', ( 0.000000000000000, 0.000000000000000, 1.00000000000000 ) );
#485 = DIRECTION( '', ( 1.00000000000000, 0.000000000000000, 0.000000000000000 ) );
#486 = DIRECTION( '', ( 0.000000000000000, 0.000000000000000, 1.00000000000000 ) );
#487 = DIRECTION( '', ( 0.000000000000000, 1.00000000000000, 0.000000000000000 ) );
#488 = DIRECTION( '', ( 0.000000000000000, 0.000000000000000, 1.00000000000000 ) );
#489 = CARTESIAN_POINT( '', ( 0.000000000000000, 0.000000000000000, 7.10000000000000 ) );
#490 = DIRECTION( '', ( 0.000000000000000, 0.000000000000000, 1.00000000000000 ) );
#491 = DIRECTION( '', ( 1.00000000000000, 0.000000000000000, 0.000000000000000 ) );
#492 = CARTESIAN_POINT( '', ( 0.000000000000000, 0.000000000000000, 8.80000000000000 ) );
#493 = DIRECTION( '', ( 0.000000000000000, 0.000000000000000, 1.00000000000000 ) );
#494 = DIRECTION( '', ( 1.00000000000000, 0.000000000000000, 0.000000000000000 ) );
#495 = CARTESIAN_POINT( '', ( 0.000000000000000, 0.000000000000000, 8.80000000000000 ) );
#496 = DIRECTION( '', ( 0.000000000000000, 0.000000000000000, 1.00000000000000 ) );
#497 = DIRECTION( '', ( 1.00000000000000, 0.000000000000000, 0.000000000000000 ) );
#498 = CARTESIAN_POINT( '', ( 0.000000000000000, 0.000000000000000, 0.800000000000000 ) );
#499 = DIRECTION( '', ( 0.000000000000000, 0.000000000000000, 1.00000000000000 ) );
#500 = DIRECTION( '', ( 1.00000000000000, 0.000000000000000, 0.000000000000000 ) );
#501 = CARTESIAN_POINT( '', ( 0.000000000000000, 0.000000000000000, 0.800000000000000 ) );
#502 = DIRECTION( '', ( 0.000000000000000, 0.000000000000000, 1.00000000000000 ) );
#503 = DIRECTION( '', ( 1.00000000000000, 0.000000000000000, 0.000000000000000 ) );
ENDSEC;
END-ISO-10303-21;
