ISO-10303-21;
HEADER;
FILE_DESCRIPTION( ( 'Unknown' ), '1' );
FILE_NAME( '//SBS2003/HD_Usb/Disegni/08_LIB/Users_3D/PROD_GAMM_3D/APVX/7747566_APVX_12.stp', 'Unknown', ( 'Unknown' ), ( 'Unknown' ), 'PSStep 14.0', 'Unknown', '  ' );
FILE_SCHEMA( ( 'AUTOMOTIVE_DESIGN { 1 0 10303 214 1 1 1 1 }' ) );
ENDSEC;
DATA;
#1 = MECHANICAL_DESIGN_GEOMETRIC_PRESENTATION_REPRESENTATION( ' ', ( #10, #11, #12, #13, #14, #15, #16, #17, #18, #19, #20, #21, #22, #23 ), #6 );
#2 = PRODUCT_DEFINITION_CONTEXT( '', #24, 'design' );
#3 = APPLICATION_PROTOCOL_DEFINITION( 'international standard', 'automotive_design', 2001, #24 );
#4 = PRODUCT_CATEGORY_RELATIONSHIP( 'NONE', 'NONE', #25, #26 );
#5 = SHAPE_DEFINITION_REPRESENTATION( #27, #28 );
#6 =  ( GEOMETRIC_REPRESENTATION_CONTEXT( 3 )GLOBAL_UNCERTAINTY_ASSIGNED_CONTEXT( ( #31 ) )GLOBAL_UNIT_ASSIGNED_CONTEXT( ( #33, #34, #35 ) )REPRESENTATION_CONTEXT( 'NONE', 'WORKSPACE' ) );
#10 = STYLED_ITEM( '', ( #37 ), #38 );
#11 = STYLED_ITEM( '', ( #39 ), #40 );
#12 = STYLED_ITEM( '', ( #41 ), #42 );
#13 = STYLED_ITEM( '', ( #43 ), #44 );
#14 = STYLED_ITEM( '', ( #45 ), #46 );
#15 = STYLED_ITEM( '', ( #47 ), #48 );
#16 = STYLED_ITEM( '', ( #49 ), #50 );
#17 = STYLED_ITEM( '', ( #51 ), #52 );
#18 = STYLED_ITEM( '', ( #53 ), #54 );
#19 = STYLED_ITEM( '', ( #55 ), #56 );
#20 = STYLED_ITEM( '', ( #57 ), #58 );
#21 = STYLED_ITEM( '', ( #59 ), #60 );
#22 = STYLED_ITEM( '', ( #61 ), #62 );
#23 = STYLED_ITEM( '', ( #63 ), #64 );
#24 = APPLICATION_CONTEXT( 'core data for automotive mechanical design processes' );
#25 = PRODUCT_CATEGORY( 'part', 'NONE' );
#26 = PRODUCT_RELATED_PRODUCT_CATEGORY( 'detail', ' ', ( #65 ) );
#27 = PRODUCT_DEFINITION_SHAPE( 'NONE', 'NONE', #66 );
#28 = ADVANCED_BREP_SHAPE_REPRESENTATION( '1', ( #67, #68 ), #6 );
#31 = UNCERTAINTY_MEASURE_WITH_UNIT( LENGTH_MEASURE( 0.00100000000000000 ), #33, '', '' );
#33 =  ( CONVERSION_BASED_UNIT( 'MILLIMETRE', #71 )LENGTH_UNIT(  )NAMED_UNIT( #74 ) );
#34 =  ( NAMED_UNIT( #76 )PLANE_ANGLE_UNIT(  )SI_UNIT( $, .RADIAN. ) );
#35 =  ( NAMED_UNIT( #76 )SI_UNIT( $, .STERADIAN. )SOLID_ANGLE_UNIT(  ) );
#37 = PRESENTATION_STYLE_ASSIGNMENT( ( #82 ) );
#38 = ADVANCED_FACE( '', ( #83, #84 ), #85, .T. );
#39 = PRESENTATION_STYLE_ASSIGNMENT( ( #86 ) );
#40 = ADVANCED_FACE( '', ( #87 ), #88, .T. );
#41 = PRESENTATION_STYLE_ASSIGNMENT( ( #89 ) );
#42 = ADVANCED_FACE( '', ( #90 ), #91, .T. );
#43 = PRESENTATION_STYLE_ASSIGNMENT( ( #92 ) );
#44 = ADVANCED_FACE( '', ( #93 ), #94, .T. );
#45 = PRESENTATION_STYLE_ASSIGNMENT( ( #95 ) );
#46 = ADVANCED_FACE( '', ( #96, #97 ), #98, .T. );
#47 = PRESENTATION_STYLE_ASSIGNMENT( ( #99 ) );
#48 = ADVANCED_FACE( '', ( #100 ), #101, .T. );
#49 = PRESENTATION_STYLE_ASSIGNMENT( ( #102 ) );
#50 = ADVANCED_FACE( '', ( #103 ), #104, .T. );
#51 = PRESENTATION_STYLE_ASSIGNMENT( ( #105 ) );
#52 = ADVANCED_FACE( '', ( #106, #107 ), #108, .T. );
#53 = PRESENTATION_STYLE_ASSIGNMENT( ( #109 ) );
#54 = ADVANCED_FACE( '', ( #110, #111 ), #112, .T. );
#55 = PRESENTATION_STYLE_ASSIGNMENT( ( #113 ) );
#56 = ADVANCED_FACE( '', ( #114 ), #115, .T. );
#57 = PRESENTATION_STYLE_ASSIGNMENT( ( #116 ) );
#58 = ADVANCED_FACE( '', ( #117, #118 ), #119, .T. );
#59 = PRESENTATION_STYLE_ASSIGNMENT( ( #120 ) );
#60 = ADVANCED_FACE( '', ( #121, #122 ), #123, .T. );
#61 = PRESENTATION_STYLE_ASSIGNMENT( ( #124 ) );
#62 = ADVANCED_FACE( '', ( #125 ), #126, .T. );
#63 = PRESENTATION_STYLE_ASSIGNMENT( ( #127 ) );
#64 = ADVANCED_FACE( '', ( #128 ), #129, .T. );
#65 = PRODUCT( '1', '1', 'PART-1-DESC', ( #130 ) );
#66 = PRODUCT_DEFINITION( 'NONE', 'NONE', #131, #2 );
#67 = MANIFOLD_SOLID_BREP( '1', #132 );
#68 = AXIS2_PLACEMENT_3D( '', #133, #134, #135 );
#71 = LENGTH_MEASURE_WITH_UNIT( LENGTH_MEASURE( 1.00000000000000 ), #136 );
#74 = DIMENSIONAL_EXPONENTS( 1.00000000000000, 0.000000000000000, 0.000000000000000, 0.000000000000000, 0.000000000000000, 0.000000000000000, 0.000000000000000 );
#76 = DIMENSIONAL_EXPONENTS( 0.000000000000000, 0.000000000000000, 0.000000000000000, 0.000000000000000, 0.000000000000000, 0.000000000000000, 0.000000000000000 );
#82 = SURFACE_STYLE_USAGE( .BOTH., #137 );
#83 = FACE_OUTER_BOUND( '', #138, .T. );
#84 = FACE_OUTER_BOUND( '', #139, .T. );
#85 = CYLINDRICAL_SURFACE( '', #140, 2.00000000000000 );
#86 = SURFACE_STYLE_USAGE( .BOTH., #141 );
#87 = FACE_OUTER_BOUND( '', #142, .T. );
#88 = PLANE( '', #143 );
#89 = SURFACE_STYLE_USAGE( .BOTH., #144 );
#90 = FACE_OUTER_BOUND( '', #145, .T. );
#91 = PLANE( '', #146 );
#92 = SURFACE_STYLE_USAGE( .BOTH., #147 );
#93 = FACE_OUTER_BOUND( '', #148, .T. );
#94 = PLANE( '', #149 );
#95 = SURFACE_STYLE_USAGE( .BOTH., #150 );
#96 = FACE_BOUND( '', #151, .T. );
#97 = FACE_OUTER_BOUND( '', #152, .T. );
#98 = PLANE( '', #153 );
#99 = SURFACE_STYLE_USAGE( .BOTH., #154 );
#100 = FACE_OUTER_BOUND( '', #155, .T. );
#101 = CONICAL_SURFACE( '', #156, 3.80000000000000, 0.785398163397452 );
#102 = SURFACE_STYLE_USAGE( .BOTH., #157 );
#103 = FACE_OUTER_BOUND( '', #158, .T. );
#104 = PLANE( '', #159 );
#105 = SURFACE_STYLE_USAGE( .BOTH., #160 );
#106 = FACE_OUTER_BOUND( '', #161, .T. );
#107 = FACE_OUTER_BOUND( '', #162, .T. );
#108 = CYLINDRICAL_SURFACE( '', #163, 2.50000000000000 );
#109 = SURFACE_STYLE_USAGE( .BOTH., #164 );
#110 = FACE_OUTER_BOUND( '', #165, .T. );
#111 = FACE_OUTER_BOUND( '', #166, .T. );
#112 = CYLINDRICAL_SURFACE( '', #167, 4.00000000000000 );
#113 = SURFACE_STYLE_USAGE( .BOTH., #168 );
#114 = FACE_OUTER_BOUND( '', #169, .T. );
#115 = SPHERICAL_SURFACE( '', #170, 1.50000000000000 );
#116 = SURFACE_STYLE_USAGE( .BOTH., #171 );
#117 = FACE_BOUND( '', #172, .T. );
#118 = FACE_OUTER_BOUND( '', #173, .T. );
#119 = PLANE( '', #174 );
#120 = SURFACE_STYLE_USAGE( .BOTH., #175 );
#121 = FACE_BOUND( '', #176, .T. );
#122 = FACE_OUTER_BOUND( '', #177, .T. );
#123 = CONICAL_SURFACE( '', #178, 2.50000000000000, 0.785398163397448 );
#124 = SURFACE_STYLE_USAGE( .BOTH., #179 );
#125 = FACE_OUTER_BOUND( '', #180, .T. );
#126 = PLANE( '', #181 );
#127 = SURFACE_STYLE_USAGE( .BOTH., #182 );
#128 = FACE_OUTER_BOUND( '', #183, .T. );
#129 = CONICAL_SURFACE( '', #184, 3.80000000000000, 0.785398163397452 );
#130 = PRODUCT_CONTEXT( '', #24, 'mechanical' );
#131 = PRODUCT_DEFINITION_FORMATION_WITH_SPECIFIED_SOURCE( ' ', 'NONE', #65, .NOT_KNOWN. );
#132 = CLOSED_SHELL( '', ( #40, #60, #54, #62, #44, #50, #48, #64, #56, #42, #58, #52, #38, #46 ) );
#133 = CARTESIAN_POINT( '', ( 0.000000000000000, 0.000000000000000, 0.000000000000000 ) );
#134 = DIRECTION( '', ( 0.000000000000000, 0.000000000000000, 1.00000000000000 ) );
#135 = DIRECTION( '', ( 1.00000000000000, 0.000000000000000, 0.000000000000000 ) );
#136 =  ( LENGTH_UNIT(  )NAMED_UNIT( #74 )SI_UNIT( .MILLI., .METRE. ) );
#137 = SURFACE_SIDE_STYLE( '', ( #186 ) );
#138 = EDGE_LOOP( '', ( #187 ) );
#139 = EDGE_LOOP( '', ( #188 ) );
#140 = AXIS2_PLACEMENT_3D( '', #189, #190, #191 );
#141 = SURFACE_SIDE_STYLE( '', ( #192 ) );
#142 = EDGE_LOOP( '', ( #193, #194 ) );
#143 = AXIS2_PLACEMENT_3D( '', #195, #196, #197 );
#144 = SURFACE_SIDE_STYLE( '', ( #198 ) );
#145 = EDGE_LOOP( '', ( #199, #200 ) );
#146 = AXIS2_PLACEMENT_3D( '', #201, #202, #203 );
#147 = SURFACE_SIDE_STYLE( '', ( #204 ) );
#148 = EDGE_LOOP( '', ( #205, #206, #207, #208, #209, #210 ) );
#149 = AXIS2_PLACEMENT_3D( '', #211, #212, #213 );
#150 = SURFACE_SIDE_STYLE( '', ( #214 ) );
#151 = EDGE_LOOP( '', ( #215 ) );
#152 = EDGE_LOOP( '', ( #216 ) );
#153 = AXIS2_PLACEMENT_3D( '', #217, #218, #219 );
#154 = SURFACE_SIDE_STYLE( '', ( #220 ) );
#155 = EDGE_LOOP( '', ( #221, #222, #223, #224 ) );
#156 = AXIS2_PLACEMENT_3D( '', #225, #226, #227 );
#157 = SURFACE_SIDE_STYLE( '', ( #228 ) );
#158 = EDGE_LOOP( '', ( #229, #230, #231, #232, #233, #234 ) );
#159 = AXIS2_PLACEMENT_3D( '', #235, #236, #237 );
#160 = SURFACE_SIDE_STYLE( '', ( #238 ) );
#161 = EDGE_LOOP( '', ( #239 ) );
#162 = EDGE_LOOP( '', ( #240 ) );
#163 = AXIS2_PLACEMENT_3D( '', #241, #242, #243 );
#164 = SURFACE_SIDE_STYLE( '', ( #244 ) );
#165 = EDGE_LOOP( '', ( #245 ) );
#166 = EDGE_LOOP( '', ( #246, #247, #248, #249, #250, #251, #252, #253 ) );
#167 = AXIS2_PLACEMENT_3D( '', #254, #255, #256 );
#168 = SURFACE_SIDE_STYLE( '', ( #257 ) );
#169 = EDGE_LOOP( '', ( #258 ) );
#170 = AXIS2_PLACEMENT_3D( '', #259, #260, #261 );
#171 = SURFACE_SIDE_STYLE( '', ( #262 ) );
#172 = EDGE_LOOP( '', ( #263 ) );
#173 = EDGE_LOOP( '', ( #264 ) );
#174 = AXIS2_PLACEMENT_3D( '', #265, #266, #267 );
#175 = SURFACE_SIDE_STYLE( '', ( #268 ) );
#176 = EDGE_LOOP( '', ( #269 ) );
#177 = EDGE_LOOP( '', ( #270 ) );
#178 = AXIS2_PLACEMENT_3D( '', #271, #272, #273 );
#179 = SURFACE_SIDE_STYLE( '', ( #274 ) );
#180 = EDGE_LOOP( '', ( #275, #276, #277, #278 ) );
#181 = AXIS2_PLACEMENT_3D( '', #279, #280, #281 );
#182 = SURFACE_SIDE_STYLE( '', ( #282 ) );
#183 = EDGE_LOOP( '', ( #283, #284, #285, #286 ) );
#184 = AXIS2_PLACEMENT_3D( '', #287, #288, #289 );
#186 = SURFACE_STYLE_FILL_AREA( #290 );
#187 = ORIENTED_EDGE( '', *, *, #291, .T. );
#188 = ORIENTED_EDGE( '', *, *, #292, .F. );
#189 = CARTESIAN_POINT( '', ( 0.000000000000000, 0.000000000000000, 57.1500000000000 ) );
#190 = DIRECTION( '', ( -0.000000000000000, -0.000000000000000, -1.00000000000000 ) );
#191 = DIRECTION( '', ( 1.00000000000000, 0.000000000000000, 0.000000000000000 ) );
#192 = SURFACE_STYLE_FILL_AREA( #293 );
#193 = ORIENTED_EDGE( '', *, *, #294, .T. );
#194 = ORIENTED_EDGE( '', *, *, #295, .T. );
#195 = CARTESIAN_POINT( '', ( 0.000000000000000, 0.000000000000000, 12.9000000000000 ) );
#196 = DIRECTION( '', ( 0.000000000000000, 0.000000000000000, 1.00000000000000 ) );
#197 = DIRECTION( '', ( 1.00000000000000, 0.000000000000000, 0.000000000000000 ) );
#198 = SURFACE_STYLE_FILL_AREA( #296 );
#199 = ORIENTED_EDGE( '', *, *, #297, .F. );
#200 = ORIENTED_EDGE( '', *, *, #298, .T. );
#201 = CARTESIAN_POINT( '', ( 0.000000000000000, 0.000000000000000, 12.9000000000000 ) );
#202 = DIRECTION( '', ( 0.000000000000000, 0.000000000000000, 1.00000000000000 ) );
#203 = DIRECTION( '', ( 1.00000000000000, 0.000000000000000, 0.000000000000000 ) );
#204 = SURFACE_STYLE_FILL_AREA( #299 );
#205 = ORIENTED_EDGE( '', *, *, #297, .T. );
#206 = ORIENTED_EDGE( '', *, *, #300, .T. );
#207 = ORIENTED_EDGE( '', *, *, #301, .F. );
#208 = ORIENTED_EDGE( '', *, *, #302, .F. );
#209 = ORIENTED_EDGE( '', *, *, #303, .F. );
#210 = ORIENTED_EDGE( '', *, *, #304, .T. );
#211 = CARTESIAN_POINT( '', ( 0.500000000000000, -10.0000000000000, 11.9000000000000 ) );
#212 = DIRECTION( '', ( -1.00000000000000, 0.000000000000000, 0.000000000000000 ) );
#213 = DIRECTION( '', ( 0.000000000000000, 0.000000000000000, 1.00000000000000 ) );
#214 = SURFACE_STYLE_FILL_AREA( #305 );
#215 = ORIENTED_EDGE( '', *, *, #306, .T. );
#216 = ORIENTED_EDGE( '', *, *, #291, .F. );
#217 = CARTESIAN_POINT( '', ( 2.00000000000000, 0.000000000000000, 0.900000000000000 ) );
#218 = DIRECTION( '', ( 0.000000000000000, 0.000000000000000, -1.00000000000000 ) );
#219 = DIRECTION( '', ( -1.00000000000000, 0.000000000000000, 0.000000000000000 ) );
#220 = SURFACE_STYLE_FILL_AREA( #307 );
#221 = ORIENTED_EDGE( '', *, *, #308, .F. );
#222 = ORIENTED_EDGE( '', *, *, #309, .F. );
#223 = ORIENTED_EDGE( '', *, *, #310, .F. );
#224 = ORIENTED_EDGE( '', *, *, #295, .F. );
#225 = CARTESIAN_POINT( '', ( 0.000000000000000, 0.000000000000000, 12.9000000000000 ) );
#226 = DIRECTION( '', ( -0.000000000000000, 0.000000000000000, -1.00000000000000 ) );
#227 = DIRECTION( '', ( -1.00000000000000, 0.000000000000000, 0.000000000000000 ) );
#228 = SURFACE_STYLE_FILL_AREA( #311 );
#229 = ORIENTED_EDGE( '', *, *, #294, .F. );
#230 = ORIENTED_EDGE( '', *, *, #310, .T. );
#231 = ORIENTED_EDGE( '', *, *, #312, .F. );
#232 = ORIENTED_EDGE( '', *, *, #313, .T. );
#233 = ORIENTED_EDGE( '', *, *, #314, .F. );
#234 = ORIENTED_EDGE( '', *, *, #308, .T. );
#235 = CARTESIAN_POINT( '', ( -0.500000000000000, -10.0000000000000, 12.9000000000000 ) );
#236 = DIRECTION( '', ( 1.00000000000000, 0.000000000000000, 0.000000000000000 ) );
#237 = DIRECTION( '', ( 0.000000000000000, 0.000000000000000, -1.00000000000000 ) );
#238 = SURFACE_STYLE_FILL_AREA( #315 );
#239 = ORIENTED_EDGE( '', *, *, #316, .T. );
#240 = ORIENTED_EDGE( '', *, *, #317, .F. );
#241 = CARTESIAN_POINT( '', ( 0.000000000000000, 0.000000000000000, 57.1500000000000 ) );
#242 = DIRECTION( '', ( -0.000000000000000, -0.000000000000000, -1.00000000000000 ) );
#243 = DIRECTION( '', ( 1.00000000000000, 0.000000000000000, 0.000000000000000 ) );
#244 = SURFACE_STYLE_FILL_AREA( #318 );
#245 = ORIENTED_EDGE( '', *, *, #319, .T. );
#246 = ORIENTED_EDGE( '', *, *, #312, .T. );
#247 = ORIENTED_EDGE( '', *, *, #309, .T. );
#248 = ORIENTED_EDGE( '', *, *, #314, .T. );
#249 = ORIENTED_EDGE( '', *, *, #320, .T. );
#250 = ORIENTED_EDGE( '', *, *, #301, .T. );
#251 = ORIENTED_EDGE( '', *, *, #321, .T. );
#252 = ORIENTED_EDGE( '', *, *, #303, .T. );
#253 = ORIENTED_EDGE( '', *, *, #322, .T. );
#254 = CARTESIAN_POINT( '', ( 0.000000000000000, 0.000000000000000, 57.1500000000000 ) );
#255 = DIRECTION( '', ( -0.000000000000000, -0.000000000000000, -1.00000000000000 ) );
#256 = DIRECTION( '', ( 1.00000000000000, 0.000000000000000, 0.000000000000000 ) );
#257 = SURFACE_STYLE_FILL_AREA( #323 );
#258 = ORIENTED_EDGE( '', *, *, #306, .F. );
#259 = CARTESIAN_POINT( '', ( 0.000000000000000, 0.000000000000000, 1.50000000000000 ) );
#260 = DIRECTION( '', ( 0.000000000000000, 0.000000000000000, 1.00000000000000 ) );
#261 = DIRECTION( '', ( 1.00000000000000, 0.000000000000000, 0.000000000000000 ) );
#262 = SURFACE_STYLE_FILL_AREA( #324 );
#263 = ORIENTED_EDGE( '', *, *, #317, .T. );
#264 = ORIENTED_EDGE( '', *, *, #319, .F. );
#265 = CARTESIAN_POINT( '', ( 4.00000000000000, 0.000000000000000, 9.20000000000000 ) );
#266 = DIRECTION( '', ( 0.000000000000000, 0.000000000000000, -1.00000000000000 ) );
#267 = DIRECTION( '', ( -1.00000000000000, 0.000000000000000, 0.000000000000000 ) );
#268 = SURFACE_STYLE_FILL_AREA( #325 );
#269 = ORIENTED_EDGE( '', *, *, #292, .T. );
#270 = ORIENTED_EDGE( '', *, *, #316, .F. );
#271 = CARTESIAN_POINT( '', ( 0.000000000000000, 0.000000000000000, 2.40000000000000 ) );
#272 = DIRECTION( '', ( -0.000000000000000, -0.000000000000000, 1.00000000000000 ) );
#273 = DIRECTION( '', ( 1.00000000000000, 0.000000000000000, 0.000000000000000 ) );
#274 = SURFACE_STYLE_FILL_AREA( #326 );
#275 = ORIENTED_EDGE( '', *, *, #302, .T. );
#276 = ORIENTED_EDGE( '', *, *, #320, .F. );
#277 = ORIENTED_EDGE( '', *, *, #313, .F. );
#278 = ORIENTED_EDGE( '', *, *, #322, .F. );
#279 = CARTESIAN_POINT( '', ( -0.500000000000000, -10.0000000000000, 11.9000000000000 ) );
#280 = DIRECTION( '', ( 0.000000000000000, 0.000000000000000, 1.00000000000000 ) );
#281 = DIRECTION( '', ( 1.00000000000000, 0.000000000000000, 0.000000000000000 ) );
#282 = SURFACE_STYLE_FILL_AREA( #327 );
#283 = ORIENTED_EDGE( '', *, *, #304, .F. );
#284 = ORIENTED_EDGE( '', *, *, #321, .F. );
#285 = ORIENTED_EDGE( '', *, *, #300, .F. );
#286 = ORIENTED_EDGE( '', *, *, #298, .F. );
#287 = CARTESIAN_POINT( '', ( 0.000000000000000, 0.000000000000000, 12.9000000000000 ) );
#288 = DIRECTION( '', ( -0.000000000000000, 0.000000000000000, -1.00000000000000 ) );
#289 = DIRECTION( '', ( -1.00000000000000, 0.000000000000000, 0.000000000000000 ) );
#290 = FILL_AREA_STYLE( '', ( #328 ) );
#291 = EDGE_CURVE( '', #329, #329, #330, .T. );
#292 = EDGE_CURVE( '', #331, #331, #332, .T. );
#293 = FILL_AREA_STYLE( '', ( #333 ) );
#294 = EDGE_CURVE( '', #334, #335, #336, .T. );
#295 = EDGE_CURVE( '', #335, #334, #337, .T. );
#296 = FILL_AREA_STYLE( '', ( #338 ) );
#297 = EDGE_CURVE( '', #339, #340, #341, .T. );
#298 = EDGE_CURVE( '', #339, #340, #342, .T. );
#299 = FILL_AREA_STYLE( '', ( #343 ) );
#300 = EDGE_CURVE( '', #340, #344, #345, .T. );
#301 = EDGE_CURVE( '', #346, #344, #347, .T. );
#302 = EDGE_CURVE( '', #348, #346, #349, .T. );
#303 = EDGE_CURVE( '', #350, #348, #351, .F. );
#304 = EDGE_CURVE( '', #350, #339, #352, .T. );
#305 = FILL_AREA_STYLE( '', ( #353 ) );
#306 = EDGE_CURVE( '', #354, #354, #355, .T. );
#307 = FILL_AREA_STYLE( '', ( #356 ) );
#308 = EDGE_CURVE( '', #357, #335, #358, .T. );
#309 = EDGE_CURVE( '', #359, #357, #360, .F. );
#310 = EDGE_CURVE( '', #334, #359, #361, .T. );
#311 = FILL_AREA_STYLE( '', ( #362 ) );
#312 = EDGE_CURVE( '', #363, #359, #364, .T. );
#313 = EDGE_CURVE( '', #363, #365, #366, .T. );
#314 = EDGE_CURVE( '', #357, #365, #367, .F. );
#315 = FILL_AREA_STYLE( '', ( #368 ) );
#316 = EDGE_CURVE( '', #369, #369, #370, .F. );
#317 = EDGE_CURVE( '', #371, #371, #372, .T. );
#318 = FILL_AREA_STYLE( '', ( #373 ) );
#319 = EDGE_CURVE( '', #374, #374, #375, .T. );
#320 = EDGE_CURVE( '', #365, #346, #376, .F. );
#321 = EDGE_CURVE( '', #344, #350, #377, .F. );
#322 = EDGE_CURVE( '', #348, #363, #378, .F. );
#323 = FILL_AREA_STYLE( '', ( #379 ) );
#324 = FILL_AREA_STYLE( '', ( #380 ) );
#325 = FILL_AREA_STYLE( '', ( #381 ) );
#326 = FILL_AREA_STYLE( '', ( #382 ) );
#327 = FILL_AREA_STYLE( '', ( #383 ) );
#328 = FILL_AREA_STYLE_COLOUR( '', #384 );
#329 = VERTEX_POINT( '', #385 );
#330 = CIRCLE( '', #386, 2.00000000000000 );
#331 = VERTEX_POINT( '', #387 );
#332 = CIRCLE( '', #388, 2.00000000000000 );
#333 = FILL_AREA_STYLE_COLOUR( '', #389 );
#334 = VERTEX_POINT( '', #390 );
#335 = VERTEX_POINT( '', #391 );
#336 = LINE( '', #392, #393 );
#337 = CIRCLE( '', #394, 3.80000000000000 );
#338 = FILL_AREA_STYLE_COLOUR( '', #395 );
#339 = VERTEX_POINT( '', #396 );
#340 = VERTEX_POINT( '', #397 );
#341 = LINE( '', #398, #399 );
#342 = CIRCLE( '', #400, 3.80000000000000 );
#343 = FILL_AREA_STYLE_COLOUR( '', #401 );
#344 = VERTEX_POINT( '', #402 );
#345 = B_SPLINE_CURVE_WITH_KNOTS( '', 3, ( #403, #404, #405, #406 ), .UNSPECIFIED., .F., .F., ( 4, 4 ), ( 3.12731722069275E-018, 0.000284022717054845 ), .UNSPECIFIED. );
#346 = VERTEX_POINT( '', #407 );
#347 = LINE( '', #408, #409 );
#348 = VERTEX_POINT( '', #410 );
#349 = LINE( '', #411, #412 );
#350 = VERTEX_POINT( '', #413 );
#351 = LINE( '', #414, #415 );
#352 = B_SPLINE_CURVE_WITH_KNOTS( '', 3, ( #416, #417, #418, #419 ), .UNSPECIFIED., .F., .F., ( 4, 4 ), ( 0.000000000000000, 0.000284022717054842 ), .UNSPECIFIED. );
#353 = FILL_AREA_STYLE_COLOUR( '', #420 );
#354 = VERTEX_POINT( '', #421 );
#355 = CIRCLE( '', #422, 1.37477270848675 );
#356 = FILL_AREA_STYLE_COLOUR( '', #423 );
#357 = VERTEX_POINT( '', #424 );
#358 = B_SPLINE_CURVE_WITH_KNOTS( '', 3, ( #425, #426, #427, #428 ), .UNSPECIFIED., .F., .F., ( 4, 4 ), ( 0.000000000000000, 0.000284022717054842 ), .UNSPECIFIED. );
#359 = VERTEX_POINT( '', #429 );
#360 = CIRCLE( '', #430, 4.00000000000000 );
#361 = B_SPLINE_CURVE_WITH_KNOTS( '', 3, ( #431, #432, #433, #434 ), .UNSPECIFIED., .F., .F., ( 4, 4 ), ( 3.12731722069275E-018, 0.000284022717054845 ), .UNSPECIFIED. );
#362 = FILL_AREA_STYLE_COLOUR( '', #435 );
#363 = VERTEX_POINT( '', #436 );
#364 = LINE( '', #437, #438 );
#365 = VERTEX_POINT( '', #439 );
#366 = LINE( '', #440, #441 );
#367 = LINE( '', #442, #443 );
#368 = FILL_AREA_STYLE_COLOUR( '', #444 );
#369 = VERTEX_POINT( '', #445 );
#370 = CIRCLE( '', #446, 2.50000000000000 );
#371 = VERTEX_POINT( '', #447 );
#372 = CIRCLE( '', #448, 2.50000000000000 );
#373 = FILL_AREA_STYLE_COLOUR( '', #449 );
#374 = VERTEX_POINT( '', #450 );
#375 = CIRCLE( '', #451, 4.00000000000000 );
#376 = CIRCLE( '', #452, 4.00000000000000 );
#377 = CIRCLE( '', #453, 4.00000000000000 );
#378 = CIRCLE( '', #454, 4.00000000000000 );
#379 = FILL_AREA_STYLE_COLOUR( '', #455 );
#380 = FILL_AREA_STYLE_COLOUR( '', #456 );
#381 = FILL_AREA_STYLE_COLOUR( '', #457 );
#382 = FILL_AREA_STYLE_COLOUR( '', #458 );
#383 = FILL_AREA_STYLE_COLOUR( '', #459 );
#384 = COLOUR_RGB( '', 0.800000011920929, 0.800000011920929, 0.800000011920929 );
#385 = CARTESIAN_POINT( '', ( 2.00000000000000, 0.000000000000000, 0.900000000000000 ) );
#386 = AXIS2_PLACEMENT_3D( '', #460, #461, #462 );
#387 = CARTESIAN_POINT( '', ( 2.00000000000000, 0.000000000000000, 1.90000000000000 ) );
#388 = AXIS2_PLACEMENT_3D( '', #463, #464, #465 );
#389 = COLOUR_RGB( '', 0.800000011920929, 0.800000011920929, 0.800000011920929 );
#390 = CARTESIAN_POINT( '', ( -0.500000000000000, -3.76696164036748, 12.9000000000000 ) );
#391 = CARTESIAN_POINT( '', ( -0.500000000000000, 3.76696164036748, 12.9000000000000 ) );
#392 = CARTESIAN_POINT( '', ( -0.500000000000000, -10.0000000000000, 12.9000000000000 ) );
#393 = VECTOR( '', #466, 1000.00000000000 );
#394 = AXIS2_PLACEMENT_3D( '', #467, #468, #469 );
#395 = COLOUR_RGB( '', 0.800000011920929, 0.800000011920929, 0.800000011920929 );
#396 = CARTESIAN_POINT( '', ( 0.500000000000000, -3.76696164036748, 12.9000000000000 ) );
#397 = CARTESIAN_POINT( '', ( 0.500000000000000, 3.76696164036748, 12.9000000000000 ) );
#398 = CARTESIAN_POINT( '', ( 0.500000000000000, -10.0000000000000, 12.9000000000000 ) );
#399 = VECTOR( '', #470, 1000.00000000000 );
#400 = AXIS2_PLACEMENT_3D( '', #471, #472, #473 );
#401 = COLOUR_RGB( '', 0.800000011920929, 0.800000011920929, 0.800000011920929 );
#402 = CARTESIAN_POINT( '', ( 0.500000000000000, 3.96862696659689, 12.7000000000000 ) );
#403 = CARTESIAN_POINT( '', ( 0.500000000000000, 3.76696164036747, 12.9000000000000 ) );
#404 = CARTESIAN_POINT( '', ( 0.500000000000000, 3.83419808578929, 12.8333481287530 ) );
#405 = CARTESIAN_POINT( '', ( 0.500000000000000, 3.90141912478337, 12.7666807133470 ) );
#406 = CARTESIAN_POINT( '', ( 0.500000000000000, 3.96862696659689, 12.7000000000000 ) );
#407 = CARTESIAN_POINT( '', ( 0.500000000000000, 3.96862696659689, 11.9000000000000 ) );
#408 = CARTESIAN_POINT( '', ( 0.500000000000000, 3.96862696659689, 57.1500000000000 ) );
#409 = VECTOR( '', #474, 1000.00000000000 );
#410 = CARTESIAN_POINT( '', ( 0.500000000000000, -3.96862696659689, 11.9000000000000 ) );
#411 = CARTESIAN_POINT( '', ( 0.500000000000000, -10.0000000000000, 11.9000000000000 ) );
#412 = VECTOR( '', #475, 1000.00000000000 );
#413 = CARTESIAN_POINT( '', ( 0.500000000000000, -3.96862696659689, 12.7000000000000 ) );
#414 = CARTESIAN_POINT( '', ( 0.500000000000000, -3.96862696659689, 57.1500000000000 ) );
#415 = VECTOR( '', #476, 1000.00000000000 );
#416 = CARTESIAN_POINT( '', ( 0.500000000000000, -3.96862696659689, 12.7000000000000 ) );
#417 = CARTESIAN_POINT( '', ( 0.500000000000000, -3.90141912478337, 12.7666807133470 ) );
#418 = CARTESIAN_POINT( '', ( 0.500000000000000, -3.83419808578929, 12.8333481287530 ) );
#419 = CARTESIAN_POINT( '', ( 0.500000000000000, -3.76696164036747, 12.9000000000000 ) );
#420 = COLOUR_RGB( '', 0.800000011920929, 0.800000011920929, 0.800000011920929 );
#421 = CARTESIAN_POINT( '', ( 1.37477270848675, 0.000000000000000, 0.900000000000000 ) );
#422 = AXIS2_PLACEMENT_3D( '', #477, #478, #479 );
#423 = COLOUR_RGB( '', 0.800000011920929, 0.800000011920929, 0.800000011920929 );
#424 = CARTESIAN_POINT( '', ( -0.500000000000000, 3.96862696659689, 12.7000000000000 ) );
#425 = CARTESIAN_POINT( '', ( -0.500000000000000, 3.96862696659689, 12.7000000000000 ) );
#426 = CARTESIAN_POINT( '', ( -0.500000000000000, 3.90141912478337, 12.7666807133470 ) );
#427 = CARTESIAN_POINT( '', ( -0.500000000000000, 3.83419808578929, 12.8333481287530 ) );
#428 = CARTESIAN_POINT( '', ( -0.500000000000000, 3.76696164036747, 12.9000000000000 ) );
#429 = CARTESIAN_POINT( '', ( -0.500000000000000, -3.96862696659689, 12.7000000000000 ) );
#430 = AXIS2_PLACEMENT_3D( '', #480, #481, #482 );
#431 = CARTESIAN_POINT( '', ( -0.500000000000000, -3.76696164036747, 12.9000000000000 ) );
#432 = CARTESIAN_POINT( '', ( -0.500000000000000, -3.83419808578929, 12.8333481287530 ) );
#433 = CARTESIAN_POINT( '', ( -0.500000000000000, -3.90141912478337, 12.7666807133470 ) );
#434 = CARTESIAN_POINT( '', ( -0.500000000000000, -3.96862696659689, 12.7000000000000 ) );
#435 = COLOUR_RGB( '', 0.800000011920929, 0.800000011920929, 0.800000011920929 );
#436 = CARTESIAN_POINT( '', ( -0.500000000000000, -3.96862696659689, 11.9000000000000 ) );
#437 = CARTESIAN_POINT( '', ( -0.500000000000000, -3.96862696659689, 57.1500000000000 ) );
#438 = VECTOR( '', #483, 1000.00000000000 );
#439 = CARTESIAN_POINT( '', ( -0.500000000000000, 3.96862696659689, 11.9000000000000 ) );
#440 = CARTESIAN_POINT( '', ( -0.500000000000000, -10.0000000000000, 11.9000000000000 ) );
#441 = VECTOR( '', #484, 1000.00000000000 );
#442 = CARTESIAN_POINT( '', ( -0.500000000000000, 3.96862696659689, 57.1500000000000 ) );
#443 = VECTOR( '', #485, 1000.00000000000 );
#444 = COLOUR_RGB( '', 0.752941191196442, 0.752941191196442, 0.752941191196442 );
#445 = CARTESIAN_POINT( '', ( -2.50000000000000, 0.000000000000000, 2.40000000000000 ) );
#446 = AXIS2_PLACEMENT_3D( '', #486, #487, #488 );
#447 = CARTESIAN_POINT( '', ( 2.50000000000000, 0.000000000000000, 9.20000000000000 ) );
#448 = AXIS2_PLACEMENT_3D( '', #489, #490, #491 );
#449 = COLOUR_RGB( '', 0.800000011920929, 0.800000011920929, 0.800000011920929 );
#450 = CARTESIAN_POINT( '', ( 4.00000000000000, 0.000000000000000, 9.20000000000000 ) );
#451 = AXIS2_PLACEMENT_3D( '', #492, #493, #494 );
#452 = AXIS2_PLACEMENT_3D( '', #495, #496, #497 );
#453 = AXIS2_PLACEMENT_3D( '', #498, #499, #500 );
#454 = AXIS2_PLACEMENT_3D( '', #501, #502, #503 );
#455 = COLOUR_RGB( '', 0.800000011920929, 0.800000011920929, 0.800000011920929 );
#456 = COLOUR_RGB( '', 0.800000011920929, 0.800000011920929, 0.800000011920929 );
#457 = COLOUR_RGB( '', 0.800000011920929, 0.800000011920929, 0.800000011920929 );
#458 = COLOUR_RGB( '', 0.800000011920929, 0.800000011920929, 0.800000011920929 );
#459 = COLOUR_RGB( '', 0.800000011920929, 0.800000011920929, 0.800000011920929 );
#460 = CARTESIAN_POINT( '', ( 0.000000000000000, 0.000000000000000, 0.900000000000000 ) );
#461 = DIRECTION( '', ( 0.000000000000000, 0.000000000000000, 1.00000000000000 ) );
#462 = DIRECTION( '', ( 1.00000000000000, 0.000000000000000, 0.000000000000000 ) );
#463 = CARTESIAN_POINT( '', ( 0.000000000000000, 0.000000000000000, 1.90000000000000 ) );
#464 = DIRECTION( '', ( 0.000000000000000, 0.000000000000000, 1.00000000000000 ) );
#465 = DIRECTION( '', ( 1.00000000000000, 0.000000000000000, 0.000000000000000 ) );
#466 = DIRECTION( '', ( 0.000000000000000, 1.00000000000000, 0.000000000000000 ) );
#467 = CARTESIAN_POINT( '', ( 0.000000000000000, 0.000000000000000, 12.9000000000000 ) );
#468 = DIRECTION( '', ( 0.000000000000000, 0.000000000000000, 1.00000000000000 ) );
#469 = DIRECTION( '', ( 1.00000000000000, 0.000000000000000, 0.000000000000000 ) );
#470 = DIRECTION( '', ( 0.000000000000000, 1.00000000000000, 0.000000000000000 ) );
#471 = CARTESIAN_POINT( '', ( 0.000000000000000, 0.000000000000000, 12.9000000000000 ) );
#472 = DIRECTION( '', ( 0.000000000000000, 0.000000000000000, 1.00000000000000 ) );
#473 = DIRECTION( '', ( 1.00000000000000, 0.000000000000000, 0.000000000000000 ) );
#474 = DIRECTION( '', ( 0.000000000000000, 0.000000000000000, 1.00000000000000 ) );
#475 = DIRECTION( '', ( 0.000000000000000, 1.00000000000000, 0.000000000000000 ) );
#476 = DIRECTION( '', ( 0.000000000000000, 0.000000000000000, 1.00000000000000 ) );
#477 = CARTESIAN_POINT( '', ( 0.000000000000000, 0.000000000000000, 0.900000000000000 ) );
#478 = DIRECTION( '', ( 0.000000000000000, 0.000000000000000, 1.00000000000000 ) );
#479 = DIRECTION( '', ( 1.00000000000000, 0.000000000000000, 0.000000000000000 ) );
#480 = CARTESIAN_POINT( '', ( 0.000000000000000, 0.000000000000000, 12.7000000000000 ) );
#481 = DIRECTION( '', ( 0.000000000000000, 0.000000000000000, 1.00000000000000 ) );
#482 = DIRECTION( '', ( 1.00000000000000, 0.000000000000000, 0.000000000000000 ) );
#483 = DIRECTION( '', ( 0.000000000000000, 0.000000000000000, 1.00000000000000 ) );
#484 = DIRECTION( '', ( 0.000000000000000, 1.00000000000000, 0.000000000000000 ) );
#485 = DIRECTION( '', ( 0.000000000000000, 0.000000000000000, 1.00000000000000 ) );
#486 = CARTESIAN_POINT( '', ( 0.000000000000000, 0.000000000000000, 2.40000000000000 ) );
#487 = DIRECTION( '', ( 0.000000000000000, 0.000000000000000, -1.00000000000000 ) );
#488 = DIRECTION( '', ( -1.00000000000000, 0.000000000000000, 0.000000000000000 ) );
#489 = CARTESIAN_POINT( '', ( 0.000000000000000, 0.000000000000000, 9.20000000000000 ) );
#490 = DIRECTION( '', ( 0.000000000000000, 0.000000000000000, 1.00000000000000 ) );
#491 = DIRECTION( '', ( 1.00000000000000, 0.000000000000000, 0.000000000000000 ) );
#492 = CARTESIAN_POINT( '', ( 0.000000000000000, 0.000000000000000, 9.20000000000000 ) );
#493 = DIRECTION( '', ( 0.000000000000000, 0.000000000000000, 1.00000000000000 ) );
#494 = DIRECTION( '', ( 1.00000000000000, 0.000000000000000, 0.000000000000000 ) );
#495 = CARTESIAN_POINT( '', ( 0.000000000000000, 0.000000000000000, 11.9000000000000 ) );
#496 = DIRECTION( '', ( 0.000000000000000, 0.000000000000000, 1.00000000000000 ) );
#497 = DIRECTION( '', ( 1.00000000000000, 0.000000000000000, 0.000000000000000 ) );
#498 = CARTESIAN_POINT( '', ( 0.000000000000000, 0.000000000000000, 12.7000000000000 ) );
#499 = DIRECTION( '', ( 0.000000000000000, 0.000000000000000, 1.00000000000000 ) );
#500 = DIRECTION( '', ( 1.00000000000000, 0.000000000000000, 0.000000000000000 ) );
#501 = CARTESIAN_POINT( '', ( 0.000000000000000, 0.000000000000000, 11.9000000000000 ) );
#502 = DIRECTION( '', ( 0.000000000000000, 0.000000000000000, 1.00000000000000 ) );
#503 = DIRECTION( '', ( 1.00000000000000, 0.000000000000000, 0.000000000000000 ) );
ENDSEC;
END-ISO-10303-21;
