ISO-10303-21;
HEADER;
FILE_DESCRIPTION( ( 'Unknown' ), '1' );
FILE_NAME( '//SBS2003/HD_Usb/Disegni/08_LIB/Users_3D/PROD_GAMM_3D/APVX/7747571_APVX_14.stp', 'Unknown', ( 'Unknown' ), ( 'Unknown' ), 'PSStep 14.0', 'Unknown', '  ' );
FILE_SCHEMA( ( 'AUTOMOTIVE_DESIGN { 1 0 10303 214 1 1 1 1 }' ) );
ENDSEC;
DATA;
#1 = MECHANICAL_DESIGN_GEOMETRIC_PRESENTATION_REPRESENTATION( ' ', ( #10, #11, #12, #13, #14, #15, #16, #17, #18, #19, #20, #21, #22, #23 ), #6 );
#2 = PRODUCT_DEFINITION_CONTEXT( '', #24, 'design' );
#3 = APPLICATION_PROTOCOL_DEFINITION( 'international standard', 'automotive_design', 2001, #24 );
#4 = PRODUCT_CATEGORY_RELATIONSHIP( 'NONE', 'NONE', #25, #26 );
#5 = SHAPE_DEFINITION_REPRESENTATION( #27, #28 );
#6 =  ( GEOMETRIC_REPRESENTATION_CONTEXT( 3 )GLOBAL_UNCERTAINTY_ASSIGNED_CONTEXT( ( #31 ) )GLOBAL_UNIT_ASSIGNED_CONTEXT( ( #33, #34, #35 ) )REPRESENTATION_CONTEXT( 'NONE', 'WORKSPACE' ) );
#10 = STYLED_ITEM( '', ( #37 ), #38 );
#11 = STYLED_ITEM( '', ( #39 ), #40 );
#12 = STYLED_ITEM( '', ( #41 ), #42 );
#13 = STYLED_ITEM( '', ( #43 ), #44 );
#14 = STYLED_ITEM( '', ( #45 ), #46 );
#15 = STYLED_ITEM( '', ( #47 ), #48 );
#16 = STYLED_ITEM( '', ( #49 ), #50 );
#17 = STYLED_ITEM( '', ( #51 ), #52 );
#18 = STYLED_ITEM( '', ( #53 ), #54 );
#19 = STYLED_ITEM( '', ( #55 ), #56 );
#20 = STYLED_ITEM( '', ( #57 ), #58 );
#21 = STYLED_ITEM( '', ( #59 ), #60 );
#22 = STYLED_ITEM( '', ( #61 ), #62 );
#23 = STYLED_ITEM( '', ( #63 ), #64 );
#24 = APPLICATION_CONTEXT( 'core data for automotive mechanical design processes' );
#25 = PRODUCT_CATEGORY( 'part', 'NONE' );
#26 = PRODUCT_RELATED_PRODUCT_CATEGORY( 'detail', ' ', ( #65 ) );
#27 = PRODUCT_DEFINITION_SHAPE( 'NONE', 'NONE', #66 );
#28 = ADVANCED_BREP_SHAPE_REPRESENTATION( '1', ( #67, #68 ), #6 );
#31 = UNCERTAINTY_MEASURE_WITH_UNIT( LENGTH_MEASURE( 0.00100000000000000 ), #33, '', '' );
#33 =  ( CONVERSION_BASED_UNIT( 'MILLIMETRE', #71 )LENGTH_UNIT(  )NAMED_UNIT( #74 ) );
#34 =  ( NAMED_UNIT( #76 )PLANE_ANGLE_UNIT(  )SI_UNIT( $, .RADIAN. ) );
#35 =  ( NAMED_UNIT( #76 )SI_UNIT( $, .STERADIAN. )SOLID_ANGLE_UNIT(  ) );
#37 = PRESENTATION_STYLE_ASSIGNMENT( ( #82 ) );
#38 = ADVANCED_FACE( '', ( #83 ), #84, .T. );
#39 = PRESENTATION_STYLE_ASSIGNMENT( ( #85 ) );
#40 = ADVANCED_FACE( '', ( #86, #87 ), #88, .T. );
#41 = PRESENTATION_STYLE_ASSIGNMENT( ( #89 ) );
#42 = ADVANCED_FACE( '', ( #90, #91 ), #92, .T. );
#43 = PRESENTATION_STYLE_ASSIGNMENT( ( #93 ) );
#44 = ADVANCED_FACE( '', ( #94, #95 ), #96, .T. );
#45 = PRESENTATION_STYLE_ASSIGNMENT( ( #97 ) );
#46 = ADVANCED_FACE( '', ( #98 ), #99, .T. );
#47 = PRESENTATION_STYLE_ASSIGNMENT( ( #100 ) );
#48 = ADVANCED_FACE( '', ( #101 ), #102, .T. );
#49 = PRESENTATION_STYLE_ASSIGNMENT( ( #103 ) );
#50 = ADVANCED_FACE( '', ( #104 ), #105, .T. );
#51 = PRESENTATION_STYLE_ASSIGNMENT( ( #106 ) );
#52 = ADVANCED_FACE( '', ( #107 ), #108, .T. );
#53 = PRESENTATION_STYLE_ASSIGNMENT( ( #109 ) );
#54 = ADVANCED_FACE( '', ( #110 ), #111, .T. );
#55 = PRESENTATION_STYLE_ASSIGNMENT( ( #112 ) );
#56 = ADVANCED_FACE( '', ( #113, #114 ), #115, .T. );
#57 = PRESENTATION_STYLE_ASSIGNMENT( ( #116 ) );
#58 = ADVANCED_FACE( '', ( #117, #118 ), #119, .T. );
#59 = PRESENTATION_STYLE_ASSIGNMENT( ( #120 ) );
#60 = ADVANCED_FACE( '', ( #121 ), #122, .T. );
#61 = PRESENTATION_STYLE_ASSIGNMENT( ( #123 ) );
#62 = ADVANCED_FACE( '', ( #124 ), #125, .T. );
#63 = PRESENTATION_STYLE_ASSIGNMENT( ( #126 ) );
#64 = ADVANCED_FACE( '', ( #127, #128 ), #129, .T. );
#65 = PRODUCT( '1', '1', 'PART-1-DESC', ( #130 ) );
#66 = PRODUCT_DEFINITION( 'NONE', 'NONE', #131, #2 );
#67 = MANIFOLD_SOLID_BREP( '1', #132 );
#68 = AXIS2_PLACEMENT_3D( '', #133, #134, #135 );
#71 = LENGTH_MEASURE_WITH_UNIT( LENGTH_MEASURE( 1.00000000000000 ), #136 );
#74 = DIMENSIONAL_EXPONENTS( 1.00000000000000, 0.000000000000000, 0.000000000000000, 0.000000000000000, 0.000000000000000, 0.000000000000000, 0.000000000000000 );
#76 = DIMENSIONAL_EXPONENTS( 0.000000000000000, 0.000000000000000, 0.000000000000000, 0.000000000000000, 0.000000000000000, 0.000000000000000, 0.000000000000000 );
#82 = SURFACE_STYLE_USAGE( .BOTH., #137 );
#83 = FACE_OUTER_BOUND( '', #138, .T. );
#84 = CONICAL_SURFACE( '', #139, 4.70000000000000, 0.785398163397446 );
#85 = SURFACE_STYLE_USAGE( .BOTH., #140 );
#86 = FACE_OUTER_BOUND( '', #141, .T. );
#87 = FACE_OUTER_BOUND( '', #142, .T. );
#88 = CYLINDRICAL_SURFACE( '', #143, 3.00000000000000 );
#89 = SURFACE_STYLE_USAGE( .BOTH., #144 );
#90 = FACE_BOUND( '', #145, .T. );
#91 = FACE_OUTER_BOUND( '', #146, .T. );
#92 = PLANE( '', #147 );
#93 = SURFACE_STYLE_USAGE( .BOTH., #148 );
#94 = FACE_OUTER_BOUND( '', #149, .T. );
#95 = FACE_OUTER_BOUND( '', #150, .T. );
#96 = CYLINDRICAL_SURFACE( '', #151, 5.00000000000000 );
#97 = SURFACE_STYLE_USAGE( .BOTH., #152 );
#98 = FACE_OUTER_BOUND( '', #153, .T. );
#99 = PLANE( '', #154 );
#100 = SURFACE_STYLE_USAGE( .BOTH., #155 );
#101 = FACE_OUTER_BOUND( '', #156, .T. );
#102 = CONICAL_SURFACE( '', #157, 4.70000000000000, 0.785398163397446 );
#103 = SURFACE_STYLE_USAGE( .BOTH., #158 );
#104 = FACE_OUTER_BOUND( '', #159, .T. );
#105 = PLANE( '', #160 );
#106 = SURFACE_STYLE_USAGE( .BOTH., #161 );
#107 = FACE_OUTER_BOUND( '', #162, .T. );
#108 = SPHERICAL_SURFACE( '', #163, 1.75000000000000 );
#109 = SURFACE_STYLE_USAGE( .BOTH., #164 );
#110 = FACE_OUTER_BOUND( '', #165, .T. );
#111 = PLANE( '', #166 );
#112 = SURFACE_STYLE_USAGE( .BOTH., #167 );
#113 = FACE_BOUND( '', #168, .T. );
#114 = FACE_OUTER_BOUND( '', #169, .T. );
#115 = PLANE( '', #170 );
#116 = SURFACE_STYLE_USAGE( .BOTH., #171 );
#117 = FACE_OUTER_BOUND( '', #172, .T. );
#118 = FACE_OUTER_BOUND( '', #173, .T. );
#119 = CYLINDRICAL_SURFACE( '', #174, 2.50000000000000 );
#120 = SURFACE_STYLE_USAGE( .BOTH., #175 );
#121 = FACE_OUTER_BOUND( '', #176, .T. );
#122 = PLANE( '', #177 );
#123 = SURFACE_STYLE_USAGE( .BOTH., #178 );
#124 = FACE_OUTER_BOUND( '', #179, .T. );
#125 = PLANE( '', #180 );
#126 = SURFACE_STYLE_USAGE( .BOTH., #181 );
#127 = FACE_BOUND( '', #182, .T. );
#128 = FACE_OUTER_BOUND( '', #183, .T. );
#129 = CONICAL_SURFACE( '', #184, 3.00000000000000, 0.785398163397448 );
#130 = PRODUCT_CONTEXT( '', #24, 'mechanical' );
#131 = PRODUCT_DEFINITION_FORMATION_WITH_SPECIFIED_SOURCE( ' ', 'NONE', #65, .NOT_KNOWN. );
#132 = CLOSED_SHELL( '', ( #62, #64, #44, #50, #60, #54, #48, #38, #52, #46, #56, #40, #58, #42 ) );
#133 = CARTESIAN_POINT( '', ( 0.000000000000000, 0.000000000000000, 0.000000000000000 ) );
#134 = DIRECTION( '', ( 0.000000000000000, 0.000000000000000, 1.00000000000000 ) );
#135 = DIRECTION( '', ( 1.00000000000000, 0.000000000000000, 0.000000000000000 ) );
#136 =  ( LENGTH_UNIT(  )NAMED_UNIT( #74 )SI_UNIT( .MILLI., .METRE. ) );
#137 = SURFACE_SIDE_STYLE( '', ( #186 ) );
#138 = EDGE_LOOP( '', ( #187, #188, #189, #190 ) );
#139 = AXIS2_PLACEMENT_3D( '', #191, #192, #193 );
#140 = SURFACE_SIDE_STYLE( '', ( #194 ) );
#141 = EDGE_LOOP( '', ( #195 ) );
#142 = EDGE_LOOP( '', ( #196 ) );
#143 = AXIS2_PLACEMENT_3D( '', #197, #198, #199 );
#144 = SURFACE_SIDE_STYLE( '', ( #200 ) );
#145 = EDGE_LOOP( '', ( #201 ) );
#146 = EDGE_LOOP( '', ( #202 ) );
#147 = AXIS2_PLACEMENT_3D( '', #203, #204, #205 );
#148 = SURFACE_SIDE_STYLE( '', ( #206 ) );
#149 = EDGE_LOOP( '', ( #207 ) );
#150 = EDGE_LOOP( '', ( #208, #209, #210, #211, #212, #213, #214, #215 ) );
#151 = AXIS2_PLACEMENT_3D( '', #216, #217, #218 );
#152 = SURFACE_SIDE_STYLE( '', ( #219 ) );
#153 = EDGE_LOOP( '', ( #220, #221 ) );
#154 = AXIS2_PLACEMENT_3D( '', #222, #223, #224 );
#155 = SURFACE_SIDE_STYLE( '', ( #225 ) );
#156 = EDGE_LOOP( '', ( #226, #227, #228, #229 ) );
#157 = AXIS2_PLACEMENT_3D( '', #230, #231, #232 );
#158 = SURFACE_SIDE_STYLE( '', ( #233 ) );
#159 = EDGE_LOOP( '', ( #234, #235, #236, #237 ) );
#160 = AXIS2_PLACEMENT_3D( '', #238, #239, #240 );
#161 = SURFACE_SIDE_STYLE( '', ( #241 ) );
#162 = EDGE_LOOP( '', ( #242 ) );
#163 = AXIS2_PLACEMENT_3D( '', #243, #244, #245 );
#164 = SURFACE_SIDE_STYLE( '', ( #246 ) );
#165 = EDGE_LOOP( '', ( #247, #248, #249, #250, #251, #252 ) );
#166 = AXIS2_PLACEMENT_3D( '', #253, #254, #255 );
#167 = SURFACE_SIDE_STYLE( '', ( #256 ) );
#168 = EDGE_LOOP( '', ( #257 ) );
#169 = EDGE_LOOP( '', ( #258 ) );
#170 = AXIS2_PLACEMENT_3D( '', #259, #260, #261 );
#171 = SURFACE_SIDE_STYLE( '', ( #262 ) );
#172 = EDGE_LOOP( '', ( #263 ) );
#173 = EDGE_LOOP( '', ( #264 ) );
#174 = AXIS2_PLACEMENT_3D( '', #265, #266, #267 );
#175 = SURFACE_SIDE_STYLE( '', ( #268 ) );
#176 = EDGE_LOOP( '', ( #269, #270, #271, #272, #273, #274 ) );
#177 = AXIS2_PLACEMENT_3D( '', #275, #276, #277 );
#178 = SURFACE_SIDE_STYLE( '', ( #278 ) );
#179 = EDGE_LOOP( '', ( #279, #280 ) );
#180 = AXIS2_PLACEMENT_3D( '', #281, #282, #283 );
#181 = SURFACE_SIDE_STYLE( '', ( #284 ) );
#182 = EDGE_LOOP( '', ( #285 ) );
#183 = EDGE_LOOP( '', ( #286 ) );
#184 = AXIS2_PLACEMENT_3D( '', #287, #288, #289 );
#186 = SURFACE_STYLE_FILL_AREA( #290 );
#187 = ORIENTED_EDGE( '', *, *, #291, .F. );
#188 = ORIENTED_EDGE( '', *, *, #292, .F. );
#189 = ORIENTED_EDGE( '', *, *, #293, .F. );
#190 = ORIENTED_EDGE( '', *, *, #294, .F. );
#191 = CARTESIAN_POINT( '', ( 0.000000000000000, 0.000000000000000, 15.0000000000000 ) );
#192 = DIRECTION( '', ( -0.000000000000000, 0.000000000000000, -1.00000000000000 ) );
#193 = DIRECTION( '', ( -1.00000000000000, 0.000000000000000, 0.000000000000000 ) );
#194 = SURFACE_STYLE_FILL_AREA( #295 );
#195 = ORIENTED_EDGE( '', *, *, #296, .T. );
#196 = ORIENTED_EDGE( '', *, *, #297, .F. );
#197 = CARTESIAN_POINT( '', ( 0.000000000000000, 0.000000000000000, 57.1500000000000 ) );
#198 = DIRECTION( '', ( -0.000000000000000, -0.000000000000000, -1.00000000000000 ) );
#199 = DIRECTION( '', ( 1.00000000000000, 0.000000000000000, 0.000000000000000 ) );
#200 = SURFACE_STYLE_FILL_AREA( #298 );
#201 = ORIENTED_EDGE( '', *, *, #299, .T. );
#202 = ORIENTED_EDGE( '', *, *, #300, .F. );
#203 = CARTESIAN_POINT( '', ( 2.50000000000000, 0.000000000000000, 1.00000000000000 ) );
#204 = DIRECTION( '', ( 0.000000000000000, 0.000000000000000, -1.00000000000000 ) );
#205 = DIRECTION( '', ( -1.00000000000000, 0.000000000000000, 0.000000000000000 ) );
#206 = SURFACE_STYLE_FILL_AREA( #301 );
#207 = ORIENTED_EDGE( '', *, *, #302, .T. );
#208 = ORIENTED_EDGE( '', *, *, #303, .T. );
#209 = ORIENTED_EDGE( '', *, *, #304, .T. );
#210 = ORIENTED_EDGE( '', *, *, #305, .T. );
#211 = ORIENTED_EDGE( '', *, *, #306, .T. );
#212 = ORIENTED_EDGE( '', *, *, #307, .T. );
#213 = ORIENTED_EDGE( '', *, *, #292, .T. );
#214 = ORIENTED_EDGE( '', *, *, #308, .T. );
#215 = ORIENTED_EDGE( '', *, *, #309, .T. );
#216 = CARTESIAN_POINT( '', ( 0.000000000000000, 0.000000000000000, 57.1500000000000 ) );
#217 = DIRECTION( '', ( -0.000000000000000, -0.000000000000000, -1.00000000000000 ) );
#218 = DIRECTION( '', ( 1.00000000000000, 0.000000000000000, 0.000000000000000 ) );
#219 = SURFACE_STYLE_FILL_AREA( #310 );
#220 = ORIENTED_EDGE( '', *, *, #311, .F. );
#221 = ORIENTED_EDGE( '', *, *, #294, .T. );
#222 = CARTESIAN_POINT( '', ( 0.000000000000000, 0.000000000000000, 15.0000000000000 ) );
#223 = DIRECTION( '', ( 0.000000000000000, 0.000000000000000, 1.00000000000000 ) );
#224 = DIRECTION( '', ( 1.00000000000000, 0.000000000000000, 0.000000000000000 ) );
#225 = SURFACE_STYLE_FILL_AREA( #312 );
#226 = ORIENTED_EDGE( '', *, *, #313, .F. );
#227 = ORIENTED_EDGE( '', *, *, #304, .F. );
#228 = ORIENTED_EDGE( '', *, *, #314, .F. );
#229 = ORIENTED_EDGE( '', *, *, #315, .F. );
#230 = CARTESIAN_POINT( '', ( 0.000000000000000, 0.000000000000000, 15.0000000000000 ) );
#231 = DIRECTION( '', ( -0.000000000000000, 0.000000000000000, -1.00000000000000 ) );
#232 = DIRECTION( '', ( -1.00000000000000, 0.000000000000000, 0.000000000000000 ) );
#233 = SURFACE_STYLE_FILL_AREA( #316 );
#234 = ORIENTED_EDGE( '', *, *, #317, .T. );
#235 = ORIENTED_EDGE( '', *, *, #306, .F. );
#236 = ORIENTED_EDGE( '', *, *, #318, .F. );
#237 = ORIENTED_EDGE( '', *, *, #309, .F. );
#238 = CARTESIAN_POINT( '', ( -0.650000000000000, -10.0000000000000, 14.0000000000000 ) );
#239 = DIRECTION( '', ( 0.000000000000000, 0.000000000000000, 1.00000000000000 ) );
#240 = DIRECTION( '', ( 1.00000000000000, 0.000000000000000, 0.000000000000000 ) );
#241 = SURFACE_STYLE_FILL_AREA( #319 );
#242 = ORIENTED_EDGE( '', *, *, #299, .F. );
#243 = CARTESIAN_POINT( '', ( 0.000000000000000, 0.000000000000000, 1.75000000000000 ) );
#244 = DIRECTION( '', ( 0.000000000000000, 0.000000000000000, 1.00000000000000 ) );
#245 = DIRECTION( '', ( 1.00000000000000, 0.000000000000000, 0.000000000000000 ) );
#246 = SURFACE_STYLE_FILL_AREA( #320 );
#247 = ORIENTED_EDGE( '', *, *, #321, .F. );
#248 = ORIENTED_EDGE( '', *, *, #314, .T. );
#249 = ORIENTED_EDGE( '', *, *, #303, .F. );
#250 = ORIENTED_EDGE( '', *, *, #318, .T. );
#251 = ORIENTED_EDGE( '', *, *, #305, .F. );
#252 = ORIENTED_EDGE( '', *, *, #313, .T. );
#253 = CARTESIAN_POINT( '', ( -0.650000000000000, -10.0000000000000, 15.0000000000000 ) );
#254 = DIRECTION( '', ( 1.00000000000000, 0.000000000000000, 1.08420217248550E-016 ) );
#255 = DIRECTION( '', ( 1.08420217248550E-016, 0.000000000000000, -1.00000000000000 ) );
#256 = SURFACE_STYLE_FILL_AREA( #322 );
#257 = ORIENTED_EDGE( '', *, *, #297, .T. );
#258 = ORIENTED_EDGE( '', *, *, #302, .F. );
#259 = CARTESIAN_POINT( '', ( 5.00000000000000, 0.000000000000000, 9.80000000000000 ) );
#260 = DIRECTION( '', ( 0.000000000000000, 0.000000000000000, -1.00000000000000 ) );
#261 = DIRECTION( '', ( -1.00000000000000, 0.000000000000000, 0.000000000000000 ) );
#262 = SURFACE_STYLE_FILL_AREA( #323 );
#263 = ORIENTED_EDGE( '', *, *, #300, .T. );
#264 = ORIENTED_EDGE( '', *, *, #324, .F. );
#265 = CARTESIAN_POINT( '', ( 0.000000000000000, 0.000000000000000, 57.1500000000000 ) );
#266 = DIRECTION( '', ( -0.000000000000000, -0.000000000000000, -1.00000000000000 ) );
#267 = DIRECTION( '', ( 1.00000000000000, 0.000000000000000, 0.000000000000000 ) );
#268 = SURFACE_STYLE_FILL_AREA( #325 );
#269 = ORIENTED_EDGE( '', *, *, #311, .T. );
#270 = ORIENTED_EDGE( '', *, *, #293, .T. );
#271 = ORIENTED_EDGE( '', *, *, #307, .F. );
#272 = ORIENTED_EDGE( '', *, *, #317, .F. );
#273 = ORIENTED_EDGE( '', *, *, #308, .F. );
#274 = ORIENTED_EDGE( '', *, *, #291, .T. );
#275 = CARTESIAN_POINT( '', ( 0.650000000000000, -10.0000000000000, 14.0000000000000 ) );
#276 = DIRECTION( '', ( -1.00000000000000, 0.000000000000000, 1.08420217248550E-016 ) );
#277 = DIRECTION( '', ( 1.08420217248550E-016, 0.000000000000000, 1.00000000000000 ) );
#278 = SURFACE_STYLE_FILL_AREA( #326 );
#279 = ORIENTED_EDGE( '', *, *, #321, .T. );
#280 = ORIENTED_EDGE( '', *, *, #315, .T. );
#281 = CARTESIAN_POINT( '', ( 0.000000000000000, 0.000000000000000, 15.0000000000000 ) );
#282 = DIRECTION( '', ( 0.000000000000000, 0.000000000000000, 1.00000000000000 ) );
#283 = DIRECTION( '', ( 1.00000000000000, 0.000000000000000, 0.000000000000000 ) );
#284 = SURFACE_STYLE_FILL_AREA( #327 );
#285 = ORIENTED_EDGE( '', *, *, #324, .T. );
#286 = ORIENTED_EDGE( '', *, *, #296, .F. );
#287 = CARTESIAN_POINT( '', ( 0.000000000000000, 0.000000000000000, 2.50000000000000 ) );
#288 = DIRECTION( '', ( -0.000000000000000, -0.000000000000000, 1.00000000000000 ) );
#289 = DIRECTION( '', ( 1.00000000000000, 0.000000000000000, 0.000000000000000 ) );
#290 = FILL_AREA_STYLE( '', ( #328 ) );
#291 = EDGE_CURVE( '', #329, #330, #331, .T. );
#292 = EDGE_CURVE( '', #332, #329, #333, .F. );
#293 = EDGE_CURVE( '', #334, #332, #335, .T. );
#294 = EDGE_CURVE( '', #330, #334, #336, .T. );
#295 = FILL_AREA_STYLE( '', ( #337 ) );
#296 = EDGE_CURVE( '', #338, #338, #339, .F. );
#297 = EDGE_CURVE( '', #340, #340, #341, .T. );
#298 = FILL_AREA_STYLE( '', ( #342 ) );
#299 = EDGE_CURVE( '', #343, #343, #344, .T. );
#300 = EDGE_CURVE( '', #345, #345, #346, .T. );
#301 = FILL_AREA_STYLE( '', ( #347 ) );
#302 = EDGE_CURVE( '', #348, #348, #349, .T. );
#303 = EDGE_CURVE( '', #350, #351, #352, .T. );
#304 = EDGE_CURVE( '', #351, #353, #354, .F. );
#305 = EDGE_CURVE( '', #353, #355, #356, .F. );
#306 = EDGE_CURVE( '', #355, #357, #358, .F. );
#307 = EDGE_CURVE( '', #357, #332, #359, .T. );
#308 = EDGE_CURVE( '', #329, #360, #361, .F. );
#309 = EDGE_CURVE( '', #360, #350, #362, .F. );
#310 = FILL_AREA_STYLE( '', ( #363 ) );
#311 = EDGE_CURVE( '', #330, #334, #364, .T. );
#312 = FILL_AREA_STYLE( '', ( #365 ) );
#313 = EDGE_CURVE( '', #353, #366, #367, .T. );
#314 = EDGE_CURVE( '', #368, #351, #369, .T. );
#315 = EDGE_CURVE( '', #366, #368, #370, .T. );
#316 = FILL_AREA_STYLE( '', ( #371 ) );
#317 = EDGE_CURVE( '', #360, #357, #372, .T. );
#318 = EDGE_CURVE( '', #350, #355, #373, .T. );
#319 = FILL_AREA_STYLE( '', ( #374 ) );
#320 = FILL_AREA_STYLE( '', ( #375 ) );
#321 = EDGE_CURVE( '', #368, #366, #376, .T. );
#322 = FILL_AREA_STYLE( '', ( #377 ) );
#323 = FILL_AREA_STYLE( '', ( #378 ) );
#324 = EDGE_CURVE( '', #379, #379, #380, .T. );
#325 = FILL_AREA_STYLE( '', ( #381 ) );
#326 = FILL_AREA_STYLE( '', ( #382 ) );
#327 = FILL_AREA_STYLE( '', ( #383 ) );
#328 = FILL_AREA_STYLE_COLOUR( '', #384 );
#329 = VERTEX_POINT( '', #385 );
#330 = VERTEX_POINT( '', #386 );
#331 = B_SPLINE_CURVE_WITH_KNOTS( '', 3, ( #387, #388, #389, #390 ), .UNSPECIFIED., .F., .F., ( 4, 4 ), ( 0.000000000000000, 0.000426201523014047 ), .UNSPECIFIED. );
#332 = VERTEX_POINT( '', #391 );
#333 = CIRCLE( '', #392, 5.00000000000000 );
#334 = VERTEX_POINT( '', #393 );
#335 = B_SPLINE_CURVE_WITH_KNOTS( '', 3, ( #394, #395, #396, #397 ), .UNSPECIFIED., .F., .F., ( 4, 4 ), ( 0.000000000000000, 0.000426201523014047 ), .UNSPECIFIED. );
#336 = CIRCLE( '', #398, 4.70000000000000 );
#337 = FILL_AREA_STYLE_COLOUR( '', #399 );
#338 = VERTEX_POINT( '', #400 );
#339 = CIRCLE( '', #401, 3.00000000000000 );
#340 = VERTEX_POINT( '', #402 );
#341 = CIRCLE( '', #403, 3.00000000000000 );
#342 = FILL_AREA_STYLE_COLOUR( '', #404 );
#343 = VERTEX_POINT( '', #405 );
#344 = CIRCLE( '', #406, 1.58113883008419 );
#345 = VERTEX_POINT( '', #407 );
#346 = CIRCLE( '', #408, 2.50000000000000 );
#347 = FILL_AREA_STYLE_COLOUR( '', #409 );
#348 = VERTEX_POINT( '', #410 );
#349 = CIRCLE( '', #411, 5.00000000000000 );
#350 = VERTEX_POINT( '', #412 );
#351 = VERTEX_POINT( '', #413 );
#352 = LINE( '', #414, #415 );
#353 = VERTEX_POINT( '', #416 );
#354 = CIRCLE( '', #417, 5.00000000000000 );
#355 = VERTEX_POINT( '', #418 );
#356 = LINE( '', #419, #420 );
#357 = VERTEX_POINT( '', #421 );
#358 = CIRCLE( '', #422, 5.00000000000000 );
#359 = LINE( '', #423, #424 );
#360 = VERTEX_POINT( '', #425 );
#361 = LINE( '', #426, #427 );
#362 = CIRCLE( '', #428, 5.00000000000000 );
#363 = FILL_AREA_STYLE_COLOUR( '', #429 );
#364 = LINE( '', #430, #431 );
#365 = FILL_AREA_STYLE_COLOUR( '', #432 );
#366 = VERTEX_POINT( '', #433 );
#367 = B_SPLINE_CURVE_WITH_KNOTS( '', 3, ( #434, #435, #436, #437 ), .UNSPECIFIED., .F., .F., ( 4, 4 ), ( 0.000000000000000, 0.000426201523014047 ), .UNSPECIFIED. );
#368 = VERTEX_POINT( '', #438 );
#369 = B_SPLINE_CURVE_WITH_KNOTS( '', 3, ( #439, #440, #441, #442 ), .UNSPECIFIED., .F., .F., ( 4, 4 ), ( 0.000000000000000, 0.000426201523014047 ), .UNSPECIFIED. );
#370 = CIRCLE( '', #443, 4.70000000000000 );
#371 = FILL_AREA_STYLE_COLOUR( '', #444 );
#372 = LINE( '', #445, #446 );
#373 = LINE( '', #447, #448 );
#374 = FILL_AREA_STYLE_COLOUR( '', #449 );
#375 = FILL_AREA_STYLE_COLOUR( '', #450 );
#376 = LINE( '', #451, #452 );
#377 = FILL_AREA_STYLE_COLOUR( '', #453 );
#378 = FILL_AREA_STYLE_COLOUR( '', #454 );
#379 = VERTEX_POINT( '', #455 );
#380 = CIRCLE( '', #456, 2.50000000000000 );
#381 = FILL_AREA_STYLE_COLOUR( '', #457 );
#382 = FILL_AREA_STYLE_COLOUR( '', #458 );
#383 = FILL_AREA_STYLE_COLOUR( '', #459 );
#384 = COLOUR_RGB( '', 0.800000011920929, 0.800000011920929, 0.800000011920929 );
#385 = CARTESIAN_POINT( '', ( 0.650000000000000, -4.95756996924905, 14.7000000000000 ) );
#386 = CARTESIAN_POINT( '', ( 0.650000000000000, -4.65483619475487, 15.0000000000000 ) );
#387 = CARTESIAN_POINT( '', ( 0.650000000000000, -4.95756996924905, 14.7000000000000 ) );
#388 = CARTESIAN_POINT( '', ( 0.650000000000000, -4.85668616858891, 14.8000277001073 ) );
#389 = CARTESIAN_POINT( '', ( 0.650000000000000, -4.75577667108430, 14.9000294930353 ) );
#390 = CARTESIAN_POINT( '', ( 0.650000000000000, -4.65483619475487, 15.0000000000000 ) );
#391 = CARTESIAN_POINT( '', ( 0.650000000000000, 4.95756996924905, 14.7000000000000 ) );
#392 = AXIS2_PLACEMENT_3D( '', #460, #461, #462 );
#393 = CARTESIAN_POINT( '', ( 0.650000000000000, 4.65483619475487, 15.0000000000000 ) );
#394 = CARTESIAN_POINT( '', ( 0.650000000000000, 4.65483619475487, 15.0000000000000 ) );
#395 = CARTESIAN_POINT( '', ( 0.650000000000000, 4.75577667108430, 14.9000294930353 ) );
#396 = CARTESIAN_POINT( '', ( 0.650000000000000, 4.85668616858891, 14.8000277001073 ) );
#397 = CARTESIAN_POINT( '', ( 0.650000000000000, 4.95756996924905, 14.7000000000000 ) );
#398 = AXIS2_PLACEMENT_3D( '', #463, #464, #465 );
#399 = COLOUR_RGB( '', 0.752941191196442, 0.752941191196442, 0.752941191196442 );
#400 = CARTESIAN_POINT( '', ( -3.00000000000000, 0.000000000000000, 2.50000000000000 ) );
#401 = AXIS2_PLACEMENT_3D( '', #466, #467, #468 );
#402 = CARTESIAN_POINT( '', ( 3.00000000000000, 0.000000000000000, 9.80000000000000 ) );
#403 = AXIS2_PLACEMENT_3D( '', #469, #470, #471 );
#404 = COLOUR_RGB( '', 0.800000011920929, 0.800000011920929, 0.800000011920929 );
#405 = CARTESIAN_POINT( '', ( 1.58113883008419, 0.000000000000000, 1.00000000000000 ) );
#406 = AXIS2_PLACEMENT_3D( '', #472, #473, #474 );
#407 = CARTESIAN_POINT( '', ( 2.50000000000000, 0.000000000000000, 1.00000000000000 ) );
#408 = AXIS2_PLACEMENT_3D( '', #475, #476, #477 );
#409 = COLOUR_RGB( '', 0.800000011920929, 0.800000011920929, 0.800000011920929 );
#410 = CARTESIAN_POINT( '', ( 5.00000000000000, 0.000000000000000, 9.80000000000000 ) );
#411 = AXIS2_PLACEMENT_3D( '', #478, #479, #480 );
#412 = CARTESIAN_POINT( '', ( -0.650000000000000, -4.95756996924905, 14.0000000000000 ) );
#413 = CARTESIAN_POINT( '', ( -0.650000000000000, -4.95756996924905, 14.7000000000000 ) );
#414 = CARTESIAN_POINT( '', ( -0.650000000000000, -4.95756996924905, 57.1500000000000 ) );
#415 = VECTOR( '', #481, 1000.00000000000 );
#416 = CARTESIAN_POINT( '', ( -0.650000000000000, 4.95756996924905, 14.7000000000000 ) );
#417 = AXIS2_PLACEMENT_3D( '', #482, #483, #484 );
#418 = CARTESIAN_POINT( '', ( -0.650000000000000, 4.95756996924905, 14.0000000000000 ) );
#419 = CARTESIAN_POINT( '', ( -0.650000000000000, 4.95756996924905, 57.1500000000000 ) );
#420 = VECTOR( '', #485, 1000.00000000000 );
#421 = CARTESIAN_POINT( '', ( 0.650000000000000, 4.95756996924905, 14.0000000000000 ) );
#422 = AXIS2_PLACEMENT_3D( '', #486, #487, #488 );
#423 = CARTESIAN_POINT( '', ( 0.650000000000000, 4.95756996924905, 57.1500000000000 ) );
#424 = VECTOR( '', #489, 1000.00000000000 );
#425 = CARTESIAN_POINT( '', ( 0.650000000000000, -4.95756996924905, 14.0000000000000 ) );
#426 = CARTESIAN_POINT( '', ( 0.650000000000000, -4.95756996924905, 57.1500000000000 ) );
#427 = VECTOR( '', #490, 1000.00000000000 );
#428 = AXIS2_PLACEMENT_3D( '', #491, #492, #493 );
#429 = COLOUR_RGB( '', 0.800000011920929, 0.800000011920929, 0.800000011920929 );
#430 = CARTESIAN_POINT( '', ( 0.650000000000000, -10.0000000000000, 15.0000000000000 ) );
#431 = VECTOR( '', #494, 1000.00000000000 );
#432 = COLOUR_RGB( '', 0.800000011920929, 0.800000011920929, 0.800000011920929 );
#433 = CARTESIAN_POINT( '', ( -0.650000000000000, 4.65483619475487, 15.0000000000000 ) );
#434 = CARTESIAN_POINT( '', ( -0.650000000000000, 4.95756996924905, 14.7000000000000 ) );
#435 = CARTESIAN_POINT( '', ( -0.650000000000000, 4.85668616858891, 14.8000277001073 ) );
#436 = CARTESIAN_POINT( '', ( -0.650000000000000, 4.75577667108430, 14.9000294930353 ) );
#437 = CARTESIAN_POINT( '', ( -0.650000000000000, 4.65483619475487, 15.0000000000000 ) );
#438 = CARTESIAN_POINT( '', ( -0.650000000000000, -4.65483619475487, 15.0000000000000 ) );
#439 = CARTESIAN_POINT( '', ( -0.650000000000000, -4.65483619475487, 15.0000000000000 ) );
#440 = CARTESIAN_POINT( '', ( -0.650000000000000, -4.75577667108430, 14.9000294930353 ) );
#441 = CARTESIAN_POINT( '', ( -0.650000000000000, -4.85668616858891, 14.8000277001073 ) );
#442 = CARTESIAN_POINT( '', ( -0.650000000000000, -4.95756996924905, 14.7000000000000 ) );
#443 = AXIS2_PLACEMENT_3D( '', #495, #496, #497 );
#444 = COLOUR_RGB( '', 0.800000011920929, 0.800000011920929, 0.800000011920929 );
#445 = CARTESIAN_POINT( '', ( 0.650000000000000, -10.0000000000000, 14.0000000000000 ) );
#446 = VECTOR( '', #498, 1000.00000000000 );
#447 = CARTESIAN_POINT( '', ( -0.650000000000000, -10.0000000000000, 14.0000000000000 ) );
#448 = VECTOR( '', #499, 1000.00000000000 );
#449 = COLOUR_RGB( '', 0.800000011920929, 0.800000011920929, 0.800000011920929 );
#450 = COLOUR_RGB( '', 0.800000011920929, 0.800000011920929, 0.800000011920929 );
#451 = CARTESIAN_POINT( '', ( -0.650000000000000, -10.0000000000000, 15.0000000000000 ) );
#452 = VECTOR( '', #500, 1000.00000000000 );
#453 = COLOUR_RGB( '', 0.800000011920929, 0.800000011920929, 0.800000011920929 );
#454 = COLOUR_RGB( '', 0.800000011920929, 0.800000011920929, 0.800000011920929 );
#455 = CARTESIAN_POINT( '', ( 2.50000000000000, 0.000000000000000, 2.00000000000000 ) );
#456 = AXIS2_PLACEMENT_3D( '', #501, #502, #503 );
#457 = COLOUR_RGB( '', 0.800000011920929, 0.800000011920929, 0.800000011920929 );
#458 = COLOUR_RGB( '', 0.800000011920929, 0.800000011920929, 0.800000011920929 );
#459 = COLOUR_RGB( '', 0.800000011920929, 0.800000011920929, 0.800000011920929 );
#460 = CARTESIAN_POINT( '', ( 0.000000000000000, 0.000000000000000, 14.7000000000000 ) );
#461 = DIRECTION( '', ( 0.000000000000000, 0.000000000000000, 1.00000000000000 ) );
#462 = DIRECTION( '', ( 1.00000000000000, 0.000000000000000, 0.000000000000000 ) );
#463 = CARTESIAN_POINT( '', ( 0.000000000000000, 0.000000000000000, 15.0000000000000 ) );
#464 = DIRECTION( '', ( 0.000000000000000, 0.000000000000000, 1.00000000000000 ) );
#465 = DIRECTION( '', ( 1.00000000000000, 0.000000000000000, 0.000000000000000 ) );
#466 = CARTESIAN_POINT( '', ( 0.000000000000000, 0.000000000000000, 2.50000000000000 ) );
#467 = DIRECTION( '', ( 0.000000000000000, 0.000000000000000, -1.00000000000000 ) );
#468 = DIRECTION( '', ( -1.00000000000000, 0.000000000000000, 0.000000000000000 ) );
#469 = CARTESIAN_POINT( '', ( 0.000000000000000, 0.000000000000000, 9.80000000000000 ) );
#470 = DIRECTION( '', ( 0.000000000000000, 0.000000000000000, 1.00000000000000 ) );
#471 = DIRECTION( '', ( 1.00000000000000, 0.000000000000000, 0.000000000000000 ) );
#472 = CARTESIAN_POINT( '', ( 0.000000000000000, 0.000000000000000, 1.00000000000000 ) );
#473 = DIRECTION( '', ( 0.000000000000000, 0.000000000000000, 1.00000000000000 ) );
#474 = DIRECTION( '', ( 1.00000000000000, 0.000000000000000, 0.000000000000000 ) );
#475 = CARTESIAN_POINT( '', ( 0.000000000000000, 0.000000000000000, 1.00000000000000 ) );
#476 = DIRECTION( '', ( 0.000000000000000, 0.000000000000000, 1.00000000000000 ) );
#477 = DIRECTION( '', ( 1.00000000000000, 0.000000000000000, 0.000000000000000 ) );
#478 = CARTESIAN_POINT( '', ( 0.000000000000000, 0.000000000000000, 9.80000000000000 ) );
#479 = DIRECTION( '', ( 0.000000000000000, 0.000000000000000, 1.00000000000000 ) );
#480 = DIRECTION( '', ( 1.00000000000000, 0.000000000000000, 0.000000000000000 ) );
#481 = DIRECTION( '', ( 0.000000000000000, 0.000000000000000, 1.00000000000000 ) );
#482 = CARTESIAN_POINT( '', ( 0.000000000000000, 0.000000000000000, 14.7000000000000 ) );
#483 = DIRECTION( '', ( 0.000000000000000, 0.000000000000000, 1.00000000000000 ) );
#484 = DIRECTION( '', ( 1.00000000000000, 0.000000000000000, 0.000000000000000 ) );
#485 = DIRECTION( '', ( 0.000000000000000, 0.000000000000000, 1.00000000000000 ) );
#486 = CARTESIAN_POINT( '', ( 0.000000000000000, 0.000000000000000, 14.0000000000000 ) );
#487 = DIRECTION( '', ( 0.000000000000000, 0.000000000000000, 1.00000000000000 ) );
#488 = DIRECTION( '', ( 1.00000000000000, 0.000000000000000, 0.000000000000000 ) );
#489 = DIRECTION( '', ( 0.000000000000000, 0.000000000000000, 1.00000000000000 ) );
#490 = DIRECTION( '', ( 0.000000000000000, 0.000000000000000, 1.00000000000000 ) );
#491 = CARTESIAN_POINT( '', ( 0.000000000000000, 0.000000000000000, 14.0000000000000 ) );
#492 = DIRECTION( '', ( 0.000000000000000, 0.000000000000000, 1.00000000000000 ) );
#493 = DIRECTION( '', ( 1.00000000000000, 0.000000000000000, 0.000000000000000 ) );
#494 = DIRECTION( '', ( 0.000000000000000, 1.00000000000000, 0.000000000000000 ) );
#495 = CARTESIAN_POINT( '', ( 0.000000000000000, 0.000000000000000, 15.0000000000000 ) );
#496 = DIRECTION( '', ( 0.000000000000000, 0.000000000000000, 1.00000000000000 ) );
#497 = DIRECTION( '', ( 1.00000000000000, 0.000000000000000, 0.000000000000000 ) );
#498 = DIRECTION( '', ( 0.000000000000000, 1.00000000000000, 0.000000000000000 ) );
#499 = DIRECTION( '', ( 0.000000000000000, 1.00000000000000, 0.000000000000000 ) );
#500 = DIRECTION( '', ( 0.000000000000000, 1.00000000000000, 0.000000000000000 ) );
#501 = CARTESIAN_POINT( '', ( 0.000000000000000, 0.000000000000000, 2.00000000000000 ) );
#502 = DIRECTION( '', ( 0.000000000000000, 0.000000000000000, 1.00000000000000 ) );
#503 = DIRECTION( '', ( 1.00000000000000, 0.000000000000000, 0.000000000000000 ) );
ENDSEC;
END-ISO-10303-21;
