ISO-10303-21;
HEADER;
FILE_DESCRIPTION( ( 'Unknown' ), '1' );
FILE_NAME( '//SBS2003/HD_Usb/Disegni/08_LIB/Users_3D/PROD_GAMM_3D/APVX/7747576_APVX_16.stp', 'Unknown', ( 'Unknown' ), ( 'Unknown' ), 'PSStep 14.0', 'Unknown', '  ' );
FILE_SCHEMA( ( 'AUTOMOTIVE_DESIGN { 1 0 10303 214 1 1 1 1 }' ) );
ENDSEC;
DATA;
#1 = MECHANICAL_DESIGN_GEOMETRIC_PRESENTATION_REPRESENTATION( ' ', ( #10, #11, #12, #13, #14, #15, #16, #17, #18, #19, #20, #21, #22, #23 ), #6 );
#2 = PRODUCT_DEFINITION_CONTEXT( '', #24, 'design' );
#3 = APPLICATION_PROTOCOL_DEFINITION( 'international standard', 'automotive_design', 2001, #24 );
#4 = PRODUCT_CATEGORY_RELATIONSHIP( 'NONE', 'NONE', #25, #26 );
#5 = SHAPE_DEFINITION_REPRESENTATION( #27, #28 );
#6 =  ( GEOMETRIC_REPRESENTATION_CONTEXT( 3 )GLOBAL_UNCERTAINTY_ASSIGNED_CONTEXT( ( #31 ) )GLOBAL_UNIT_ASSIGNED_CONTEXT( ( #33, #34, #35 ) )REPRESENTATION_CONTEXT( 'NONE', 'WORKSPACE' ) );
#10 = STYLED_ITEM( '', ( #37 ), #38 );
#11 = STYLED_ITEM( '', ( #39 ), #40 );
#12 = STYLED_ITEM( '', ( #41 ), #42 );
#13 = STYLED_ITEM( '', ( #43 ), #44 );
#14 = STYLED_ITEM( '', ( #45 ), #46 );
#15 = STYLED_ITEM( '', ( #47 ), #48 );
#16 = STYLED_ITEM( '', ( #49 ), #50 );
#17 = STYLED_ITEM( '', ( #51 ), #52 );
#18 = STYLED_ITEM( '', ( #53 ), #54 );
#19 = STYLED_ITEM( '', ( #55 ), #56 );
#20 = STYLED_ITEM( '', ( #57 ), #58 );
#21 = STYLED_ITEM( '', ( #59 ), #60 );
#22 = STYLED_ITEM( '', ( #61 ), #62 );
#23 = STYLED_ITEM( '', ( #63 ), #64 );
#24 = APPLICATION_CONTEXT( 'core data for automotive mechanical design processes' );
#25 = PRODUCT_CATEGORY( 'part', 'NONE' );
#26 = PRODUCT_RELATED_PRODUCT_CATEGORY( 'detail', ' ', ( #65 ) );
#27 = PRODUCT_DEFINITION_SHAPE( 'NONE', 'NONE', #66 );
#28 = ADVANCED_BREP_SHAPE_REPRESENTATION( '1', ( #67, #68 ), #6 );
#31 = UNCERTAINTY_MEASURE_WITH_UNIT( LENGTH_MEASURE( 0.00100000000000000 ), #33, '', '' );
#33 =  ( CONVERSION_BASED_UNIT( 'MILLIMETRE', #71 )LENGTH_UNIT(  )NAMED_UNIT( #74 ) );
#34 =  ( NAMED_UNIT( #76 )PLANE_ANGLE_UNIT(  )SI_UNIT( $, .RADIAN. ) );
#35 =  ( NAMED_UNIT( #76 )SI_UNIT( $, .STERADIAN. )SOLID_ANGLE_UNIT(  ) );
#37 = PRESENTATION_STYLE_ASSIGNMENT( ( #82 ) );
#38 = ADVANCED_FACE( '', ( #83 ), #84, .T. );
#39 = PRESENTATION_STYLE_ASSIGNMENT( ( #85 ) );
#40 = ADVANCED_FACE( '', ( #86, #87 ), #88, .T. );
#41 = PRESENTATION_STYLE_ASSIGNMENT( ( #89 ) );
#42 = ADVANCED_FACE( '', ( #90 ), #91, .T. );
#43 = PRESENTATION_STYLE_ASSIGNMENT( ( #92 ) );
#44 = ADVANCED_FACE( '', ( #93, #94 ), #95, .T. );
#45 = PRESENTATION_STYLE_ASSIGNMENT( ( #96 ) );
#46 = ADVANCED_FACE( '', ( #97 ), #98, .T. );
#47 = PRESENTATION_STYLE_ASSIGNMENT( ( #99 ) );
#48 = ADVANCED_FACE( '', ( #100 ), #101, .T. );
#49 = PRESENTATION_STYLE_ASSIGNMENT( ( #102 ) );
#50 = ADVANCED_FACE( '', ( #103 ), #104, .T. );
#51 = PRESENTATION_STYLE_ASSIGNMENT( ( #105 ) );
#52 = ADVANCED_FACE( '', ( #106, #107 ), #108, .T. );
#53 = PRESENTATION_STYLE_ASSIGNMENT( ( #109 ) );
#54 = ADVANCED_FACE( '', ( #110 ), #111, .T. );
#55 = PRESENTATION_STYLE_ASSIGNMENT( ( #112 ) );
#56 = ADVANCED_FACE( '', ( #113 ), #114, .T. );
#57 = PRESENTATION_STYLE_ASSIGNMENT( ( #115 ) );
#58 = ADVANCED_FACE( '', ( #116, #117 ), #118, .T. );
#59 = PRESENTATION_STYLE_ASSIGNMENT( ( #119 ) );
#60 = ADVANCED_FACE( '', ( #120, #121 ), #122, .T. );
#61 = PRESENTATION_STYLE_ASSIGNMENT( ( #123 ) );
#62 = ADVANCED_FACE( '', ( #124, #125 ), #126, .T. );
#63 = PRESENTATION_STYLE_ASSIGNMENT( ( #127 ) );
#64 = ADVANCED_FACE( '', ( #128 ), #129, .T. );
#65 = PRODUCT( '1', '1', 'PART-1-DESC', ( #130 ) );
#66 = PRODUCT_DEFINITION( 'NONE', 'NONE', #131, #2 );
#67 = MANIFOLD_SOLID_BREP( '1', #132 );
#68 = AXIS2_PLACEMENT_3D( '', #133, #134, #135 );
#71 = LENGTH_MEASURE_WITH_UNIT( LENGTH_MEASURE( 1.00000000000000 ), #136 );
#74 = DIMENSIONAL_EXPONENTS( 1.00000000000000, 0.000000000000000, 0.000000000000000, 0.000000000000000, 0.000000000000000, 0.000000000000000, 0.000000000000000 );
#76 = DIMENSIONAL_EXPONENTS( 0.000000000000000, 0.000000000000000, 0.000000000000000, 0.000000000000000, 0.000000000000000, 0.000000000000000, 0.000000000000000 );
#82 = SURFACE_STYLE_USAGE( .BOTH., #137 );
#83 = FACE_OUTER_BOUND( '', #138, .T. );
#84 = PLANE( '', #139 );
#85 = SURFACE_STYLE_USAGE( .BOTH., #140 );
#86 = FACE_OUTER_BOUND( '', #141, .T. );
#87 = FACE_OUTER_BOUND( '', #142, .T. );
#88 = CYLINDRICAL_SURFACE( '', #143, 3.50000000000000 );
#89 = SURFACE_STYLE_USAGE( .BOTH., #144 );
#90 = FACE_OUTER_BOUND( '', #145, .T. );
#91 = PLANE( '', #146 );
#92 = SURFACE_STYLE_USAGE( .BOTH., #147 );
#93 = FACE_BOUND( '', #148, .T. );
#94 = FACE_OUTER_BOUND( '', #149, .T. );
#95 = PLANE( '', #150 );
#96 = SURFACE_STYLE_USAGE( .BOTH., #151 );
#97 = FACE_OUTER_BOUND( '', #152, .T. );
#98 = PLANE( '', #153 );
#99 = SURFACE_STYLE_USAGE( .BOTH., #154 );
#100 = FACE_OUTER_BOUND( '', #155, .T. );
#101 = SPHERICAL_SURFACE( '', #156, 2.50000000000000 );
#102 = SURFACE_STYLE_USAGE( .BOTH., #157 );
#103 = FACE_OUTER_BOUND( '', #158, .T. );
#104 = PLANE( '', #159 );
#105 = SURFACE_STYLE_USAGE( .BOTH., #160 );
#106 = FACE_OUTER_BOUND( '', #161, .T. );
#107 = FACE_OUTER_BOUND( '', #162, .T. );
#108 = CYLINDRICAL_SURFACE( '', #163, 4.00000000000000 );
#109 = SURFACE_STYLE_USAGE( .BOTH., #164 );
#110 = FACE_OUTER_BOUND( '', #165, .T. );
#111 = CONICAL_SURFACE( '', #166, 6.20000000000000, 0.785398163397446 );
#112 = SURFACE_STYLE_USAGE( .BOTH., #167 );
#113 = FACE_OUTER_BOUND( '', #168, .T. );
#114 = CONICAL_SURFACE( '', #169, 6.20000000000000, 0.785398163397446 );
#115 = SURFACE_STYLE_USAGE( .BOTH., #170 );
#116 = FACE_BOUND( '', #171, .T. );
#117 = FACE_OUTER_BOUND( '', #172, .T. );
#118 = PLANE( '', #173 );
#119 = SURFACE_STYLE_USAGE( .BOTH., #174 );
#120 = FACE_BOUND( '', #175, .T. );
#121 = FACE_OUTER_BOUND( '', #176, .T. );
#122 = CONICAL_SURFACE( '', #177, 4.00000000000000, 0.785398163397448 );
#123 = SURFACE_STYLE_USAGE( .BOTH., #178 );
#124 = FACE_OUTER_BOUND( '', #179, .T. );
#125 = FACE_OUTER_BOUND( '', #180, .T. );
#126 = CYLINDRICAL_SURFACE( '', #181, 6.50000000000000 );
#127 = SURFACE_STYLE_USAGE( .BOTH., #182 );
#128 = FACE_OUTER_BOUND( '', #183, .T. );
#129 = PLANE( '', #184 );
#130 = PRODUCT_CONTEXT( '', #24, 'mechanical' );
#131 = PRODUCT_DEFINITION_FORMATION_WITH_SPECIFIED_SOURCE( ' ', 'NONE', #65, .NOT_KNOWN. );
#132 = CLOSED_SHELL( '', ( #38, #60, #62, #46, #42, #50, #56, #54, #48, #64, #44, #52, #40, #58 ) );
#133 = CARTESIAN_POINT( '', ( 0.000000000000000, 0.000000000000000, 0.000000000000000 ) );
#134 = DIRECTION( '', ( 0.000000000000000, 0.000000000000000, 1.00000000000000 ) );
#135 = DIRECTION( '', ( 1.00000000000000, 0.000000000000000, 0.000000000000000 ) );
#136 =  ( LENGTH_UNIT(  )NAMED_UNIT( #74 )SI_UNIT( .MILLI., .METRE. ) );
#137 = SURFACE_SIDE_STYLE( '', ( #186 ) );
#138 = EDGE_LOOP( '', ( #187, #188 ) );
#139 = AXIS2_PLACEMENT_3D( '', #189, #190, #191 );
#140 = SURFACE_SIDE_STYLE( '', ( #192 ) );
#141 = EDGE_LOOP( '', ( #193 ) );
#142 = EDGE_LOOP( '', ( #194 ) );
#143 = AXIS2_PLACEMENT_3D( '', #195, #196, #197 );
#144 = SURFACE_SIDE_STYLE( '', ( #198 ) );
#145 = EDGE_LOOP( '', ( #199, #200, #201, #202, #203, #204 ) );
#146 = AXIS2_PLACEMENT_3D( '', #205, #206, #207 );
#147 = SURFACE_SIDE_STYLE( '', ( #208 ) );
#148 = EDGE_LOOP( '', ( #209 ) );
#149 = EDGE_LOOP( '', ( #210 ) );
#150 = AXIS2_PLACEMENT_3D( '', #211, #212, #213 );
#151 = SURFACE_SIDE_STYLE( '', ( #214 ) );
#152 = EDGE_LOOP( '', ( #215, #216, #217, #218 ) );
#153 = AXIS2_PLACEMENT_3D( '', #219, #220, #221 );
#154 = SURFACE_SIDE_STYLE( '', ( #222 ) );
#155 = EDGE_LOOP( '', ( #223 ) );
#156 = AXIS2_PLACEMENT_3D( '', #224, #225, #226 );
#157 = SURFACE_SIDE_STYLE( '', ( #227 ) );
#158 = EDGE_LOOP( '', ( #228, #229, #230, #231, #232, #233 ) );
#159 = AXIS2_PLACEMENT_3D( '', #234, #235, #236 );
#160 = SURFACE_SIDE_STYLE( '', ( #237 ) );
#161 = EDGE_LOOP( '', ( #238 ) );
#162 = EDGE_LOOP( '', ( #239 ) );
#163 = AXIS2_PLACEMENT_3D( '', #240, #241, #242 );
#164 = SURFACE_SIDE_STYLE( '', ( #243 ) );
#165 = EDGE_LOOP( '', ( #244, #245, #246, #247 ) );
#166 = AXIS2_PLACEMENT_3D( '', #248, #249, #250 );
#167 = SURFACE_SIDE_STYLE( '', ( #251 ) );
#168 = EDGE_LOOP( '', ( #252, #253, #254, #255 ) );
#169 = AXIS2_PLACEMENT_3D( '', #256, #257, #258 );
#170 = SURFACE_SIDE_STYLE( '', ( #259 ) );
#171 = EDGE_LOOP( '', ( #260 ) );
#172 = EDGE_LOOP( '', ( #261 ) );
#173 = AXIS2_PLACEMENT_3D( '', #262, #263, #264 );
#174 = SURFACE_SIDE_STYLE( '', ( #265 ) );
#175 = EDGE_LOOP( '', ( #266 ) );
#176 = EDGE_LOOP( '', ( #267 ) );
#177 = AXIS2_PLACEMENT_3D( '', #268, #269, #270 );
#178 = SURFACE_SIDE_STYLE( '', ( #271 ) );
#179 = EDGE_LOOP( '', ( #272 ) );
#180 = EDGE_LOOP( '', ( #273, #274, #275, #276, #277, #278, #279, #280 ) );
#181 = AXIS2_PLACEMENT_3D( '', #281, #282, #283 );
#182 = SURFACE_SIDE_STYLE( '', ( #284 ) );
#183 = EDGE_LOOP( '', ( #285, #286 ) );
#184 = AXIS2_PLACEMENT_3D( '', #287, #288, #289 );
#186 = SURFACE_STYLE_FILL_AREA( #290 );
#187 = ORIENTED_EDGE( '', *, *, #291, .T. );
#188 = ORIENTED_EDGE( '', *, *, #292, .T. );
#189 = CARTESIAN_POINT( '', ( 0.000000000000000, 0.000000000000000, 17.5000000000000 ) );
#190 = DIRECTION( '', ( 0.000000000000000, 0.000000000000000, 1.00000000000000 ) );
#191 = DIRECTION( '', ( 1.00000000000000, 0.000000000000000, 0.000000000000000 ) );
#192 = SURFACE_STYLE_FILL_AREA( #293 );
#193 = ORIENTED_EDGE( '', *, *, #294, .T. );
#194 = ORIENTED_EDGE( '', *, *, #295, .F. );
#195 = CARTESIAN_POINT( '', ( 0.000000000000000, 0.000000000000000, 57.1500000000000 ) );
#196 = DIRECTION( '', ( -0.000000000000000, -0.000000000000000, -1.00000000000000 ) );
#197 = DIRECTION( '', ( 1.00000000000000, 0.000000000000000, 0.000000000000000 ) );
#198 = SURFACE_STYLE_FILL_AREA( #296 );
#199 = ORIENTED_EDGE( '', *, *, #297, .T. );
#200 = ORIENTED_EDGE( '', *, *, #298, .T. );
#201 = ORIENTED_EDGE( '', *, *, #299, .F. );
#202 = ORIENTED_EDGE( '', *, *, #300, .F. );
#203 = ORIENTED_EDGE( '', *, *, #301, .F. );
#204 = ORIENTED_EDGE( '', *, *, #302, .T. );
#205 = CARTESIAN_POINT( '', ( 0.650000000000000, -10.0000000000000, 16.5000000000000 ) );
#206 = DIRECTION( '', ( -1.00000000000000, 0.000000000000000, 2.16840434497100E-016 ) );
#207 = DIRECTION( '', ( 2.16840434497101E-016, 0.000000000000000, 1.00000000000000 ) );
#208 = SURFACE_STYLE_FILL_AREA( #303 );
#209 = ORIENTED_EDGE( '', *, *, #304, .T. );
#210 = ORIENTED_EDGE( '', *, *, #305, .F. );
#211 = CARTESIAN_POINT( '', ( 6.50000000000000, 0.000000000000000, 12.3000000000000 ) );
#212 = DIRECTION( '', ( 0.000000000000000, 0.000000000000000, -1.00000000000000 ) );
#213 = DIRECTION( '', ( -1.00000000000000, 0.000000000000000, 0.000000000000000 ) );
#214 = SURFACE_STYLE_FILL_AREA( #306 );
#215 = ORIENTED_EDGE( '', *, *, #300, .T. );
#216 = ORIENTED_EDGE( '', *, *, #307, .F. );
#217 = ORIENTED_EDGE( '', *, *, #308, .F. );
#218 = ORIENTED_EDGE( '', *, *, #309, .F. );
#219 = CARTESIAN_POINT( '', ( -0.650000000000000, -10.0000000000000, 16.5000000000000 ) );
#220 = DIRECTION( '', ( 0.000000000000000, 0.000000000000000, 1.00000000000000 ) );
#221 = DIRECTION( '', ( 1.00000000000000, 0.000000000000000, 0.000000000000000 ) );
#222 = SURFACE_STYLE_FILL_AREA( #310 );
#223 = ORIENTED_EDGE( '', *, *, #311, .F. );
#224 = CARTESIAN_POINT( '', ( 0.000000000000000, 0.000000000000000, 2.50000000000000 ) );
#225 = DIRECTION( '', ( 0.000000000000000, 0.000000000000000, 1.00000000000000 ) );
#226 = DIRECTION( '', ( 1.00000000000000, 0.000000000000000, 0.000000000000000 ) );
#227 = SURFACE_STYLE_FILL_AREA( #312 );
#228 = ORIENTED_EDGE( '', *, *, #291, .F. );
#229 = ORIENTED_EDGE( '', *, *, #313, .T. );
#230 = ORIENTED_EDGE( '', *, *, #314, .F. );
#231 = ORIENTED_EDGE( '', *, *, #308, .T. );
#232 = ORIENTED_EDGE( '', *, *, #315, .F. );
#233 = ORIENTED_EDGE( '', *, *, #316, .T. );
#234 = CARTESIAN_POINT( '', ( -0.650000000000000, -10.0000000000000, 17.5000000000000 ) );
#235 = DIRECTION( '', ( 1.00000000000000, 0.000000000000000, 2.16840434497100E-016 ) );
#236 = DIRECTION( '', ( 2.16840434497101E-016, 0.000000000000000, -1.00000000000000 ) );
#237 = SURFACE_STYLE_FILL_AREA( #317 );
#238 = ORIENTED_EDGE( '', *, *, #318, .T. );
#239 = ORIENTED_EDGE( '', *, *, #304, .F. );
#240 = CARTESIAN_POINT( '', ( 0.000000000000000, 0.000000000000000, 57.1500000000000 ) );
#241 = DIRECTION( '', ( -0.000000000000000, -0.000000000000000, -1.00000000000000 ) );
#242 = DIRECTION( '', ( 1.00000000000000, 0.000000000000000, 0.000000000000000 ) );
#243 = SURFACE_STYLE_FILL_AREA( #319 );
#244 = ORIENTED_EDGE( '', *, *, #302, .F. );
#245 = ORIENTED_EDGE( '', *, *, #320, .F. );
#246 = ORIENTED_EDGE( '', *, *, #298, .F. );
#247 = ORIENTED_EDGE( '', *, *, #321, .F. );
#248 = CARTESIAN_POINT( '', ( 0.000000000000000, 0.000000000000000, 17.5000000000000 ) );
#249 = DIRECTION( '', ( -0.000000000000000, 0.000000000000000, -1.00000000000000 ) );
#250 = DIRECTION( '', ( -1.00000000000000, 0.000000000000000, 0.000000000000000 ) );
#251 = SURFACE_STYLE_FILL_AREA( #322 );
#252 = ORIENTED_EDGE( '', *, *, #316, .F. );
#253 = ORIENTED_EDGE( '', *, *, #323, .F. );
#254 = ORIENTED_EDGE( '', *, *, #313, .F. );
#255 = ORIENTED_EDGE( '', *, *, #292, .F. );
#256 = CARTESIAN_POINT( '', ( 0.000000000000000, 0.000000000000000, 17.5000000000000 ) );
#257 = DIRECTION( '', ( -0.000000000000000, 0.000000000000000, -1.00000000000000 ) );
#258 = DIRECTION( '', ( -1.00000000000000, 0.000000000000000, 0.000000000000000 ) );
#259 = SURFACE_STYLE_FILL_AREA( #324 );
#260 = ORIENTED_EDGE( '', *, *, #311, .T. );
#261 = ORIENTED_EDGE( '', *, *, #294, .F. );
#262 = CARTESIAN_POINT( '', ( 3.50000000000000, 0.000000000000000, 1.50000000000000 ) );
#263 = DIRECTION( '', ( 0.000000000000000, 0.000000000000000, -1.00000000000000 ) );
#264 = DIRECTION( '', ( -1.00000000000000, 0.000000000000000, 0.000000000000000 ) );
#265 = SURFACE_STYLE_FILL_AREA( #325 );
#266 = ORIENTED_EDGE( '', *, *, #295, .T. );
#267 = ORIENTED_EDGE( '', *, *, #318, .F. );
#268 = CARTESIAN_POINT( '', ( 0.000000000000000, 0.000000000000000, 3.00000000000000 ) );
#269 = DIRECTION( '', ( -0.000000000000000, -0.000000000000000, 1.00000000000000 ) );
#270 = DIRECTION( '', ( 1.00000000000000, 0.000000000000000, 0.000000000000000 ) );
#271 = SURFACE_STYLE_FILL_AREA( #326 );
#272 = ORIENTED_EDGE( '', *, *, #305, .T. );
#273 = ORIENTED_EDGE( '', *, *, #314, .T. );
#274 = ORIENTED_EDGE( '', *, *, #323, .T. );
#275 = ORIENTED_EDGE( '', *, *, #315, .T. );
#276 = ORIENTED_EDGE( '', *, *, #307, .T. );
#277 = ORIENTED_EDGE( '', *, *, #299, .T. );
#278 = ORIENTED_EDGE( '', *, *, #320, .T. );
#279 = ORIENTED_EDGE( '', *, *, #301, .T. );
#280 = ORIENTED_EDGE( '', *, *, #309, .T. );
#281 = CARTESIAN_POINT( '', ( 0.000000000000000, 0.000000000000000, 57.1500000000000 ) );
#282 = DIRECTION( '', ( -0.000000000000000, -0.000000000000000, -1.00000000000000 ) );
#283 = DIRECTION( '', ( 1.00000000000000, 0.000000000000000, 0.000000000000000 ) );
#284 = SURFACE_STYLE_FILL_AREA( #327 );
#285 = ORIENTED_EDGE( '', *, *, #297, .F. );
#286 = ORIENTED_EDGE( '', *, *, #321, .T. );
#287 = CARTESIAN_POINT( '', ( 0.000000000000000, 0.000000000000000, 17.5000000000000 ) );
#288 = DIRECTION( '', ( 0.000000000000000, 0.000000000000000, 1.00000000000000 ) );
#289 = DIRECTION( '', ( 1.00000000000000, 0.000000000000000, 0.000000000000000 ) );
#290 = FILL_AREA_STYLE( '', ( #328 ) );
#291 = EDGE_CURVE( '', #329, #330, #331, .T. );
#292 = EDGE_CURVE( '', #330, #329, #332, .T. );
#293 = FILL_AREA_STYLE( '', ( #333 ) );
#294 = EDGE_CURVE( '', #334, #334, #335, .T. );
#295 = EDGE_CURVE( '', #336, #336, #337, .T. );
#296 = FILL_AREA_STYLE( '', ( #338 ) );
#297 = EDGE_CURVE( '', #339, #340, #341, .T. );
#298 = EDGE_CURVE( '', #340, #342, #343, .T. );
#299 = EDGE_CURVE( '', #344, #342, #345, .T. );
#300 = EDGE_CURVE( '', #346, #344, #347, .T. );
#301 = EDGE_CURVE( '', #348, #346, #349, .F. );
#302 = EDGE_CURVE( '', #348, #339, #350, .T. );
#303 = FILL_AREA_STYLE( '', ( #351 ) );
#304 = EDGE_CURVE( '', #352, #352, #353, .T. );
#305 = EDGE_CURVE( '', #354, #354, #355, .T. );
#306 = FILL_AREA_STYLE( '', ( #356 ) );
#307 = EDGE_CURVE( '', #357, #344, #358, .F. );
#308 = EDGE_CURVE( '', #359, #357, #360, .T. );
#309 = EDGE_CURVE( '', #346, #359, #361, .F. );
#310 = FILL_AREA_STYLE( '', ( #362 ) );
#311 = EDGE_CURVE( '', #363, #363, #364, .T. );
#312 = FILL_AREA_STYLE( '', ( #365 ) );
#313 = EDGE_CURVE( '', #329, #366, #367, .T. );
#314 = EDGE_CURVE( '', #359, #366, #368, .T. );
#315 = EDGE_CURVE( '', #369, #357, #370, .F. );
#316 = EDGE_CURVE( '', #369, #330, #371, .T. );
#317 = FILL_AREA_STYLE( '', ( #372 ) );
#318 = EDGE_CURVE( '', #373, #373, #374, .F. );
#319 = FILL_AREA_STYLE( '', ( #375 ) );
#320 = EDGE_CURVE( '', #342, #348, #376, .F. );
#321 = EDGE_CURVE( '', #339, #340, #377, .T. );
#322 = FILL_AREA_STYLE( '', ( #378 ) );
#323 = EDGE_CURVE( '', #366, #369, #379, .F. );
#324 = FILL_AREA_STYLE( '', ( #380 ) );
#325 = FILL_AREA_STYLE( '', ( #381 ) );
#326 = FILL_AREA_STYLE( '', ( #382 ) );
#327 = FILL_AREA_STYLE( '', ( #383 ) );
#328 = FILL_AREA_STYLE_COLOUR( '', #384 );
#329 = VERTEX_POINT( '', #385 );
#330 = VERTEX_POINT( '', #386 );
#331 = LINE( '', #387, #388 );
#332 = CIRCLE( '', #389, 6.20000000000000 );
#333 = FILL_AREA_STYLE_COLOUR( '', #390 );
#334 = VERTEX_POINT( '', #391 );
#335 = CIRCLE( '', #392, 3.50000000000000 );
#336 = VERTEX_POINT( '', #393 );
#337 = CIRCLE( '', #394, 3.50000000000000 );
#338 = FILL_AREA_STYLE_COLOUR( '', #395 );
#339 = VERTEX_POINT( '', #396 );
#340 = VERTEX_POINT( '', #397 );
#341 = LINE( '', #398, #399 );
#342 = VERTEX_POINT( '', #400 );
#343 = B_SPLINE_CURVE_WITH_KNOTS( '', 3, ( #401, #402, #403, #404 ), .UNSPECIFIED., .F., .F., ( 4, 4 ), ( 0.000000000000000, 0.000425386354897054 ), .UNSPECIFIED. );
#344 = VERTEX_POINT( '', #405 );
#345 = LINE( '', #406, #407 );
#346 = VERTEX_POINT( '', #408 );
#347 = LINE( '', #409, #410 );
#348 = VERTEX_POINT( '', #411 );
#349 = LINE( '', #412, #413 );
#350 = B_SPLINE_CURVE_WITH_KNOTS( '', 3, ( #414, #415, #416, #417 ), .UNSPECIFIED., .F., .F., ( 4, 4 ), ( 0.000000000000000, 0.000425386354897054 ), .UNSPECIFIED. );
#351 = FILL_AREA_STYLE_COLOUR( '', #418 );
#352 = VERTEX_POINT( '', #419 );
#353 = CIRCLE( '', #420, 4.00000000000000 );
#354 = VERTEX_POINT( '', #421 );
#355 = CIRCLE( '', #422, 6.50000000000000 );
#356 = FILL_AREA_STYLE_COLOUR( '', #423 );
#357 = VERTEX_POINT( '', #424 );
#358 = CIRCLE( '', #425, 6.50000000000000 );
#359 = VERTEX_POINT( '', #426 );
#360 = LINE( '', #427, #428 );
#361 = CIRCLE( '', #429, 6.50000000000000 );
#362 = FILL_AREA_STYLE_COLOUR( '', #430 );
#363 = VERTEX_POINT( '', #431 );
#364 = CIRCLE( '', #432, 2.29128784747792 );
#365 = FILL_AREA_STYLE_COLOUR( '', #433 );
#366 = VERTEX_POINT( '', #434 );
#367 = B_SPLINE_CURVE_WITH_KNOTS( '', 3, ( #435, #436, #437, #438 ), .UNSPECIFIED., .F., .F., ( 4, 4 ), ( 0.000000000000000, 0.000425386354897054 ), .UNSPECIFIED. );
#368 = LINE( '', #439, #440 );
#369 = VERTEX_POINT( '', #441 );
#370 = LINE( '', #442, #443 );
#371 = B_SPLINE_CURVE_WITH_KNOTS( '', 3, ( #444, #445, #446, #447 ), .UNSPECIFIED., .F., .F., ( 4, 4 ), ( 0.000000000000000, 0.000425386354897054 ), .UNSPECIFIED. );
#372 = FILL_AREA_STYLE_COLOUR( '', #448 );
#373 = VERTEX_POINT( '', #449 );
#374 = CIRCLE( '', #450, 4.00000000000000 );
#375 = FILL_AREA_STYLE_COLOUR( '', #451 );
#376 = CIRCLE( '', #452, 6.50000000000000 );
#377 = CIRCLE( '', #453, 6.20000000000000 );
#378 = FILL_AREA_STYLE_COLOUR( '', #454 );
#379 = CIRCLE( '', #455, 6.50000000000000 );
#380 = FILL_AREA_STYLE_COLOUR( '', #456 );
#381 = FILL_AREA_STYLE_COLOUR( '', #457 );
#382 = FILL_AREA_STYLE_COLOUR( '', #458 );
#383 = FILL_AREA_STYLE_COLOUR( '', #459 );
#384 = COLOUR_RGB( '', 0.800000011920929, 0.800000011920929, 0.800000011920929 );
#385 = CARTESIAN_POINT( '', ( -0.650000000000000, -6.16583327701942, 17.5000000000000 ) );
#386 = CARTESIAN_POINT( '', ( -0.650000000000000, 6.16583327701942, 17.5000000000000 ) );
#387 = CARTESIAN_POINT( '', ( -0.650000000000000, -10.0000000000000, 17.5000000000000 ) );
#388 = VECTOR( '', #460, 1000.00000000000 );
#389 = AXIS2_PLACEMENT_3D( '', #461, #462, #463 );
#390 = COLOUR_RGB( '', 0.800000011920929, 0.800000011920929, 0.800000011920929 );
#391 = CARTESIAN_POINT( '', ( 3.50000000000000, 0.000000000000000, 1.50000000000000 ) );
#392 = AXIS2_PLACEMENT_3D( '', #464, #465, #466 );
#393 = CARTESIAN_POINT( '', ( 3.50000000000000, 0.000000000000000, 2.50000000000000 ) );
#394 = AXIS2_PLACEMENT_3D( '', #467, #468, #469 );
#395 = COLOUR_RGB( '', 0.800000011920929, 0.800000011920929, 0.800000011920929 );
#396 = CARTESIAN_POINT( '', ( 0.650000000000000, -6.16583327701942, 17.5000000000000 ) );
#397 = CARTESIAN_POINT( '', ( 0.650000000000000, 6.16583327701942, 17.5000000000000 ) );
#398 = CARTESIAN_POINT( '', ( 0.650000000000000, -10.0000000000000, 17.5000000000000 ) );
#399 = VECTOR( '', #470, 1000.00000000000 );
#400 = CARTESIAN_POINT( '', ( 0.650000000000011, 6.46741834119303, 17.2000000000000 ) );
#401 = CARTESIAN_POINT( '', ( 0.650000000000000, 6.16583327701942, 17.5000000000000 ) );
#402 = CARTESIAN_POINT( '', ( 0.650000000000000, 6.26637444891902, 17.4000128865469 ) );
#403 = CARTESIAN_POINT( '', ( 0.650000000000000, 6.36690221057519, 17.3000122871913 ) );
#404 = CARTESIAN_POINT( '', ( 0.650000000000000, 6.46741834119303, 17.2000000000000 ) );
#405 = CARTESIAN_POINT( '', ( 0.650000000000000, 6.46741834119303, 16.5000000000000 ) );
#406 = CARTESIAN_POINT( '', ( 0.650000000000011, 6.46741834119303, 57.1500000000000 ) );
#407 = VECTOR( '', #471, 1000.00000000000 );
#408 = CARTESIAN_POINT( '', ( 0.650000000000000, -6.46741834119303, 16.5000000000000 ) );
#409 = CARTESIAN_POINT( '', ( 0.650000000000000, -10.0000000000000, 16.5000000000000 ) );
#410 = VECTOR( '', #472, 1000.00000000000 );
#411 = CARTESIAN_POINT( '', ( 0.650000000000011, -6.46741834119303, 17.2000000000000 ) );
#412 = CARTESIAN_POINT( '', ( 0.650000000000011, -6.46741834119303, 57.1500000000000 ) );
#413 = VECTOR( '', #473, 1000.00000000000 );
#414 = CARTESIAN_POINT( '', ( 0.650000000000011, -6.46741834119303, 17.2000000000000 ) );
#415 = CARTESIAN_POINT( '', ( 0.650000000000011, -6.36690221057519, 17.3000122871913 ) );
#416 = CARTESIAN_POINT( '', ( 0.650000000000000, -6.26637444891902, 17.4000128865469 ) );
#417 = CARTESIAN_POINT( '', ( 0.650000000000000, -6.16583327701942, 17.5000000000000 ) );
#418 = COLOUR_RGB( '', 0.800000011920929, 0.800000011920929, 0.800000011920929 );
#419 = CARTESIAN_POINT( '', ( 4.00000000000000, 0.000000000000000, 12.3000000000000 ) );
#420 = AXIS2_PLACEMENT_3D( '', #474, #475, #476 );
#421 = CARTESIAN_POINT( '', ( 6.50000000000000, 0.000000000000000, 12.3000000000000 ) );
#422 = AXIS2_PLACEMENT_3D( '', #477, #478, #479 );
#423 = COLOUR_RGB( '', 0.800000011920929, 0.800000011920929, 0.800000011920929 );
#424 = CARTESIAN_POINT( '', ( -0.650000000000000, 6.46741834119303, 16.5000000000000 ) );
#425 = AXIS2_PLACEMENT_3D( '', #480, #481, #482 );
#426 = CARTESIAN_POINT( '', ( -0.650000000000000, -6.46741834119303, 16.5000000000000 ) );
#427 = CARTESIAN_POINT( '', ( -0.650000000000000, -10.0000000000000, 16.5000000000000 ) );
#428 = VECTOR( '', #483, 1000.00000000000 );
#429 = AXIS2_PLACEMENT_3D( '', #484, #485, #486 );
#430 = COLOUR_RGB( '', 0.800000011920929, 0.800000011920929, 0.800000011920929 );
#431 = CARTESIAN_POINT( '', ( 2.29128784747792, 0.000000000000000, 1.50000000000000 ) );
#432 = AXIS2_PLACEMENT_3D( '', #487, #488, #489 );
#433 = COLOUR_RGB( '', 0.800000011920929, 0.800000011920929, 0.800000011920929 );
#434 = CARTESIAN_POINT( '', ( -0.650000000000011, -6.46741834119303, 17.2000000000000 ) );
#435 = CARTESIAN_POINT( '', ( -0.650000000000000, -6.16583327701942, 17.5000000000000 ) );
#436 = CARTESIAN_POINT( '', ( -0.650000000000000, -6.26637444891902, 17.4000128865469 ) );
#437 = CARTESIAN_POINT( '', ( -0.650000000000000, -6.36690221057519, 17.3000122871913 ) );
#438 = CARTESIAN_POINT( '', ( -0.650000000000000, -6.46741834119303, 17.2000000000000 ) );
#439 = CARTESIAN_POINT( '', ( -0.650000000000011, -6.46741834119303, 57.1500000000000 ) );
#440 = VECTOR( '', #490, 1000.00000000000 );
#441 = CARTESIAN_POINT( '', ( -0.650000000000011, 6.46741834119303, 17.2000000000000 ) );
#442 = CARTESIAN_POINT( '', ( -0.650000000000011, 6.46741834119303, 57.1500000000000 ) );
#443 = VECTOR( '', #491, 1000.00000000000 );
#444 = CARTESIAN_POINT( '', ( -0.650000000000011, 6.46741834119303, 17.2000000000000 ) );
#445 = CARTESIAN_POINT( '', ( -0.650000000000011, 6.36690221057519, 17.3000122871913 ) );
#446 = CARTESIAN_POINT( '', ( -0.650000000000000, 6.26637444891902, 17.4000128865469 ) );
#447 = CARTESIAN_POINT( '', ( -0.650000000000000, 6.16583327701942, 17.5000000000000 ) );
#448 = COLOUR_RGB( '', 0.752941191196442, 0.752941191196442, 0.752941191196442 );
#449 = CARTESIAN_POINT( '', ( -4.00000000000000, 0.000000000000000, 3.00000000000000 ) );
#450 = AXIS2_PLACEMENT_3D( '', #492, #493, #494 );
#451 = COLOUR_RGB( '', 0.800000011920929, 0.800000011920929, 0.800000011920929 );
#452 = AXIS2_PLACEMENT_3D( '', #495, #496, #497 );
#453 = AXIS2_PLACEMENT_3D( '', #498, #499, #500 );
#454 = COLOUR_RGB( '', 0.800000011920929, 0.800000011920929, 0.800000011920929 );
#455 = AXIS2_PLACEMENT_3D( '', #501, #502, #503 );
#456 = COLOUR_RGB( '', 0.800000011920929, 0.800000011920929, 0.800000011920929 );
#457 = COLOUR_RGB( '', 0.800000011920929, 0.800000011920929, 0.800000011920929 );
#458 = COLOUR_RGB( '', 0.800000011920929, 0.800000011920929, 0.800000011920929 );
#459 = COLOUR_RGB( '', 0.800000011920929, 0.800000011920929, 0.800000011920929 );
#460 = DIRECTION( '', ( 0.000000000000000, 1.00000000000000, 0.000000000000000 ) );
#461 = CARTESIAN_POINT( '', ( 0.000000000000000, 0.000000000000000, 17.5000000000000 ) );
#462 = DIRECTION( '', ( 0.000000000000000, 0.000000000000000, 1.00000000000000 ) );
#463 = DIRECTION( '', ( 1.00000000000000, 0.000000000000000, 0.000000000000000 ) );
#464 = CARTESIAN_POINT( '', ( 0.000000000000000, 0.000000000000000, 1.50000000000000 ) );
#465 = DIRECTION( '', ( 0.000000000000000, 0.000000000000000, 1.00000000000000 ) );
#466 = DIRECTION( '', ( 1.00000000000000, 0.000000000000000, 0.000000000000000 ) );
#467 = CARTESIAN_POINT( '', ( 0.000000000000000, 0.000000000000000, 2.50000000000000 ) );
#468 = DIRECTION( '', ( 0.000000000000000, 0.000000000000000, 1.00000000000000 ) );
#469 = DIRECTION( '', ( 1.00000000000000, 0.000000000000000, 0.000000000000000 ) );
#470 = DIRECTION( '', ( 0.000000000000000, 1.00000000000000, 0.000000000000000 ) );
#471 = DIRECTION( '', ( 0.000000000000000, 0.000000000000000, 1.00000000000000 ) );
#472 = DIRECTION( '', ( 0.000000000000000, 1.00000000000000, 0.000000000000000 ) );
#473 = DIRECTION( '', ( 0.000000000000000, 0.000000000000000, 1.00000000000000 ) );
#474 = CARTESIAN_POINT( '', ( 0.000000000000000, 0.000000000000000, 12.3000000000000 ) );
#475 = DIRECTION( '', ( 0.000000000000000, 0.000000000000000, 1.00000000000000 ) );
#476 = DIRECTION( '', ( 1.00000000000000, 0.000000000000000, 0.000000000000000 ) );
#477 = CARTESIAN_POINT( '', ( 0.000000000000000, 0.000000000000000, 12.3000000000000 ) );
#478 = DIRECTION( '', ( 0.000000000000000, 0.000000000000000, 1.00000000000000 ) );
#479 = DIRECTION( '', ( 1.00000000000000, 0.000000000000000, 0.000000000000000 ) );
#480 = CARTESIAN_POINT( '', ( 0.000000000000000, 0.000000000000000, 16.5000000000000 ) );
#481 = DIRECTION( '', ( 0.000000000000000, 0.000000000000000, 1.00000000000000 ) );
#482 = DIRECTION( '', ( 1.00000000000000, 0.000000000000000, 0.000000000000000 ) );
#483 = DIRECTION( '', ( 0.000000000000000, 1.00000000000000, 0.000000000000000 ) );
#484 = CARTESIAN_POINT( '', ( 0.000000000000000, 0.000000000000000, 16.5000000000000 ) );
#485 = DIRECTION( '', ( 0.000000000000000, 0.000000000000000, 1.00000000000000 ) );
#486 = DIRECTION( '', ( 1.00000000000000, 0.000000000000000, 0.000000000000000 ) );
#487 = CARTESIAN_POINT( '', ( 0.000000000000000, 0.000000000000000, 1.50000000000000 ) );
#488 = DIRECTION( '', ( 0.000000000000000, 0.000000000000000, 1.00000000000000 ) );
#489 = DIRECTION( '', ( 1.00000000000000, 0.000000000000000, 0.000000000000000 ) );
#490 = DIRECTION( '', ( 0.000000000000000, 0.000000000000000, 1.00000000000000 ) );
#491 = DIRECTION( '', ( 0.000000000000000, 0.000000000000000, 1.00000000000000 ) );
#492 = CARTESIAN_POINT( '', ( 0.000000000000000, 0.000000000000000, 3.00000000000000 ) );
#493 = DIRECTION( '', ( 0.000000000000000, 0.000000000000000, -1.00000000000000 ) );
#494 = DIRECTION( '', ( -1.00000000000000, 0.000000000000000, 0.000000000000000 ) );
#495 = CARTESIAN_POINT( '', ( 0.000000000000000, 0.000000000000000, 17.2000000000000 ) );
#496 = DIRECTION( '', ( 0.000000000000000, 0.000000000000000, 1.00000000000000 ) );
#497 = DIRECTION( '', ( 1.00000000000000, 0.000000000000000, 0.000000000000000 ) );
#498 = CARTESIAN_POINT( '', ( 0.000000000000000, 0.000000000000000, 17.5000000000000 ) );
#499 = DIRECTION( '', ( 0.000000000000000, 0.000000000000000, 1.00000000000000 ) );
#500 = DIRECTION( '', ( 1.00000000000000, 0.000000000000000, 0.000000000000000 ) );
#501 = CARTESIAN_POINT( '', ( 0.000000000000000, 0.000000000000000, 17.2000000000000 ) );
#502 = DIRECTION( '', ( 0.000000000000000, 0.000000000000000, 1.00000000000000 ) );
#503 = DIRECTION( '', ( 1.00000000000000, 0.000000000000000, 0.000000000000000 ) );
ENDSEC;
END-ISO-10303-21;
