ISO-10303-21;
HEADER;
FILE_DESCRIPTION( ( 'Unknown' ), '1' );
FILE_NAME( '//SBS2003/HD_Usb/Disegni/08_LIB/Users_3D/PROD_GAMM_3D/APV/7747580_APV_20.stp', 'Unknown', ( 'Unknown' ), ( 'Unknown' ), 'PSStep 14.0', 'Unknown', '  ' );
FILE_SCHEMA( ( 'AUTOMOTIVE_DESIGN { 1 0 10303 214 1 1 1 1 }' ) );
ENDSEC;
DATA;
#1 = MECHANICAL_DESIGN_GEOMETRIC_PRESENTATION_REPRESENTATION( ' ', ( #10, #11, #12, #13, #14, #15, #16, #17, #18, #19, #20, #21, #22, #23 ), #6 );
#2 = PRODUCT_DEFINITION_CONTEXT( '', #24, 'design' );
#3 = APPLICATION_PROTOCOL_DEFINITION( 'international standard', 'automotive_design', 2001, #24 );
#4 = PRODUCT_CATEGORY_RELATIONSHIP( 'NONE', 'NONE', #25, #26 );
#5 = SHAPE_DEFINITION_REPRESENTATION( #27, #28 );
#6 =  ( GEOMETRIC_REPRESENTATION_CONTEXT( 3 )GLOBAL_UNCERTAINTY_ASSIGNED_CONTEXT( ( #31 ) )GLOBAL_UNIT_ASSIGNED_CONTEXT( ( #33, #34, #35 ) )REPRESENTATION_CONTEXT( 'NONE', 'WORKSPACE' ) );
#10 = STYLED_ITEM( '', ( #37 ), #38 );
#11 = STYLED_ITEM( '', ( #39 ), #40 );
#12 = STYLED_ITEM( '', ( #41 ), #42 );
#13 = STYLED_ITEM( '', ( #43 ), #44 );
#14 = STYLED_ITEM( '', ( #45 ), #46 );
#15 = STYLED_ITEM( '', ( #47 ), #48 );
#16 = STYLED_ITEM( '', ( #49 ), #50 );
#17 = STYLED_ITEM( '', ( #51 ), #52 );
#18 = STYLED_ITEM( '', ( #53 ), #54 );
#19 = STYLED_ITEM( '', ( #55 ), #56 );
#20 = STYLED_ITEM( '', ( #57 ), #58 );
#21 = STYLED_ITEM( '', ( #59 ), #60 );
#22 = STYLED_ITEM( '', ( #61 ), #62 );
#23 = STYLED_ITEM( '', ( #63 ), #64 );
#24 = APPLICATION_CONTEXT( 'core data for automotive mechanical design processes' );
#25 = PRODUCT_CATEGORY( 'part', 'NONE' );
#26 = PRODUCT_RELATED_PRODUCT_CATEGORY( 'detail', ' ', ( #65 ) );
#27 = PRODUCT_DEFINITION_SHAPE( 'NONE', 'NONE', #66 );
#28 = ADVANCED_BREP_SHAPE_REPRESENTATION( '1', ( #67, #68 ), #6 );
#31 = UNCERTAINTY_MEASURE_WITH_UNIT( LENGTH_MEASURE( 0.00100000000000000 ), #33, '', '' );
#33 =  ( CONVERSION_BASED_UNIT( 'MILLIMETRE', #71 )LENGTH_UNIT(  )NAMED_UNIT( #74 ) );
#34 =  ( NAMED_UNIT( #76 )PLANE_ANGLE_UNIT(  )SI_UNIT( $, .RADIAN. ) );
#35 =  ( NAMED_UNIT( #76 )SI_UNIT( $, .STERADIAN. )SOLID_ANGLE_UNIT(  ) );
#37 = PRESENTATION_STYLE_ASSIGNMENT( ( #82 ) );
#38 = ADVANCED_FACE( '', ( #83, #84 ), #85, .T. );
#39 = PRESENTATION_STYLE_ASSIGNMENT( ( #86 ) );
#40 = ADVANCED_FACE( '', ( #87 ), #88, .T. );
#41 = PRESENTATION_STYLE_ASSIGNMENT( ( #89 ) );
#42 = ADVANCED_FACE( '', ( #90 ), #91, .T. );
#43 = PRESENTATION_STYLE_ASSIGNMENT( ( #92 ) );
#44 = ADVANCED_FACE( '', ( #93 ), #94, .T. );
#45 = PRESENTATION_STYLE_ASSIGNMENT( ( #95 ) );
#46 = ADVANCED_FACE( '', ( #96 ), #97, .T. );
#47 = PRESENTATION_STYLE_ASSIGNMENT( ( #98 ) );
#48 = ADVANCED_FACE( '', ( #99, #100 ), #101, .T. );
#49 = PRESENTATION_STYLE_ASSIGNMENT( ( #102 ) );
#50 = ADVANCED_FACE( '', ( #103 ), #104, .T. );
#51 = PRESENTATION_STYLE_ASSIGNMENT( ( #105 ) );
#52 = ADVANCED_FACE( '', ( #106 ), #107, .T. );
#53 = PRESENTATION_STYLE_ASSIGNMENT( ( #108 ) );
#54 = ADVANCED_FACE( '', ( #109 ), #110, .T. );
#55 = PRESENTATION_STYLE_ASSIGNMENT( ( #111 ) );
#56 = ADVANCED_FACE( '', ( #112 ), #113, .T. );
#57 = PRESENTATION_STYLE_ASSIGNMENT( ( #114 ) );
#58 = ADVANCED_FACE( '', ( #115, #116 ), #117, .T. );
#59 = PRESENTATION_STYLE_ASSIGNMENT( ( #118 ) );
#60 = ADVANCED_FACE( '', ( #119, #120 ), #121, .T. );
#61 = PRESENTATION_STYLE_ASSIGNMENT( ( #122 ) );
#62 = ADVANCED_FACE( '', ( #123, #124 ), #125, .T. );
#63 = PRESENTATION_STYLE_ASSIGNMENT( ( #126 ) );
#64 = ADVANCED_FACE( '', ( #127, #128 ), #129, .T. );
#65 = PRODUCT( '1', '1', 'PART-1-DESC', ( #130 ) );
#66 = PRODUCT_DEFINITION( 'NONE', 'NONE', #131, #2 );
#67 = MANIFOLD_SOLID_BREP( '1', #132 );
#68 = AXIS2_PLACEMENT_3D( '', #133, #134, #135 );
#71 = LENGTH_MEASURE_WITH_UNIT( LENGTH_MEASURE( 1.00000000000000 ), #136 );
#74 = DIMENSIONAL_EXPONENTS( 1.00000000000000, 0.000000000000000, 0.000000000000000, 0.000000000000000, 0.000000000000000, 0.000000000000000, 0.000000000000000 );
#76 = DIMENSIONAL_EXPONENTS( 0.000000000000000, 0.000000000000000, 0.000000000000000, 0.000000000000000, 0.000000000000000, 0.000000000000000, 0.000000000000000 );
#82 = SURFACE_STYLE_USAGE( .BOTH., #137 );
#83 = FACE_OUTER_BOUND( '', #138, .T. );
#84 = FACE_OUTER_BOUND( '', #139, .T. );
#85 = CYLINDRICAL_SURFACE( '', #140, 8.00000000000000 );
#86 = SURFACE_STYLE_USAGE( .BOTH., #141 );
#87 = FACE_OUTER_BOUND( '', #142, .T. );
#88 = PLANE( '', #143 );
#89 = SURFACE_STYLE_USAGE( .BOTH., #144 );
#90 = FACE_OUTER_BOUND( '', #145, .T. );
#91 = CONICAL_SURFACE( '', #146, 7.50000000000000, 0.785398163397448 );
#92 = SURFACE_STYLE_USAGE( .BOTH., #147 );
#93 = FACE_OUTER_BOUND( '', #148, .T. );
#94 = PLANE( '', #149 );
#95 = SURFACE_STYLE_USAGE( .BOTH., #150 );
#96 = FACE_OUTER_BOUND( '', #151, .T. );
#97 = CONICAL_SURFACE( '', #152, 7.50000000000000, 0.785398163397448 );
#98 = SURFACE_STYLE_USAGE( .BOTH., #153 );
#99 = FACE_OUTER_BOUND( '', #154, .T. );
#100 = FACE_OUTER_BOUND( '', #155, .T. );
#101 = CYLINDRICAL_SURFACE( '', #156, 5.00000000000000 );
#102 = SURFACE_STYLE_USAGE( .BOTH., #157 );
#103 = FACE_OUTER_BOUND( '', #158, .T. );
#104 = SPHERICAL_SURFACE( '', #159, 3.00000000000000 );
#105 = SURFACE_STYLE_USAGE( .BOTH., #160 );
#106 = FACE_OUTER_BOUND( '', #161, .T. );
#107 = PLANE( '', #162 );
#108 = SURFACE_STYLE_USAGE( .BOTH., #163 );
#109 = FACE_OUTER_BOUND( '', #164, .T. );
#110 = PLANE( '', #165 );
#111 = SURFACE_STYLE_USAGE( .BOTH., #166 );
#112 = FACE_OUTER_BOUND( '', #167, .T. );
#113 = PLANE( '', #168 );
#114 = SURFACE_STYLE_USAGE( .BOTH., #169 );
#115 = FACE_OUTER_BOUND( '', #170, .T. );
#116 = FACE_OUTER_BOUND( '', #171, .T. );
#117 = CYLINDRICAL_SURFACE( '', #172, 4.50000000000000 );
#118 = SURFACE_STYLE_USAGE( .BOTH., #173 );
#119 = FACE_BOUND( '', #174, .T. );
#120 = FACE_OUTER_BOUND( '', #175, .T. );
#121 = CONICAL_SURFACE( '', #176, 5.00000000000000, 0.785398163397448 );
#122 = SURFACE_STYLE_USAGE( .BOTH., #177 );
#123 = FACE_BOUND( '', #178, .T. );
#124 = FACE_OUTER_BOUND( '', #179, .T. );
#125 = PLANE( '', #180 );
#126 = SURFACE_STYLE_USAGE( .BOTH., #181 );
#127 = FACE_BOUND( '', #182, .T. );
#128 = FACE_OUTER_BOUND( '', #183, .T. );
#129 = PLANE( '', #184 );
#130 = PRODUCT_CONTEXT( '', #24, 'mechanical' );
#131 = PRODUCT_DEFINITION_FORMATION_WITH_SPECIFIED_SOURCE( ' ', 'NONE', #65, .NOT_KNOWN. );
#132 = CLOSED_SHELL( '', ( #52, #60, #38, #40, #56, #54, #42, #46, #50, #44, #62, #48, #58, #64 ) );
#133 = CARTESIAN_POINT( '', ( 0.000000000000000, 0.000000000000000, 0.000000000000000 ) );
#134 = DIRECTION( '', ( 0.000000000000000, 0.000000000000000, 1.00000000000000 ) );
#135 = DIRECTION( '', ( 1.00000000000000, 0.000000000000000, 0.000000000000000 ) );
#136 =  ( LENGTH_UNIT(  )NAMED_UNIT( #74 )SI_UNIT( .MILLI., .METRE. ) );
#137 = SURFACE_SIDE_STYLE( '', ( #186 ) );
#138 = EDGE_LOOP( '', ( #187 ) );
#139 = EDGE_LOOP( '', ( #188, #189, #190, #191, #192, #193, #194, #195 ) );
#140 = AXIS2_PLACEMENT_3D( '', #196, #197, #198 );
#141 = SURFACE_SIDE_STYLE( '', ( #199 ) );
#142 = EDGE_LOOP( '', ( #200, #201, #202, #203 ) );
#143 = AXIS2_PLACEMENT_3D( '', #204, #205, #206 );
#144 = SURFACE_SIDE_STYLE( '', ( #207 ) );
#145 = EDGE_LOOP( '', ( #208, #209, #210, #211 ) );
#146 = AXIS2_PLACEMENT_3D( '', #212, #213, #214 );
#147 = SURFACE_SIDE_STYLE( '', ( #215 ) );
#148 = EDGE_LOOP( '', ( #216, #217 ) );
#149 = AXIS2_PLACEMENT_3D( '', #218, #219, #220 );
#150 = SURFACE_SIDE_STYLE( '', ( #221 ) );
#151 = EDGE_LOOP( '', ( #222, #223, #224, #225 ) );
#152 = AXIS2_PLACEMENT_3D( '', #226, #227, #228 );
#153 = SURFACE_SIDE_STYLE( '', ( #229 ) );
#154 = EDGE_LOOP( '', ( #230 ) );
#155 = EDGE_LOOP( '', ( #231 ) );
#156 = AXIS2_PLACEMENT_3D( '', #232, #233, #234 );
#157 = SURFACE_SIDE_STYLE( '', ( #235 ) );
#158 = EDGE_LOOP( '', ( #236 ) );
#159 = AXIS2_PLACEMENT_3D( '', #237, #238, #239 );
#160 = SURFACE_SIDE_STYLE( '', ( #240 ) );
#161 = EDGE_LOOP( '', ( #241, #242 ) );
#162 = AXIS2_PLACEMENT_3D( '', #243, #244, #245 );
#163 = SURFACE_SIDE_STYLE( '', ( #246 ) );
#164 = EDGE_LOOP( '', ( #247, #248, #249, #250, #251, #252 ) );
#165 = AXIS2_PLACEMENT_3D( '', #253, #254, #255 );
#166 = SURFACE_SIDE_STYLE( '', ( #256 ) );
#167 = EDGE_LOOP( '', ( #257, #258, #259, #260, #261, #262 ) );
#168 = AXIS2_PLACEMENT_3D( '', #263, #264, #265 );
#169 = SURFACE_SIDE_STYLE( '', ( #266 ) );
#170 = EDGE_LOOP( '', ( #267 ) );
#171 = EDGE_LOOP( '', ( #268 ) );
#172 = AXIS2_PLACEMENT_3D( '', #269, #270, #271 );
#173 = SURFACE_SIDE_STYLE( '', ( #272 ) );
#174 = EDGE_LOOP( '', ( #273 ) );
#175 = EDGE_LOOP( '', ( #274 ) );
#176 = AXIS2_PLACEMENT_3D( '', #275, #276, #277 );
#177 = SURFACE_SIDE_STYLE( '', ( #278 ) );
#178 = EDGE_LOOP( '', ( #279 ) );
#179 = EDGE_LOOP( '', ( #280 ) );
#180 = AXIS2_PLACEMENT_3D( '', #281, #282, #283 );
#181 = SURFACE_SIDE_STYLE( '', ( #284 ) );
#182 = EDGE_LOOP( '', ( #285 ) );
#183 = EDGE_LOOP( '', ( #286 ) );
#184 = AXIS2_PLACEMENT_3D( '', #287, #288, #289 );
#186 = SURFACE_STYLE_FILL_AREA( #290 );
#187 = ORIENTED_EDGE( '', *, *, #291, .T. );
#188 = ORIENTED_EDGE( '', *, *, #292, .T. );
#189 = ORIENTED_EDGE( '', *, *, #293, .T. );
#190 = ORIENTED_EDGE( '', *, *, #294, .T. );
#191 = ORIENTED_EDGE( '', *, *, #295, .T. );
#192 = ORIENTED_EDGE( '', *, *, #296, .T. );
#193 = ORIENTED_EDGE( '', *, *, #297, .T. );
#194 = ORIENTED_EDGE( '', *, *, #298, .T. );
#195 = ORIENTED_EDGE( '', *, *, #299, .T. );
#196 = CARTESIAN_POINT( '', ( 0.000000000000000, 0.000000000000000, 57.1500000000000 ) );
#197 = DIRECTION( '', ( -0.000000000000000, -0.000000000000000, -1.00000000000000 ) );
#198 = DIRECTION( '', ( 1.00000000000000, 0.000000000000000, 0.000000000000000 ) );
#199 = SURFACE_STYLE_FILL_AREA( #300 );
#200 = ORIENTED_EDGE( '', *, *, #301, .T. );
#201 = ORIENTED_EDGE( '', *, *, #295, .F. );
#202 = ORIENTED_EDGE( '', *, *, #302, .F. );
#203 = ORIENTED_EDGE( '', *, *, #299, .F. );
#204 = CARTESIAN_POINT( '', ( -0.750000000000000, -10.0000000000000, 21.0000000000000 ) );
#205 = DIRECTION( '', ( 0.000000000000000, 0.000000000000000, 1.00000000000000 ) );
#206 = DIRECTION( '', ( 1.00000000000000, 0.000000000000000, 0.000000000000000 ) );
#207 = SURFACE_STYLE_FILL_AREA( #303 );
#208 = ORIENTED_EDGE( '', *, *, #304, .F. );
#209 = ORIENTED_EDGE( '', *, *, #293, .F. );
#210 = ORIENTED_EDGE( '', *, *, #305, .F. );
#211 = ORIENTED_EDGE( '', *, *, #306, .F. );
#212 = CARTESIAN_POINT( '', ( 0.000000000000000, 0.000000000000000, 22.0000000000000 ) );
#213 = DIRECTION( '', ( -0.000000000000000, 0.000000000000000, -1.00000000000000 ) );
#214 = DIRECTION( '', ( -1.00000000000000, 0.000000000000000, 0.000000000000000 ) );
#215 = SURFACE_STYLE_FILL_AREA( #307 );
#216 = ORIENTED_EDGE( '', *, *, #308, .F. );
#217 = ORIENTED_EDGE( '', *, *, #309, .T. );
#218 = CARTESIAN_POINT( '', ( 0.000000000000000, 0.000000000000000, 22.0000000000000 ) );
#219 = DIRECTION( '', ( 0.000000000000000, 0.000000000000000, 1.00000000000000 ) );
#220 = DIRECTION( '', ( 1.00000000000000, 0.000000000000000, 0.000000000000000 ) );
#221 = SURFACE_STYLE_FILL_AREA( #310 );
#222 = ORIENTED_EDGE( '', *, *, #311, .F. );
#223 = ORIENTED_EDGE( '', *, *, #297, .F. );
#224 = ORIENTED_EDGE( '', *, *, #312, .F. );
#225 = ORIENTED_EDGE( '', *, *, #309, .F. );
#226 = CARTESIAN_POINT( '', ( 0.000000000000000, 0.000000000000000, 22.0000000000000 ) );
#227 = DIRECTION( '', ( -0.000000000000000, 0.000000000000000, -1.00000000000000 ) );
#228 = DIRECTION( '', ( -1.00000000000000, 0.000000000000000, 0.000000000000000 ) );
#229 = SURFACE_STYLE_FILL_AREA( #313 );
#230 = ORIENTED_EDGE( '', *, *, #314, .T. );
#231 = ORIENTED_EDGE( '', *, *, #315, .F. );
#232 = CARTESIAN_POINT( '', ( 0.000000000000000, 0.000000000000000, 57.1500000000000 ) );
#233 = DIRECTION( '', ( -0.000000000000000, -0.000000000000000, -1.00000000000000 ) );
#234 = DIRECTION( '', ( 1.00000000000000, 0.000000000000000, 0.000000000000000 ) );
#235 = SURFACE_STYLE_FILL_AREA( #316 );
#236 = ORIENTED_EDGE( '', *, *, #317, .F. );
#237 = CARTESIAN_POINT( '', ( 0.000000000000000, 0.000000000000000, 3.00000000000000 ) );
#238 = DIRECTION( '', ( 0.000000000000000, 0.000000000000000, 1.00000000000000 ) );
#239 = DIRECTION( '', ( 1.00000000000000, 0.000000000000000, 0.000000000000000 ) );
#240 = SURFACE_STYLE_FILL_AREA( #318 );
#241 = ORIENTED_EDGE( '', *, *, #319, .T. );
#242 = ORIENTED_EDGE( '', *, *, #306, .T. );
#243 = CARTESIAN_POINT( '', ( 0.000000000000000, 0.000000000000000, 22.0000000000000 ) );
#244 = DIRECTION( '', ( 0.000000000000000, 0.000000000000000, 1.00000000000000 ) );
#245 = DIRECTION( '', ( 1.00000000000000, 0.000000000000000, 0.000000000000000 ) );
#246 = SURFACE_STYLE_FILL_AREA( #320 );
#247 = ORIENTED_EDGE( '', *, *, #319, .F. );
#248 = ORIENTED_EDGE( '', *, *, #305, .T. );
#249 = ORIENTED_EDGE( '', *, *, #292, .F. );
#250 = ORIENTED_EDGE( '', *, *, #302, .T. );
#251 = ORIENTED_EDGE( '', *, *, #294, .F. );
#252 = ORIENTED_EDGE( '', *, *, #304, .T. );
#253 = CARTESIAN_POINT( '', ( -0.750000000000000, -10.0000000000000, 22.0000000000000 ) );
#254 = DIRECTION( '', ( 1.00000000000000, 0.000000000000000, 1.08420217248550E-016 ) );
#255 = DIRECTION( '', ( 1.08420217248550E-016, 0.000000000000000, -1.00000000000000 ) );
#256 = SURFACE_STYLE_FILL_AREA( #321 );
#257 = ORIENTED_EDGE( '', *, *, #308, .T. );
#258 = ORIENTED_EDGE( '', *, *, #312, .T. );
#259 = ORIENTED_EDGE( '', *, *, #296, .F. );
#260 = ORIENTED_EDGE( '', *, *, #301, .F. );
#261 = ORIENTED_EDGE( '', *, *, #298, .F. );
#262 = ORIENTED_EDGE( '', *, *, #311, .T. );
#263 = CARTESIAN_POINT( '', ( 0.750000000000000, -10.0000000000000, 21.0000000000000 ) );
#264 = DIRECTION( '', ( -1.00000000000000, 0.000000000000000, 1.08420217248550E-016 ) );
#265 = DIRECTION( '', ( 1.08420217248550E-016, 0.000000000000000, 1.00000000000000 ) );
#266 = SURFACE_STYLE_FILL_AREA( #322 );
#267 = ORIENTED_EDGE( '', *, *, #323, .T. );
#268 = ORIENTED_EDGE( '', *, *, #324, .F. );
#269 = CARTESIAN_POINT( '', ( 0.000000000000000, 0.000000000000000, 57.1500000000000 ) );
#270 = DIRECTION( '', ( -0.000000000000000, -0.000000000000000, -1.00000000000000 ) );
#271 = DIRECTION( '', ( 1.00000000000000, 0.000000000000000, 0.000000000000000 ) );
#272 = SURFACE_STYLE_FILL_AREA( #325 );
#273 = ORIENTED_EDGE( '', *, *, #324, .T. );
#274 = ORIENTED_EDGE( '', *, *, #314, .F. );
#275 = CARTESIAN_POINT( '', ( 0.000000000000000, 0.000000000000000, 3.50000000000000 ) );
#276 = DIRECTION( '', ( -0.000000000000000, -0.000000000000000, 1.00000000000000 ) );
#277 = DIRECTION( '', ( 1.00000000000000, 0.000000000000000, 0.000000000000000 ) );
#278 = SURFACE_STYLE_FILL_AREA( #326 );
#279 = ORIENTED_EDGE( '', *, *, #315, .T. );
#280 = ORIENTED_EDGE( '', *, *, #291, .F. );
#281 = CARTESIAN_POINT( '', ( 8.00000000000000, 0.000000000000000, 15.8000000000000 ) );
#282 = DIRECTION( '', ( 0.000000000000000, 0.000000000000000, -1.00000000000000 ) );
#283 = DIRECTION( '', ( -1.00000000000000, 0.000000000000000, 0.000000000000000 ) );
#284 = SURFACE_STYLE_FILL_AREA( #327 );
#285 = ORIENTED_EDGE( '', *, *, #317, .T. );
#286 = ORIENTED_EDGE( '', *, *, #323, .F. );
#287 = CARTESIAN_POINT( '', ( 4.50000000000000, 0.000000000000000, 2.00000000000000 ) );
#288 = DIRECTION( '', ( 0.000000000000000, 0.000000000000000, -1.00000000000000 ) );
#289 = DIRECTION( '', ( -1.00000000000000, 0.000000000000000, 0.000000000000000 ) );
#290 = FILL_AREA_STYLE( '', ( #328 ) );
#291 = EDGE_CURVE( '', #329, #329, #330, .T. );
#292 = EDGE_CURVE( '', #331, #332, #333, .T. );
#293 = EDGE_CURVE( '', #332, #334, #335, .F. );
#294 = EDGE_CURVE( '', #334, #336, #337, .F. );
#295 = EDGE_CURVE( '', #336, #338, #339, .F. );
#296 = EDGE_CURVE( '', #338, #340, #341, .T. );
#297 = EDGE_CURVE( '', #340, #342, #343, .F. );
#298 = EDGE_CURVE( '', #342, #344, #345, .F. );
#299 = EDGE_CURVE( '', #344, #331, #346, .F. );
#300 = FILL_AREA_STYLE( '', ( #347 ) );
#301 = EDGE_CURVE( '', #344, #338, #348, .T. );
#302 = EDGE_CURVE( '', #331, #336, #349, .T. );
#303 = FILL_AREA_STYLE( '', ( #350 ) );
#304 = EDGE_CURVE( '', #334, #351, #352, .T. );
#305 = EDGE_CURVE( '', #353, #332, #354, .T. );
#306 = EDGE_CURVE( '', #351, #353, #355, .T. );
#307 = FILL_AREA_STYLE( '', ( #356 ) );
#308 = EDGE_CURVE( '', #357, #358, #359, .T. );
#309 = EDGE_CURVE( '', #357, #358, #360, .T. );
#310 = FILL_AREA_STYLE( '', ( #361 ) );
#311 = EDGE_CURVE( '', #342, #357, #362, .T. );
#312 = EDGE_CURVE( '', #358, #340, #363, .T. );
#313 = FILL_AREA_STYLE( '', ( #364 ) );
#314 = EDGE_CURVE( '', #365, #365, #366, .F. );
#315 = EDGE_CURVE( '', #367, #367, #368, .T. );
#316 = FILL_AREA_STYLE( '', ( #369 ) );
#317 = EDGE_CURVE( '', #370, #370, #371, .T. );
#318 = FILL_AREA_STYLE( '', ( #372 ) );
#319 = EDGE_CURVE( '', #353, #351, #373, .T. );
#320 = FILL_AREA_STYLE( '', ( #374 ) );
#321 = FILL_AREA_STYLE( '', ( #375 ) );
#322 = FILL_AREA_STYLE( '', ( #376 ) );
#323 = EDGE_CURVE( '', #377, #377, #378, .T. );
#324 = EDGE_CURVE( '', #379, #379, #380, .T. );
#325 = FILL_AREA_STYLE( '', ( #381 ) );
#326 = FILL_AREA_STYLE( '', ( #382 ) );
#327 = FILL_AREA_STYLE( '', ( #383 ) );
#328 = FILL_AREA_STYLE_COLOUR( '', #384 );
#329 = VERTEX_POINT( '', #385 );
#330 = CIRCLE( '', #386, 8.00000000000000 );
#331 = VERTEX_POINT( '', #387 );
#332 = VERTEX_POINT( '', #388 );
#333 = LINE( '', #389, #390 );
#334 = VERTEX_POINT( '', #391 );
#335 = CIRCLE( '', #392, 8.00000000000000 );
#336 = VERTEX_POINT( '', #393 );
#337 = LINE( '', #394, #395 );
#338 = VERTEX_POINT( '', #396 );
#339 = CIRCLE( '', #397, 8.00000000000000 );
#340 = VERTEX_POINT( '', #398 );
#341 = LINE( '', #399, #400 );
#342 = VERTEX_POINT( '', #401 );
#343 = CIRCLE( '', #402, 8.00000000000000 );
#344 = VERTEX_POINT( '', #403 );
#345 = LINE( '', #404, #405 );
#346 = CIRCLE( '', #406, 8.00000000000000 );
#347 = FILL_AREA_STYLE_COLOUR( '', #407 );
#348 = LINE( '', #408, #409 );
#349 = LINE( '', #410, #411 );
#350 = FILL_AREA_STYLE_COLOUR( '', #412 );
#351 = VERTEX_POINT( '', #413 );
#352 = B_SPLINE_CURVE_WITH_KNOTS( '', 3, ( #414, #415, #416, #417 ), .UNSPECIFIED., .F., .F., ( 4, 4 ), ( 6.25463444138550E-018, 0.000708777788974808 ), .UNSPECIFIED. );
#353 = VERTEX_POINT( '', #418 );
#354 = B_SPLINE_CURVE_WITH_KNOTS( '', 3, ( #419, #420, #421, #422 ), .UNSPECIFIED., .F., .F., ( 4, 4 ), ( 0.000000000000000, 0.000708777788974799 ), .UNSPECIFIED. );
#355 = CIRCLE( '', #423, 7.50000000000000 );
#356 = FILL_AREA_STYLE_COLOUR( '', #424 );
#357 = VERTEX_POINT( '', #425 );
#358 = VERTEX_POINT( '', #426 );
#359 = LINE( '', #427, #428 );
#360 = CIRCLE( '', #429, 7.50000000000000 );
#361 = FILL_AREA_STYLE_COLOUR( '', #430 );
#362 = B_SPLINE_CURVE_WITH_KNOTS( '', 3, ( #431, #432, #433, #434 ), .UNSPECIFIED., .F., .F., ( 4, 4 ), ( 6.25463444138550E-018, 0.000708777788974808 ), .UNSPECIFIED. );
#363 = B_SPLINE_CURVE_WITH_KNOTS( '', 3, ( #435, #436, #437, #438 ), .UNSPECIFIED., .F., .F., ( 4, 4 ), ( 0.000000000000000, 0.000708777788974799 ), .UNSPECIFIED. );
#364 = FILL_AREA_STYLE_COLOUR( '', #439 );
#365 = VERTEX_POINT( '', #440 );
#366 = CIRCLE( '', #441, 5.00000000000000 );
#367 = VERTEX_POINT( '', #442 );
#368 = CIRCLE( '', #443, 5.00000000000000 );
#369 = FILL_AREA_STYLE_COLOUR( '', #444 );
#370 = VERTEX_POINT( '', #445 );
#371 = CIRCLE( '', #446, 2.82842712474619 );
#372 = FILL_AREA_STYLE_COLOUR( '', #447 );
#373 = LINE( '', #448, #449 );
#374 = FILL_AREA_STYLE_COLOUR( '', #450 );
#375 = FILL_AREA_STYLE_COLOUR( '', #451 );
#376 = FILL_AREA_STYLE_COLOUR( '', #452 );
#377 = VERTEX_POINT( '', #453 );
#378 = CIRCLE( '', #454, 4.50000000000000 );
#379 = VERTEX_POINT( '', #455 );
#380 = CIRCLE( '', #456, 4.50000000000000 );
#381 = FILL_AREA_STYLE_COLOUR( '', #457 );
#382 = FILL_AREA_STYLE_COLOUR( '', #458 );
#383 = FILL_AREA_STYLE_COLOUR( '', #459 );
#384 = COLOUR_RGB( '', 0.200000002980232, 0.200000002980232, 0.200000002980232 );
#385 = CARTESIAN_POINT( '', ( 8.00000000000000, 0.000000000000000, 15.8000000000000 ) );
#386 = AXIS2_PLACEMENT_3D( '', #460, #461, #462 );
#387 = CARTESIAN_POINT( '', ( -0.750000000000000, -7.96476616103699, 21.0000000000000 ) );
#388 = CARTESIAN_POINT( '', ( -0.750000000000000, -7.96476616103699, 21.5000000000000 ) );
#389 = CARTESIAN_POINT( '', ( -0.750000000000000, -7.96476616103699, 57.1500000000000 ) );
#390 = VECTOR( '', #463, 1000.00000000000 );
#391 = CARTESIAN_POINT( '', ( -0.750000000000000, 7.96476616103699, 21.5000000000000 ) );
#392 = AXIS2_PLACEMENT_3D( '', #464, #465, #466 );
#393 = CARTESIAN_POINT( '', ( -0.750000000000000, 7.96476616103699, 21.0000000000000 ) );
#394 = CARTESIAN_POINT( '', ( -0.750000000000000, 7.96476616103699, 57.1500000000000 ) );
#395 = VECTOR( '', #467, 1000.00000000000 );
#396 = CARTESIAN_POINT( '', ( 0.750000000000000, 7.96476616103700, 21.0000000000000 ) );
#397 = AXIS2_PLACEMENT_3D( '', #468, #469, #470 );
#398 = CARTESIAN_POINT( '', ( 0.750000000000000, 7.96476616103699, 21.5000000000000 ) );
#399 = CARTESIAN_POINT( '', ( 0.750000000000000, 7.96476616103699, 57.1500000000000 ) );
#400 = VECTOR( '', #471, 1000.00000000000 );
#401 = CARTESIAN_POINT( '', ( 0.750000000000000, -7.96476616103699, 21.5000000000000 ) );
#402 = AXIS2_PLACEMENT_3D( '', #472, #473, #474 );
#403 = CARTESIAN_POINT( '', ( 0.750000000000000, -7.96476616103699, 21.0000000000000 ) );
#404 = CARTESIAN_POINT( '', ( 0.750000000000000, -7.96476616103699, 57.1500000000000 ) );
#405 = VECTOR( '', #475, 1000.00000000000 );
#406 = AXIS2_PLACEMENT_3D( '', #476, #477, #478 );
#407 = COLOUR_RGB( '', 0.200000002980232, 0.200000002980232, 0.200000002980232 );
#408 = CARTESIAN_POINT( '', ( 0.750000000000000, -10.0000000000000, 21.0000000000000 ) );
#409 = VECTOR( '', #479, 1000.00000000000 );
#410 = CARTESIAN_POINT( '', ( -0.750000000000000, -10.0000000000000, 21.0000000000000 ) );
#411 = VECTOR( '', #480, 1000.00000000000 );
#412 = COLOUR_RGB( '', 0.200000002980232, 0.200000002980232, 0.200000002980232 );
#413 = CARTESIAN_POINT( '', ( -0.750000000000000, 7.46240577829965, 22.0000000000000 ) );
#414 = CARTESIAN_POINT( '', ( -0.750000000000000, 7.96476616103700, 21.5000000000000 ) );
#415 = CARTESIAN_POINT( '', ( -0.750000000000000, 7.79733734341020, 21.6666914226270 ) );
#416 = CARTESIAN_POINT( '', ( -0.750000000000000, 7.62988552934352, 21.8333597517416 ) );
#417 = CARTESIAN_POINT( '', ( -0.750000000000000, 7.46240577829965, 22.0000000000000 ) );
#418 = CARTESIAN_POINT( '', ( -0.750000000000000, -7.46240577829965, 22.0000000000000 ) );
#419 = CARTESIAN_POINT( '', ( -0.750000000000000, -7.46240577829965, 22.0000000000000 ) );
#420 = CARTESIAN_POINT( '', ( -0.750000000000000, -7.62988552934352, 21.8333597517416 ) );
#421 = CARTESIAN_POINT( '', ( -0.750000000000000, -7.79733734341020, 21.6666914226270 ) );
#422 = CARTESIAN_POINT( '', ( -0.750000000000000, -7.96476616103700, 21.5000000000000 ) );
#423 = AXIS2_PLACEMENT_3D( '', #481, #482, #483 );
#424 = COLOUR_RGB( '', 0.200000002980232, 0.200000002980232, 0.200000002980232 );
#425 = CARTESIAN_POINT( '', ( 0.750000000000000, -7.46240577829965, 22.0000000000000 ) );
#426 = CARTESIAN_POINT( '', ( 0.750000000000000, 7.46240577829965, 22.0000000000000 ) );
#427 = CARTESIAN_POINT( '', ( 0.750000000000000, -10.0000000000000, 22.0000000000000 ) );
#428 = VECTOR( '', #484, 1000.00000000000 );
#429 = AXIS2_PLACEMENT_3D( '', #485, #486, #487 );
#430 = COLOUR_RGB( '', 0.200000002980232, 0.200000002980232, 0.200000002980232 );
#431 = CARTESIAN_POINT( '', ( 0.750000000000000, -7.96476616103700, 21.5000000000000 ) );
#432 = CARTESIAN_POINT( '', ( 0.750000000000000, -7.79733734341020, 21.6666914226270 ) );
#433 = CARTESIAN_POINT( '', ( 0.750000000000000, -7.62988552934352, 21.8333597517416 ) );
#434 = CARTESIAN_POINT( '', ( 0.750000000000000, -7.46240577829965, 22.0000000000000 ) );
#435 = CARTESIAN_POINT( '', ( 0.750000000000000, 7.46240577829965, 22.0000000000000 ) );
#436 = CARTESIAN_POINT( '', ( 0.750000000000000, 7.62988552934352, 21.8333597517416 ) );
#437 = CARTESIAN_POINT( '', ( 0.750000000000000, 7.79733734341020, 21.6666914226270 ) );
#438 = CARTESIAN_POINT( '', ( 0.750000000000000, 7.96476616103700, 21.5000000000000 ) );
#439 = COLOUR_RGB( '', 0.752941191196442, 0.752941191196442, 0.752941191196442 );
#440 = CARTESIAN_POINT( '', ( -5.00000000000000, 0.000000000000000, 3.50000000000000 ) );
#441 = AXIS2_PLACEMENT_3D( '', #488, #489, #490 );
#442 = CARTESIAN_POINT( '', ( 5.00000000000000, 0.000000000000000, 15.8000000000000 ) );
#443 = AXIS2_PLACEMENT_3D( '', #491, #492, #493 );
#444 = COLOUR_RGB( '', 0.200000002980232, 0.200000002980232, 0.200000002980232 );
#445 = CARTESIAN_POINT( '', ( 2.82842712474619, 0.000000000000000, 2.00000000000000 ) );
#446 = AXIS2_PLACEMENT_3D( '', #494, #495, #496 );
#447 = COLOUR_RGB( '', 0.200000002980232, 0.200000002980232, 0.200000002980232 );
#448 = CARTESIAN_POINT( '', ( -0.750000000000000, -10.0000000000000, 22.0000000000000 ) );
#449 = VECTOR( '', #497, 1000.00000000000 );
#450 = COLOUR_RGB( '', 0.200000002980232, 0.200000002980232, 0.200000002980232 );
#451 = COLOUR_RGB( '', 0.200000002980232, 0.200000002980232, 0.200000002980232 );
#452 = COLOUR_RGB( '', 0.200000002980232, 0.200000002980232, 0.200000002980232 );
#453 = CARTESIAN_POINT( '', ( 4.50000000000000, 0.000000000000000, 2.00000000000000 ) );
#454 = AXIS2_PLACEMENT_3D( '', #498, #499, #500 );
#455 = CARTESIAN_POINT( '', ( 4.50000000000000, 0.000000000000000, 3.00000000000000 ) );
#456 = AXIS2_PLACEMENT_3D( '', #501, #502, #503 );
#457 = COLOUR_RGB( '', 0.200000002980232, 0.200000002980232, 0.200000002980232 );
#458 = COLOUR_RGB( '', 0.200000002980232, 0.200000002980232, 0.200000002980232 );
#459 = COLOUR_RGB( '', 0.200000002980232, 0.200000002980232, 0.200000002980232 );
#460 = CARTESIAN_POINT( '', ( 0.000000000000000, 0.000000000000000, 15.8000000000000 ) );
#461 = DIRECTION( '', ( 0.000000000000000, 0.000000000000000, 1.00000000000000 ) );
#462 = DIRECTION( '', ( 1.00000000000000, 0.000000000000000, 0.000000000000000 ) );
#463 = DIRECTION( '', ( 0.000000000000000, 0.000000000000000, 1.00000000000000 ) );
#464 = CARTESIAN_POINT( '', ( 0.000000000000000, 0.000000000000000, 21.5000000000000 ) );
#465 = DIRECTION( '', ( 0.000000000000000, 0.000000000000000, 1.00000000000000 ) );
#466 = DIRECTION( '', ( 1.00000000000000, 0.000000000000000, 0.000000000000000 ) );
#467 = DIRECTION( '', ( 0.000000000000000, 0.000000000000000, 1.00000000000000 ) );
#468 = CARTESIAN_POINT( '', ( 0.000000000000000, 0.000000000000000, 21.0000000000000 ) );
#469 = DIRECTION( '', ( 0.000000000000000, 0.000000000000000, 1.00000000000000 ) );
#470 = DIRECTION( '', ( 1.00000000000000, 0.000000000000000, 0.000000000000000 ) );
#471 = DIRECTION( '', ( 0.000000000000000, 0.000000000000000, 1.00000000000000 ) );
#472 = CARTESIAN_POINT( '', ( 0.000000000000000, 0.000000000000000, 21.5000000000000 ) );
#473 = DIRECTION( '', ( 0.000000000000000, 0.000000000000000, 1.00000000000000 ) );
#474 = DIRECTION( '', ( 1.00000000000000, 0.000000000000000, 0.000000000000000 ) );
#475 = DIRECTION( '', ( 0.000000000000000, 0.000000000000000, 1.00000000000000 ) );
#476 = CARTESIAN_POINT( '', ( 0.000000000000000, 0.000000000000000, 21.0000000000000 ) );
#477 = DIRECTION( '', ( 0.000000000000000, 0.000000000000000, 1.00000000000000 ) );
#478 = DIRECTION( '', ( 1.00000000000000, 0.000000000000000, 0.000000000000000 ) );
#479 = DIRECTION( '', ( 0.000000000000000, 1.00000000000000, 0.000000000000000 ) );
#480 = DIRECTION( '', ( 0.000000000000000, 1.00000000000000, 0.000000000000000 ) );
#481 = CARTESIAN_POINT( '', ( 0.000000000000000, 0.000000000000000, 22.0000000000000 ) );
#482 = DIRECTION( '', ( 0.000000000000000, 0.000000000000000, 1.00000000000000 ) );
#483 = DIRECTION( '', ( 1.00000000000000, 0.000000000000000, 0.000000000000000 ) );
#484 = DIRECTION( '', ( 0.000000000000000, 1.00000000000000, 0.000000000000000 ) );
#485 = CARTESIAN_POINT( '', ( 0.000000000000000, 0.000000000000000, 22.0000000000000 ) );
#486 = DIRECTION( '', ( 0.000000000000000, 0.000000000000000, 1.00000000000000 ) );
#487 = DIRECTION( '', ( 1.00000000000000, 0.000000000000000, 0.000000000000000 ) );
#488 = CARTESIAN_POINT( '', ( 0.000000000000000, 0.000000000000000, 3.50000000000000 ) );
#489 = DIRECTION( '', ( 0.000000000000000, 0.000000000000000, -1.00000000000000 ) );
#490 = DIRECTION( '', ( -1.00000000000000, 0.000000000000000, 0.000000000000000 ) );
#491 = CARTESIAN_POINT( '', ( 0.000000000000000, 0.000000000000000, 15.8000000000000 ) );
#492 = DIRECTION( '', ( 0.000000000000000, 0.000000000000000, 1.00000000000000 ) );
#493 = DIRECTION( '', ( 1.00000000000000, 0.000000000000000, 0.000000000000000 ) );
#494 = CARTESIAN_POINT( '', ( 0.000000000000000, 0.000000000000000, 2.00000000000000 ) );
#495 = DIRECTION( '', ( 0.000000000000000, 0.000000000000000, 1.00000000000000 ) );
#496 = DIRECTION( '', ( 1.00000000000000, 0.000000000000000, 0.000000000000000 ) );
#497 = DIRECTION( '', ( 0.000000000000000, 1.00000000000000, 0.000000000000000 ) );
#498 = CARTESIAN_POINT( '', ( 0.000000000000000, 0.000000000000000, 2.00000000000000 ) );
#499 = DIRECTION( '', ( 0.000000000000000, 0.000000000000000, 1.00000000000000 ) );
#500 = DIRECTION( '', ( 1.00000000000000, 0.000000000000000, 0.000000000000000 ) );
#501 = CARTESIAN_POINT( '', ( 0.000000000000000, 0.000000000000000, 3.00000000000000 ) );
#502 = DIRECTION( '', ( 0.000000000000000, 0.000000000000000, 1.00000000000000 ) );
#503 = DIRECTION( '', ( 1.00000000000000, 0.000000000000000, 0.000000000000000 ) );
ENDSEC;
END-ISO-10303-21;
