ISO-10303-21;
HEADER;
FILE_DESCRIPTION( ( 'Unknown' ), '1' );
FILE_NAME( '//SBS2003/HD_Usb/Disegni/08_LIB/Users_3D/PROD_GAMM_3D/APV/7747586_APV_22.stp', 'Unknown', ( 'Unknown' ), ( 'Unknown' ), 'PSStep 14.0', 'Unknown', '  ' );
FILE_SCHEMA( ( 'AUTOMOTIVE_DESIGN { 1 0 10303 214 1 1 1 1 }' ) );
ENDSEC;
DATA;
#1 = MECHANICAL_DESIGN_GEOMETRIC_PRESENTATION_REPRESENTATION( ' ', ( #10, #11, #12, #13, #14, #15, #16, #17, #18, #19, #20, #21, #22, #23 ), #6 );
#2 = PRODUCT_DEFINITION_CONTEXT( '', #24, 'design' );
#3 = APPLICATION_PROTOCOL_DEFINITION( 'international standard', 'automotive_design', 2001, #24 );
#4 = PRODUCT_CATEGORY_RELATIONSHIP( 'NONE', 'NONE', #25, #26 );
#5 = SHAPE_DEFINITION_REPRESENTATION( #27, #28 );
#6 =  ( GEOMETRIC_REPRESENTATION_CONTEXT( 3 )GLOBAL_UNCERTAINTY_ASSIGNED_CONTEXT( ( #31 ) )GLOBAL_UNIT_ASSIGNED_CONTEXT( ( #33, #34, #35 ) )REPRESENTATION_CONTEXT( 'NONE', 'WORKSPACE' ) );
#10 = STYLED_ITEM( '', ( #37 ), #38 );
#11 = STYLED_ITEM( '', ( #39 ), #40 );
#12 = STYLED_ITEM( '', ( #41 ), #42 );
#13 = STYLED_ITEM( '', ( #43 ), #44 );
#14 = STYLED_ITEM( '', ( #45 ), #46 );
#15 = STYLED_ITEM( '', ( #47 ), #48 );
#16 = STYLED_ITEM( '', ( #49 ), #50 );
#17 = STYLED_ITEM( '', ( #51 ), #52 );
#18 = STYLED_ITEM( '', ( #53 ), #54 );
#19 = STYLED_ITEM( '', ( #55 ), #56 );
#20 = STYLED_ITEM( '', ( #57 ), #58 );
#21 = STYLED_ITEM( '', ( #59 ), #60 );
#22 = STYLED_ITEM( '', ( #61 ), #62 );
#23 = STYLED_ITEM( '', ( #63 ), #64 );
#24 = APPLICATION_CONTEXT( 'core data for automotive mechanical design processes' );
#25 = PRODUCT_CATEGORY( 'part', 'NONE' );
#26 = PRODUCT_RELATED_PRODUCT_CATEGORY( 'detail', ' ', ( #65 ) );
#27 = PRODUCT_DEFINITION_SHAPE( 'NONE', 'NONE', #66 );
#28 = ADVANCED_BREP_SHAPE_REPRESENTATION( '1', ( #67, #68 ), #6 );
#31 = UNCERTAINTY_MEASURE_WITH_UNIT( LENGTH_MEASURE( 0.00100000000000000 ), #33, '', '' );
#33 =  ( CONVERSION_BASED_UNIT( 'MILLIMETRE', #71 )LENGTH_UNIT(  )NAMED_UNIT( #74 ) );
#34 =  ( NAMED_UNIT( #76 )PLANE_ANGLE_UNIT(  )SI_UNIT( $, .RADIAN. ) );
#35 =  ( NAMED_UNIT( #76 )SI_UNIT( $, .STERADIAN. )SOLID_ANGLE_UNIT(  ) );
#37 = PRESENTATION_STYLE_ASSIGNMENT( ( #82 ) );
#38 = ADVANCED_FACE( '', ( #83 ), #84, .T. );
#39 = PRESENTATION_STYLE_ASSIGNMENT( ( #85 ) );
#40 = ADVANCED_FACE( '', ( #86, #87 ), #88, .T. );
#41 = PRESENTATION_STYLE_ASSIGNMENT( ( #89 ) );
#42 = ADVANCED_FACE( '', ( #90 ), #91, .T. );
#43 = PRESENTATION_STYLE_ASSIGNMENT( ( #92 ) );
#44 = ADVANCED_FACE( '', ( #93, #94 ), #95, .T. );
#45 = PRESENTATION_STYLE_ASSIGNMENT( ( #96 ) );
#46 = ADVANCED_FACE( '', ( #97 ), #98, .T. );
#47 = PRESENTATION_STYLE_ASSIGNMENT( ( #99 ) );
#48 = ADVANCED_FACE( '', ( #100 ), #101, .T. );
#49 = PRESENTATION_STYLE_ASSIGNMENT( ( #102 ) );
#50 = ADVANCED_FACE( '', ( #103 ), #104, .T. );
#51 = PRESENTATION_STYLE_ASSIGNMENT( ( #105 ) );
#52 = ADVANCED_FACE( '', ( #106 ), #107, .T. );
#53 = PRESENTATION_STYLE_ASSIGNMENT( ( #108 ) );
#54 = ADVANCED_FACE( '', ( #109 ), #110, .T. );
#55 = PRESENTATION_STYLE_ASSIGNMENT( ( #111 ) );
#56 = ADVANCED_FACE( '', ( #112, #113 ), #114, .T. );
#57 = PRESENTATION_STYLE_ASSIGNMENT( ( #115 ) );
#58 = ADVANCED_FACE( '', ( #116, #117 ), #118, .T. );
#59 = PRESENTATION_STYLE_ASSIGNMENT( ( #119 ) );
#60 = ADVANCED_FACE( '', ( #120 ), #121, .T. );
#61 = PRESENTATION_STYLE_ASSIGNMENT( ( #122 ) );
#62 = ADVANCED_FACE( '', ( #123, #124 ), #125, .T. );
#63 = PRESENTATION_STYLE_ASSIGNMENT( ( #126 ) );
#64 = ADVANCED_FACE( '', ( #127, #128 ), #129, .T. );
#65 = PRODUCT( '1', '1', 'PART-1-DESC', ( #130 ) );
#66 = PRODUCT_DEFINITION( 'NONE', 'NONE', #131, #2 );
#67 = MANIFOLD_SOLID_BREP( '1', #132 );
#68 = AXIS2_PLACEMENT_3D( '', #133, #134, #135 );
#71 = LENGTH_MEASURE_WITH_UNIT( LENGTH_MEASURE( 1.00000000000000 ), #136 );
#74 = DIMENSIONAL_EXPONENTS( 1.00000000000000, 0.000000000000000, 0.000000000000000, 0.000000000000000, 0.000000000000000, 0.000000000000000, 0.000000000000000 );
#76 = DIMENSIONAL_EXPONENTS( 0.000000000000000, 0.000000000000000, 0.000000000000000, 0.000000000000000, 0.000000000000000, 0.000000000000000, 0.000000000000000 );
#82 = SURFACE_STYLE_USAGE( .BOTH., #137 );
#83 = FACE_OUTER_BOUND( '', #138, .T. );
#84 = CONICAL_SURFACE( '', #139, 8.50000000000000, 0.785398163397448 );
#85 = SURFACE_STYLE_USAGE( .BOTH., #140 );
#86 = FACE_OUTER_BOUND( '', #141, .T. );
#87 = FACE_OUTER_BOUND( '', #142, .T. );
#88 = CYLINDRICAL_SURFACE( '', #143, 6.00000000000000 );
#89 = SURFACE_STYLE_USAGE( .BOTH., #144 );
#90 = FACE_OUTER_BOUND( '', #145, .T. );
#91 = SPHERICAL_SURFACE( '', #146, 4.00000000000000 );
#92 = SURFACE_STYLE_USAGE( .BOTH., #147 );
#93 = FACE_OUTER_BOUND( '', #148, .T. );
#94 = FACE_OUTER_BOUND( '', #149, .T. );
#95 = CYLINDRICAL_SURFACE( '', #150, 9.00000000000000 );
#96 = SURFACE_STYLE_USAGE( .BOTH., #151 );
#97 = FACE_OUTER_BOUND( '', #152, .T. );
#98 = CONICAL_SURFACE( '', #153, 8.50000000000000, 0.785398163397448 );
#99 = SURFACE_STYLE_USAGE( .BOTH., #154 );
#100 = FACE_OUTER_BOUND( '', #155, .T. );
#101 = PLANE( '', #156 );
#102 = SURFACE_STYLE_USAGE( .BOTH., #157 );
#103 = FACE_OUTER_BOUND( '', #158, .T. );
#104 = PLANE( '', #159 );
#105 = SURFACE_STYLE_USAGE( .BOTH., #160 );
#106 = FACE_OUTER_BOUND( '', #161, .T. );
#107 = PLANE( '', #162 );
#108 = SURFACE_STYLE_USAGE( .BOTH., #163 );
#109 = FACE_OUTER_BOUND( '', #164, .T. );
#110 = PLANE( '', #165 );
#111 = SURFACE_STYLE_USAGE( .BOTH., #166 );
#112 = FACE_BOUND( '', #167, .T. );
#113 = FACE_OUTER_BOUND( '', #168, .T. );
#114 = PLANE( '', #169 );
#115 = SURFACE_STYLE_USAGE( .BOTH., #170 );
#116 = FACE_OUTER_BOUND( '', #171, .T. );
#117 = FACE_OUTER_BOUND( '', #172, .T. );
#118 = CYLINDRICAL_SURFACE( '', #173, 5.50000000000000 );
#119 = SURFACE_STYLE_USAGE( .BOTH., #174 );
#120 = FACE_OUTER_BOUND( '', #175, .T. );
#121 = PLANE( '', #176 );
#122 = SURFACE_STYLE_USAGE( .BOTH., #177 );
#123 = FACE_BOUND( '', #178, .T. );
#124 = FACE_OUTER_BOUND( '', #179, .T. );
#125 = PLANE( '', #180 );
#126 = SURFACE_STYLE_USAGE( .BOTH., #181 );
#127 = FACE_BOUND( '', #182, .T. );
#128 = FACE_OUTER_BOUND( '', #183, .T. );
#129 = CONICAL_SURFACE( '', #184, 6.00000000000000, 0.785398163397448 );
#130 = PRODUCT_CONTEXT( '', #24, 'mechanical' );
#131 = PRODUCT_DEFINITION_FORMATION_WITH_SPECIFIED_SOURCE( ' ', 'NONE', #65, .NOT_KNOWN. );
#132 = CLOSED_SHELL( '', ( #60, #64, #44, #54, #50, #48, #46, #38, #42, #52, #62, #40, #58, #56 ) );
#133 = CARTESIAN_POINT( '', ( 0.000000000000000, 0.000000000000000, 0.000000000000000 ) );
#134 = DIRECTION( '', ( 0.000000000000000, 0.000000000000000, 1.00000000000000 ) );
#135 = DIRECTION( '', ( 1.00000000000000, 0.000000000000000, 0.000000000000000 ) );
#136 =  ( LENGTH_UNIT(  )NAMED_UNIT( #74 )SI_UNIT( .MILLI., .METRE. ) );
#137 = SURFACE_SIDE_STYLE( '', ( #186 ) );
#138 = EDGE_LOOP( '', ( #187, #188, #189, #190 ) );
#139 = AXIS2_PLACEMENT_3D( '', #191, #192, #193 );
#140 = SURFACE_SIDE_STYLE( '', ( #194 ) );
#141 = EDGE_LOOP( '', ( #195 ) );
#142 = EDGE_LOOP( '', ( #196 ) );
#143 = AXIS2_PLACEMENT_3D( '', #197, #198, #199 );
#144 = SURFACE_SIDE_STYLE( '', ( #200 ) );
#145 = EDGE_LOOP( '', ( #201 ) );
#146 = AXIS2_PLACEMENT_3D( '', #202, #203, #204 );
#147 = SURFACE_SIDE_STYLE( '', ( #205 ) );
#148 = EDGE_LOOP( '', ( #206 ) );
#149 = EDGE_LOOP( '', ( #207, #208, #209, #210, #211, #212, #213, #214 ) );
#150 = AXIS2_PLACEMENT_3D( '', #215, #216, #217 );
#151 = SURFACE_SIDE_STYLE( '', ( #218 ) );
#152 = EDGE_LOOP( '', ( #219, #220, #221, #222 ) );
#153 = AXIS2_PLACEMENT_3D( '', #223, #224, #225 );
#154 = SURFACE_SIDE_STYLE( '', ( #226 ) );
#155 = EDGE_LOOP( '', ( #227, #228, #229, #230, #231, #232 ) );
#156 = AXIS2_PLACEMENT_3D( '', #233, #234, #235 );
#157 = SURFACE_SIDE_STYLE( '', ( #236 ) );
#158 = EDGE_LOOP( '', ( #237, #238, #239, #240, #241, #242 ) );
#159 = AXIS2_PLACEMENT_3D( '', #243, #244, #245 );
#160 = SURFACE_SIDE_STYLE( '', ( #246 ) );
#161 = EDGE_LOOP( '', ( #247, #248 ) );
#162 = AXIS2_PLACEMENT_3D( '', #249, #250, #251 );
#163 = SURFACE_SIDE_STYLE( '', ( #252 ) );
#164 = EDGE_LOOP( '', ( #253, #254, #255, #256 ) );
#165 = AXIS2_PLACEMENT_3D( '', #257, #258, #259 );
#166 = SURFACE_SIDE_STYLE( '', ( #260 ) );
#167 = EDGE_LOOP( '', ( #261 ) );
#168 = EDGE_LOOP( '', ( #262 ) );
#169 = AXIS2_PLACEMENT_3D( '', #263, #264, #265 );
#170 = SURFACE_SIDE_STYLE( '', ( #266 ) );
#171 = EDGE_LOOP( '', ( #267 ) );
#172 = EDGE_LOOP( '', ( #268 ) );
#173 = AXIS2_PLACEMENT_3D( '', #269, #270, #271 );
#174 = SURFACE_SIDE_STYLE( '', ( #272 ) );
#175 = EDGE_LOOP( '', ( #273, #274 ) );
#176 = AXIS2_PLACEMENT_3D( '', #275, #276, #277 );
#177 = SURFACE_SIDE_STYLE( '', ( #278 ) );
#178 = EDGE_LOOP( '', ( #279 ) );
#179 = EDGE_LOOP( '', ( #280 ) );
#180 = AXIS2_PLACEMENT_3D( '', #281, #282, #283 );
#181 = SURFACE_SIDE_STYLE( '', ( #284 ) );
#182 = EDGE_LOOP( '', ( #285 ) );
#183 = EDGE_LOOP( '', ( #286 ) );
#184 = AXIS2_PLACEMENT_3D( '', #287, #288, #289 );
#186 = SURFACE_STYLE_FILL_AREA( #290 );
#187 = ORIENTED_EDGE( '', *, *, #291, .F. );
#188 = ORIENTED_EDGE( '', *, *, #292, .F. );
#189 = ORIENTED_EDGE( '', *, *, #293, .F. );
#190 = ORIENTED_EDGE( '', *, *, #294, .F. );
#191 = CARTESIAN_POINT( '', ( 0.000000000000000, 0.000000000000000, 24.5000000000000 ) );
#192 = DIRECTION( '', ( -0.000000000000000, 0.000000000000000, -1.00000000000000 ) );
#193 = DIRECTION( '', ( -1.00000000000000, 0.000000000000000, 0.000000000000000 ) );
#194 = SURFACE_STYLE_FILL_AREA( #295 );
#195 = ORIENTED_EDGE( '', *, *, #296, .T. );
#196 = ORIENTED_EDGE( '', *, *, #297, .F. );
#197 = CARTESIAN_POINT( '', ( 0.000000000000000, 0.000000000000000, 57.1500000000000 ) );
#198 = DIRECTION( '', ( -0.000000000000000, -0.000000000000000, -1.00000000000000 ) );
#199 = DIRECTION( '', ( 1.00000000000000, 0.000000000000000, 0.000000000000000 ) );
#200 = SURFACE_STYLE_FILL_AREA( #298 );
#201 = ORIENTED_EDGE( '', *, *, #299, .F. );
#202 = CARTESIAN_POINT( '', ( 0.000000000000000, 0.000000000000000, 4.00000000000000 ) );
#203 = DIRECTION( '', ( 0.000000000000000, 0.000000000000000, 1.00000000000000 ) );
#204 = DIRECTION( '', ( 1.00000000000000, 0.000000000000000, 0.000000000000000 ) );
#205 = SURFACE_STYLE_FILL_AREA( #300 );
#206 = ORIENTED_EDGE( '', *, *, #301, .T. );
#207 = ORIENTED_EDGE( '', *, *, #302, .T. );
#208 = ORIENTED_EDGE( '', *, *, #303, .T. );
#209 = ORIENTED_EDGE( '', *, *, #304, .T. );
#210 = ORIENTED_EDGE( '', *, *, #305, .T. );
#211 = ORIENTED_EDGE( '', *, *, #306, .T. );
#212 = ORIENTED_EDGE( '', *, *, #292, .T. );
#213 = ORIENTED_EDGE( '', *, *, #307, .T. );
#214 = ORIENTED_EDGE( '', *, *, #308, .T. );
#215 = CARTESIAN_POINT( '', ( 0.000000000000000, 0.000000000000000, 57.1500000000000 ) );
#216 = DIRECTION( '', ( -0.000000000000000, -0.000000000000000, -1.00000000000000 ) );
#217 = DIRECTION( '', ( 1.00000000000000, 0.000000000000000, 0.000000000000000 ) );
#218 = SURFACE_STYLE_FILL_AREA( #309 );
#219 = ORIENTED_EDGE( '', *, *, #310, .F. );
#220 = ORIENTED_EDGE( '', *, *, #303, .F. );
#221 = ORIENTED_EDGE( '', *, *, #311, .F. );
#222 = ORIENTED_EDGE( '', *, *, #312, .F. );
#223 = CARTESIAN_POINT( '', ( 0.000000000000000, 0.000000000000000, 24.5000000000000 ) );
#224 = DIRECTION( '', ( -0.000000000000000, 0.000000000000000, -1.00000000000000 ) );
#225 = DIRECTION( '', ( -1.00000000000000, 0.000000000000000, 0.000000000000000 ) );
#226 = SURFACE_STYLE_FILL_AREA( #313 );
#227 = ORIENTED_EDGE( '', *, *, #314, .F. );
#228 = ORIENTED_EDGE( '', *, *, #311, .T. );
#229 = ORIENTED_EDGE( '', *, *, #302, .F. );
#230 = ORIENTED_EDGE( '', *, *, #315, .T. );
#231 = ORIENTED_EDGE( '', *, *, #304, .F. );
#232 = ORIENTED_EDGE( '', *, *, #310, .T. );
#233 = CARTESIAN_POINT( '', ( -1.00000000000000, -10.0000000000000, 24.5000000000000 ) );
#234 = DIRECTION( '', ( 1.00000000000000, 0.000000000000000, 4.04768811061255E-015 ) );
#235 = DIRECTION( '', ( 4.04768811061255E-015, 0.000000000000000, -1.00000000000000 ) );
#236 = SURFACE_STYLE_FILL_AREA( #316 );
#237 = ORIENTED_EDGE( '', *, *, #317, .T. );
#238 = ORIENTED_EDGE( '', *, *, #293, .T. );
#239 = ORIENTED_EDGE( '', *, *, #306, .F. );
#240 = ORIENTED_EDGE( '', *, *, #318, .F. );
#241 = ORIENTED_EDGE( '', *, *, #307, .F. );
#242 = ORIENTED_EDGE( '', *, *, #291, .T. );
#243 = CARTESIAN_POINT( '', ( 1.00000000000000, -10.0000000000000, 23.0000000000000 ) );
#244 = DIRECTION( '', ( -1.00000000000000, 0.000000000000000, 4.04768811061255E-015 ) );
#245 = DIRECTION( '', ( 4.04768811061255E-015, 0.000000000000000, 1.00000000000000 ) );
#246 = SURFACE_STYLE_FILL_AREA( #319 );
#247 = ORIENTED_EDGE( '', *, *, #317, .F. );
#248 = ORIENTED_EDGE( '', *, *, #294, .T. );
#249 = CARTESIAN_POINT( '', ( 0.000000000000000, 0.000000000000000, 24.5000000000000 ) );
#250 = DIRECTION( '', ( 0.000000000000000, 0.000000000000000, 1.00000000000000 ) );
#251 = DIRECTION( '', ( 1.00000000000000, 0.000000000000000, 0.000000000000000 ) );
#252 = SURFACE_STYLE_FILL_AREA( #320 );
#253 = ORIENTED_EDGE( '', *, *, #318, .T. );
#254 = ORIENTED_EDGE( '', *, *, #305, .F. );
#255 = ORIENTED_EDGE( '', *, *, #315, .F. );
#256 = ORIENTED_EDGE( '', *, *, #308, .F. );
#257 = CARTESIAN_POINT( '', ( -1.00000000000000, -10.0000000000000, 23.0000000000000 ) );
#258 = DIRECTION( '', ( 0.000000000000000, 0.000000000000000, 1.00000000000000 ) );
#259 = DIRECTION( '', ( 1.00000000000000, 0.000000000000000, 0.000000000000000 ) );
#260 = SURFACE_STYLE_FILL_AREA( #321 );
#261 = ORIENTED_EDGE( '', *, *, #299, .T. );
#262 = ORIENTED_EDGE( '', *, *, #322, .F. );
#263 = CARTESIAN_POINT( '', ( 5.50000000000000, 0.000000000000000, 2.50000000000000 ) );
#264 = DIRECTION( '', ( 0.000000000000000, 0.000000000000000, -1.00000000000000 ) );
#265 = DIRECTION( '', ( -1.00000000000000, 0.000000000000000, 0.000000000000000 ) );
#266 = SURFACE_STYLE_FILL_AREA( #323 );
#267 = ORIENTED_EDGE( '', *, *, #322, .T. );
#268 = ORIENTED_EDGE( '', *, *, #324, .F. );
#269 = CARTESIAN_POINT( '', ( 0.000000000000000, 0.000000000000000, 57.1500000000000 ) );
#270 = DIRECTION( '', ( -0.000000000000000, -0.000000000000000, -1.00000000000000 ) );
#271 = DIRECTION( '', ( 1.00000000000000, 0.000000000000000, 0.000000000000000 ) );
#272 = SURFACE_STYLE_FILL_AREA( #325 );
#273 = ORIENTED_EDGE( '', *, *, #314, .T. );
#274 = ORIENTED_EDGE( '', *, *, #312, .T. );
#275 = CARTESIAN_POINT( '', ( 0.000000000000000, 0.000000000000000, 24.5000000000000 ) );
#276 = DIRECTION( '', ( 0.000000000000000, 0.000000000000000, 1.00000000000000 ) );
#277 = DIRECTION( '', ( 1.00000000000000, 0.000000000000000, 0.000000000000000 ) );
#278 = SURFACE_STYLE_FILL_AREA( #326 );
#279 = ORIENTED_EDGE( '', *, *, #297, .T. );
#280 = ORIENTED_EDGE( '', *, *, #301, .F. );
#281 = CARTESIAN_POINT( '', ( 9.00000000000000, 0.000000000000000, 17.3000000000000 ) );
#282 = DIRECTION( '', ( 0.000000000000000, 0.000000000000000, -1.00000000000000 ) );
#283 = DIRECTION( '', ( -1.00000000000000, 0.000000000000000, 0.000000000000000 ) );
#284 = SURFACE_STYLE_FILL_AREA( #327 );
#285 = ORIENTED_EDGE( '', *, *, #324, .T. );
#286 = ORIENTED_EDGE( '', *, *, #296, .F. );
#287 = CARTESIAN_POINT( '', ( 0.000000000000000, 0.000000000000000, 4.00000000000000 ) );
#288 = DIRECTION( '', ( -0.000000000000000, -0.000000000000000, 1.00000000000000 ) );
#289 = DIRECTION( '', ( 1.00000000000000, 0.000000000000000, 0.000000000000000 ) );
#290 = FILL_AREA_STYLE( '', ( #328 ) );
#291 = EDGE_CURVE( '', #329, #330, #331, .T. );
#292 = EDGE_CURVE( '', #332, #329, #333, .F. );
#293 = EDGE_CURVE( '', #334, #332, #335, .T. );
#294 = EDGE_CURVE( '', #330, #334, #336, .T. );
#295 = FILL_AREA_STYLE( '', ( #337 ) );
#296 = EDGE_CURVE( '', #338, #338, #339, .F. );
#297 = EDGE_CURVE( '', #340, #340, #341, .T. );
#298 = FILL_AREA_STYLE( '', ( #342 ) );
#299 = EDGE_CURVE( '', #343, #343, #344, .T. );
#300 = FILL_AREA_STYLE( '', ( #345 ) );
#301 = EDGE_CURVE( '', #346, #346, #347, .T. );
#302 = EDGE_CURVE( '', #348, #349, #350, .T. );
#303 = EDGE_CURVE( '', #349, #351, #352, .F. );
#304 = EDGE_CURVE( '', #351, #353, #354, .F. );
#305 = EDGE_CURVE( '', #353, #355, #356, .F. );
#306 = EDGE_CURVE( '', #355, #332, #357, .T. );
#307 = EDGE_CURVE( '', #329, #358, #359, .F. );
#308 = EDGE_CURVE( '', #358, #348, #360, .F. );
#309 = FILL_AREA_STYLE( '', ( #361 ) );
#310 = EDGE_CURVE( '', #351, #362, #363, .T. );
#311 = EDGE_CURVE( '', #364, #349, #365, .T. );
#312 = EDGE_CURVE( '', #362, #364, #366, .T. );
#313 = FILL_AREA_STYLE( '', ( #367 ) );
#314 = EDGE_CURVE( '', #364, #362, #368, .T. );
#315 = EDGE_CURVE( '', #348, #353, #369, .T. );
#316 = FILL_AREA_STYLE( '', ( #370 ) );
#317 = EDGE_CURVE( '', #330, #334, #371, .T. );
#318 = EDGE_CURVE( '', #358, #355, #372, .T. );
#319 = FILL_AREA_STYLE( '', ( #373 ) );
#320 = FILL_AREA_STYLE( '', ( #374 ) );
#321 = FILL_AREA_STYLE( '', ( #375 ) );
#322 = EDGE_CURVE( '', #376, #376, #377, .T. );
#323 = FILL_AREA_STYLE( '', ( #378 ) );
#324 = EDGE_CURVE( '', #379, #379, #380, .T. );
#325 = FILL_AREA_STYLE( '', ( #381 ) );
#326 = FILL_AREA_STYLE( '', ( #382 ) );
#327 = FILL_AREA_STYLE( '', ( #383 ) );
#328 = FILL_AREA_STYLE_COLOUR( '', #384 );
#329 = VERTEX_POINT( '', #385 );
#330 = VERTEX_POINT( '', #386 );
#331 = B_SPLINE_CURVE_WITH_KNOTS( '', 3, ( #387, #388, #389, #390 ), .UNSPECIFIED., .F., .F., ( 4, 4 ), ( 0.000000000000000, 0.000709444356228862 ), .UNSPECIFIED. );
#332 = VERTEX_POINT( '', #391 );
#333 = CIRCLE( '', #392, 9.00000000000000 );
#334 = VERTEX_POINT( '', #393 );
#335 = B_SPLINE_CURVE_WITH_KNOTS( '', 3, ( #394, #395, #396, #397 ), .UNSPECIFIED., .F., .F., ( 4, 4 ), ( 0.000000000000000, 0.000709444356228861 ), .UNSPECIFIED. );
#336 = CIRCLE( '', #398, 8.50000000000000 );
#337 = FILL_AREA_STYLE_COLOUR( '', #399 );
#338 = VERTEX_POINT( '', #400 );
#339 = CIRCLE( '', #401, 6.00000000000000 );
#340 = VERTEX_POINT( '', #402 );
#341 = CIRCLE( '', #403, 6.00000000000000 );
#342 = FILL_AREA_STYLE_COLOUR( '', #404 );
#343 = VERTEX_POINT( '', #405 );
#344 = CIRCLE( '', #406, 3.70809924354783 );
#345 = FILL_AREA_STYLE_COLOUR( '', #407 );
#346 = VERTEX_POINT( '', #408 );
#347 = CIRCLE( '', #409, 9.00000000000000 );
#348 = VERTEX_POINT( '', #410 );
#349 = VERTEX_POINT( '', #411 );
#350 = LINE( '', #412, #413 );
#351 = VERTEX_POINT( '', #414 );
#352 = CIRCLE( '', #415, 9.00000000000000 );
#353 = VERTEX_POINT( '', #416 );
#354 = LINE( '', #417, #418 );
#355 = VERTEX_POINT( '', #419 );
#356 = CIRCLE( '', #420, 9.00000000000000 );
#357 = LINE( '', #421, #422 );
#358 = VERTEX_POINT( '', #423 );
#359 = LINE( '', #424, #425 );
#360 = CIRCLE( '', #426, 9.00000000000000 );
#361 = FILL_AREA_STYLE_COLOUR( '', #427 );
#362 = VERTEX_POINT( '', #428 );
#363 = B_SPLINE_CURVE_WITH_KNOTS( '', 3, ( #429, #430, #431, #432 ), .UNSPECIFIED., .F., .F., ( 4, 4 ), ( 0.000000000000000, 0.000709444356228862 ), .UNSPECIFIED. );
#364 = VERTEX_POINT( '', #433 );
#365 = B_SPLINE_CURVE_WITH_KNOTS( '', 3, ( #434, #435, #436, #437 ), .UNSPECIFIED., .F., .F., ( 4, 4 ), ( 0.000000000000000, 0.000709444356228861 ), .UNSPECIFIED. );
#366 = CIRCLE( '', #438, 8.50000000000000 );
#367 = FILL_AREA_STYLE_COLOUR( '', #439 );
#368 = LINE( '', #440, #441 );
#369 = LINE( '', #442, #443 );
#370 = FILL_AREA_STYLE_COLOUR( '', #444 );
#371 = LINE( '', #445, #446 );
#372 = LINE( '', #447, #448 );
#373 = FILL_AREA_STYLE_COLOUR( '', #449 );
#374 = FILL_AREA_STYLE_COLOUR( '', #450 );
#375 = FILL_AREA_STYLE_COLOUR( '', #451 );
#376 = VERTEX_POINT( '', #452 );
#377 = CIRCLE( '', #453, 5.50000000000000 );
#378 = FILL_AREA_STYLE_COLOUR( '', #454 );
#379 = VERTEX_POINT( '', #455 );
#380 = CIRCLE( '', #456, 5.50000000000000 );
#381 = FILL_AREA_STYLE_COLOUR( '', #457 );
#382 = FILL_AREA_STYLE_COLOUR( '', #458 );
#383 = FILL_AREA_STYLE_COLOUR( '', #459 );
#384 = COLOUR_RGB( '', 0.200000002980232, 0.200000002980232, 0.200000002980232 );
#385 = CARTESIAN_POINT( '', ( 1.00000000000013, -8.94427190999914, 24.0000000000000 ) );
#386 = CARTESIAN_POINT( '', ( 1.00000000000000, -8.44097150806707, 24.5000000000000 ) );
#387 = CARTESIAN_POINT( '', ( 1.00000000000013, -8.94427190999914, 24.0000000000000 ) );
#388 = CARTESIAN_POINT( '', ( 1.00000000000013, -8.77653576606167, 24.1666975200568 ) );
#389 = CARTESIAN_POINT( '', ( 0.999999999999999, -8.60877077477949, 24.3333660200713 ) );
#390 = CARTESIAN_POINT( '', ( 1.00000000000000, -8.44097150806707, 24.5000000000000 ) );
#391 = CARTESIAN_POINT( '', ( 1.00000000000013, 8.94427190999914, 24.0000000000000 ) );
#392 = AXIS2_PLACEMENT_3D( '', #460, #461, #462 );
#393 = CARTESIAN_POINT( '', ( 1.00000000000000, 8.44097150806707, 24.5000000000000 ) );
#394 = CARTESIAN_POINT( '', ( 1.00000000000000, 8.44097150806707, 24.5000000000000 ) );
#395 = CARTESIAN_POINT( '', ( 0.999999999999999, 8.60877077477949, 24.3333660200713 ) );
#396 = CARTESIAN_POINT( '', ( 1.00000000000000, 8.77653576606168, 24.1666975200568 ) );
#397 = CARTESIAN_POINT( '', ( 1.00000000000000, 8.94427190999915, 24.0000000000000 ) );
#398 = AXIS2_PLACEMENT_3D( '', #463, #464, #465 );
#399 = COLOUR_RGB( '', 0.752941191196442, 0.752941191196442, 0.752941191196442 );
#400 = CARTESIAN_POINT( '', ( -6.00000000000000, 0.000000000000000, 4.00000000000000 ) );
#401 = AXIS2_PLACEMENT_3D( '', #466, #467, #468 );
#402 = CARTESIAN_POINT( '', ( 6.00000000000000, 0.000000000000000, 17.3000000000000 ) );
#403 = AXIS2_PLACEMENT_3D( '', #469, #470, #471 );
#404 = COLOUR_RGB( '', 0.200000002980232, 0.200000002980232, 0.200000002980232 );
#405 = CARTESIAN_POINT( '', ( 3.70809924354783, 0.000000000000000, 2.50000000000000 ) );
#406 = AXIS2_PLACEMENT_3D( '', #472, #473, #474 );
#407 = COLOUR_RGB( '', 0.200000002980232, 0.200000002980232, 0.200000002980232 );
#408 = CARTESIAN_POINT( '', ( 9.00000000000000, 0.000000000000000, 17.3000000000000 ) );
#409 = AXIS2_PLACEMENT_3D( '', #475, #476, #477 );
#410 = CARTESIAN_POINT( '', ( -1.00000000000000, -8.94427190999916, 23.0000000000000 ) );
#411 = CARTESIAN_POINT( '', ( -1.00000000000013, -8.94427190999914, 24.0000000000000 ) );
#412 = CARTESIAN_POINT( '', ( -1.00000000000013, -8.94427190999914, 57.1500000000000 ) );
#413 = VECTOR( '', #478, 1000.00000000000 );
#414 = CARTESIAN_POINT( '', ( -1.00000000000013, 8.94427190999914, 24.0000000000000 ) );
#415 = AXIS2_PLACEMENT_3D( '', #479, #480, #481 );
#416 = CARTESIAN_POINT( '', ( -1.00000000000000, 8.94427190999916, 23.0000000000000 ) );
#417 = CARTESIAN_POINT( '', ( -1.00000000000013, 8.94427190999914, 57.1500000000000 ) );
#418 = VECTOR( '', #482, 1000.00000000000 );
#419 = CARTESIAN_POINT( '', ( 1.00000000000000, 8.94427190999914, 23.0000000000000 ) );
#420 = AXIS2_PLACEMENT_3D( '', #483, #484, #485 );
#421 = CARTESIAN_POINT( '', ( 1.00000000000013, 8.94427190999914, 57.1500000000000 ) );
#422 = VECTOR( '', #486, 1000.00000000000 );
#423 = CARTESIAN_POINT( '', ( 1.00000000000000, -8.94427190999914, 23.0000000000000 ) );
#424 = CARTESIAN_POINT( '', ( 1.00000000000013, -8.94427190999914, 57.1500000000000 ) );
#425 = VECTOR( '', #487, 1000.00000000000 );
#426 = AXIS2_PLACEMENT_3D( '', #488, #489, #490 );
#427 = COLOUR_RGB( '', 0.200000002980232, 0.200000002980232, 0.200000002980232 );
#428 = CARTESIAN_POINT( '', ( -1.00000000000000, 8.44097150806707, 24.5000000000000 ) );
#429 = CARTESIAN_POINT( '', ( -1.00000000000013, 8.94427190999914, 24.0000000000000 ) );
#430 = CARTESIAN_POINT( '', ( -1.00000000000013, 8.77653576606167, 24.1666975200568 ) );
#431 = CARTESIAN_POINT( '', ( -0.999999999999999, 8.60877077477949, 24.3333660200713 ) );
#432 = CARTESIAN_POINT( '', ( -1.00000000000000, 8.44097150806707, 24.5000000000000 ) );
#433 = CARTESIAN_POINT( '', ( -1.00000000000000, -8.44097150806707, 24.5000000000000 ) );
#434 = CARTESIAN_POINT( '', ( -1.00000000000000, -8.44097150806707, 24.5000000000000 ) );
#435 = CARTESIAN_POINT( '', ( -0.999999999999999, -8.60877077477949, 24.3333660200713 ) );
#436 = CARTESIAN_POINT( '', ( -1.00000000000000, -8.77653576606168, 24.1666975200568 ) );
#437 = CARTESIAN_POINT( '', ( -1.00000000000000, -8.94427190999915, 24.0000000000000 ) );
#438 = AXIS2_PLACEMENT_3D( '', #491, #492, #493 );
#439 = COLOUR_RGB( '', 0.200000002980232, 0.200000002980232, 0.200000002980232 );
#440 = CARTESIAN_POINT( '', ( -1.00000000000000, -10.0000000000000, 24.5000000000000 ) );
#441 = VECTOR( '', #494, 1000.00000000000 );
#442 = CARTESIAN_POINT( '', ( -1.00000000000000, -10.0000000000000, 23.0000000000000 ) );
#443 = VECTOR( '', #495, 1000.00000000000 );
#444 = COLOUR_RGB( '', 0.200000002980232, 0.200000002980232, 0.200000002980232 );
#445 = CARTESIAN_POINT( '', ( 1.00000000000000, -10.0000000000000, 24.5000000000000 ) );
#446 = VECTOR( '', #496, 1000.00000000000 );
#447 = CARTESIAN_POINT( '', ( 1.00000000000000, -10.0000000000000, 23.0000000000000 ) );
#448 = VECTOR( '', #497, 1000.00000000000 );
#449 = COLOUR_RGB( '', 0.200000002980232, 0.200000002980232, 0.200000002980232 );
#450 = COLOUR_RGB( '', 0.200000002980232, 0.200000002980232, 0.200000002980232 );
#451 = COLOUR_RGB( '', 0.200000002980232, 0.200000002980232, 0.200000002980232 );
#452 = CARTESIAN_POINT( '', ( 5.50000000000000, 0.000000000000000, 2.50000000000000 ) );
#453 = AXIS2_PLACEMENT_3D( '', #498, #499, #500 );
#454 = COLOUR_RGB( '', 0.200000002980232, 0.200000002980232, 0.200000002980232 );
#455 = CARTESIAN_POINT( '', ( 5.50000000000000, 0.000000000000000, 3.50000000000000 ) );
#456 = AXIS2_PLACEMENT_3D( '', #501, #502, #503 );
#457 = COLOUR_RGB( '', 0.200000002980232, 0.200000002980232, 0.200000002980232 );
#458 = COLOUR_RGB( '', 0.200000002980232, 0.200000002980232, 0.200000002980232 );
#459 = COLOUR_RGB( '', 0.200000002980232, 0.200000002980232, 0.200000002980232 );
#460 = CARTESIAN_POINT( '', ( 0.000000000000000, 0.000000000000000, 24.0000000000000 ) );
#461 = DIRECTION( '', ( 0.000000000000000, 0.000000000000000, 1.00000000000000 ) );
#462 = DIRECTION( '', ( 1.00000000000000, 0.000000000000000, 0.000000000000000 ) );
#463 = CARTESIAN_POINT( '', ( 0.000000000000000, 0.000000000000000, 24.5000000000000 ) );
#464 = DIRECTION( '', ( 0.000000000000000, 0.000000000000000, 1.00000000000000 ) );
#465 = DIRECTION( '', ( 1.00000000000000, 0.000000000000000, 0.000000000000000 ) );
#466 = CARTESIAN_POINT( '', ( 0.000000000000000, 0.000000000000000, 4.00000000000000 ) );
#467 = DIRECTION( '', ( 0.000000000000000, 0.000000000000000, -1.00000000000000 ) );
#468 = DIRECTION( '', ( -1.00000000000000, 0.000000000000000, 0.000000000000000 ) );
#469 = CARTESIAN_POINT( '', ( 0.000000000000000, 0.000000000000000, 17.3000000000000 ) );
#470 = DIRECTION( '', ( 0.000000000000000, 0.000000000000000, 1.00000000000000 ) );
#471 = DIRECTION( '', ( 1.00000000000000, 0.000000000000000, 0.000000000000000 ) );
#472 = CARTESIAN_POINT( '', ( 0.000000000000000, 0.000000000000000, 2.50000000000000 ) );
#473 = DIRECTION( '', ( 0.000000000000000, 0.000000000000000, 1.00000000000000 ) );
#474 = DIRECTION( '', ( 1.00000000000000, 0.000000000000000, 0.000000000000000 ) );
#475 = CARTESIAN_POINT( '', ( 0.000000000000000, 0.000000000000000, 17.3000000000000 ) );
#476 = DIRECTION( '', ( 0.000000000000000, 0.000000000000000, 1.00000000000000 ) );
#477 = DIRECTION( '', ( 1.00000000000000, 0.000000000000000, 0.000000000000000 ) );
#478 = DIRECTION( '', ( 0.000000000000000, 0.000000000000000, 1.00000000000000 ) );
#479 = CARTESIAN_POINT( '', ( 0.000000000000000, 0.000000000000000, 24.0000000000000 ) );
#480 = DIRECTION( '', ( 0.000000000000000, 0.000000000000000, 1.00000000000000 ) );
#481 = DIRECTION( '', ( 1.00000000000000, 0.000000000000000, 0.000000000000000 ) );
#482 = DIRECTION( '', ( 0.000000000000000, 0.000000000000000, 1.00000000000000 ) );
#483 = CARTESIAN_POINT( '', ( 0.000000000000000, 0.000000000000000, 23.0000000000000 ) );
#484 = DIRECTION( '', ( 0.000000000000000, 0.000000000000000, 1.00000000000000 ) );
#485 = DIRECTION( '', ( 1.00000000000000, 0.000000000000000, 0.000000000000000 ) );
#486 = DIRECTION( '', ( 0.000000000000000, 0.000000000000000, 1.00000000000000 ) );
#487 = DIRECTION( '', ( 0.000000000000000, 0.000000000000000, 1.00000000000000 ) );
#488 = CARTESIAN_POINT( '', ( 0.000000000000000, 0.000000000000000, 23.0000000000000 ) );
#489 = DIRECTION( '', ( 0.000000000000000, 0.000000000000000, 1.00000000000000 ) );
#490 = DIRECTION( '', ( 1.00000000000000, 0.000000000000000, 0.000000000000000 ) );
#491 = CARTESIAN_POINT( '', ( 0.000000000000000, 0.000000000000000, 24.5000000000000 ) );
#492 = DIRECTION( '', ( 0.000000000000000, 0.000000000000000, 1.00000000000000 ) );
#493 = DIRECTION( '', ( 1.00000000000000, 0.000000000000000, 0.000000000000000 ) );
#494 = DIRECTION( '', ( 0.000000000000000, 1.00000000000000, 0.000000000000000 ) );
#495 = DIRECTION( '', ( 0.000000000000000, 1.00000000000000, 0.000000000000000 ) );
#496 = DIRECTION( '', ( 0.000000000000000, 1.00000000000000, 0.000000000000000 ) );
#497 = DIRECTION( '', ( 0.000000000000000, 1.00000000000000, 0.000000000000000 ) );
#498 = CARTESIAN_POINT( '', ( 0.000000000000000, 0.000000000000000, 2.50000000000000 ) );
#499 = DIRECTION( '', ( 0.000000000000000, 0.000000000000000, 1.00000000000000 ) );
#500 = DIRECTION( '', ( 1.00000000000000, 0.000000000000000, 0.000000000000000 ) );
#501 = CARTESIAN_POINT( '', ( 0.000000000000000, 0.000000000000000, 3.50000000000000 ) );
#502 = DIRECTION( '', ( 0.000000000000000, 0.000000000000000, 1.00000000000000 ) );
#503 = DIRECTION( '', ( 1.00000000000000, 0.000000000000000, 0.000000000000000 ) );
ENDSEC;
END-ISO-10303-21;
