ISO-10303-21;
HEADER;
FILE_DESCRIPTION( ( 'Unknown' ), '1' );
FILE_NAME( '//SBS2003/HD_Usb/Disegni/08_LIB/Users_3D/PROD_GAMM_3D/APVX/7747586_APVX_22.stp', 'Unknown', ( 'Unknown' ), ( 'Unknown' ), 'PSStep 14.0', 'Unknown', '  ' );
FILE_SCHEMA( ( 'AUTOMOTIVE_DESIGN { 1 0 10303 214 1 1 1 1 }' ) );
ENDSEC;
DATA;
#1 = MECHANICAL_DESIGN_GEOMETRIC_PRESENTATION_REPRESENTATION( ' ', ( #10, #11, #12, #13, #14, #15, #16, #17, #18, #19, #20, #21, #22, #23 ), #6 );
#2 = PRODUCT_DEFINITION_CONTEXT( '', #24, 'design' );
#3 = APPLICATION_PROTOCOL_DEFINITION( 'international standard', 'automotive_design', 2001, #24 );
#4 = PRODUCT_CATEGORY_RELATIONSHIP( 'NONE', 'NONE', #25, #26 );
#5 = SHAPE_DEFINITION_REPRESENTATION( #27, #28 );
#6 =  ( GEOMETRIC_REPRESENTATION_CONTEXT( 3 )GLOBAL_UNCERTAINTY_ASSIGNED_CONTEXT( ( #31 ) )GLOBAL_UNIT_ASSIGNED_CONTEXT( ( #33, #34, #35 ) )REPRESENTATION_CONTEXT( 'NONE', 'WORKSPACE' ) );
#10 = STYLED_ITEM( '', ( #37 ), #38 );
#11 = STYLED_ITEM( '', ( #39 ), #40 );
#12 = STYLED_ITEM( '', ( #41 ), #42 );
#13 = STYLED_ITEM( '', ( #43 ), #44 );
#14 = STYLED_ITEM( '', ( #45 ), #46 );
#15 = STYLED_ITEM( '', ( #47 ), #48 );
#16 = STYLED_ITEM( '', ( #49 ), #50 );
#17 = STYLED_ITEM( '', ( #51 ), #52 );
#18 = STYLED_ITEM( '', ( #53 ), #54 );
#19 = STYLED_ITEM( '', ( #55 ), #56 );
#20 = STYLED_ITEM( '', ( #57 ), #58 );
#21 = STYLED_ITEM( '', ( #59 ), #60 );
#22 = STYLED_ITEM( '', ( #61 ), #62 );
#23 = STYLED_ITEM( '', ( #63 ), #64 );
#24 = APPLICATION_CONTEXT( 'core data for automotive mechanical design processes' );
#25 = PRODUCT_CATEGORY( 'part', 'NONE' );
#26 = PRODUCT_RELATED_PRODUCT_CATEGORY( 'detail', ' ', ( #65 ) );
#27 = PRODUCT_DEFINITION_SHAPE( 'NONE', 'NONE', #66 );
#28 = ADVANCED_BREP_SHAPE_REPRESENTATION( '1', ( #67, #68 ), #6 );
#31 = UNCERTAINTY_MEASURE_WITH_UNIT( LENGTH_MEASURE( 0.00100000000000000 ), #33, '', '' );
#33 =  ( CONVERSION_BASED_UNIT( 'MILLIMETRE', #71 )LENGTH_UNIT(  )NAMED_UNIT( #74 ) );
#34 =  ( NAMED_UNIT( #76 )PLANE_ANGLE_UNIT(  )SI_UNIT( $, .RADIAN. ) );
#35 =  ( NAMED_UNIT( #76 )SI_UNIT( $, .STERADIAN. )SOLID_ANGLE_UNIT(  ) );
#37 = PRESENTATION_STYLE_ASSIGNMENT( ( #82 ) );
#38 = ADVANCED_FACE( '', ( #83 ), #84, .T. );
#39 = PRESENTATION_STYLE_ASSIGNMENT( ( #85 ) );
#40 = ADVANCED_FACE( '', ( #86 ), #87, .T. );
#41 = PRESENTATION_STYLE_ASSIGNMENT( ( #88 ) );
#42 = ADVANCED_FACE( '', ( #89 ), #90, .T. );
#43 = PRESENTATION_STYLE_ASSIGNMENT( ( #91 ) );
#44 = ADVANCED_FACE( '', ( #92 ), #93, .T. );
#45 = PRESENTATION_STYLE_ASSIGNMENT( ( #94 ) );
#46 = ADVANCED_FACE( '', ( #95 ), #96, .T. );
#47 = PRESENTATION_STYLE_ASSIGNMENT( ( #97 ) );
#48 = ADVANCED_FACE( '', ( #98 ), #99, .T. );
#49 = PRESENTATION_STYLE_ASSIGNMENT( ( #100 ) );
#50 = ADVANCED_FACE( '', ( #101, #102 ), #103, .T. );
#51 = PRESENTATION_STYLE_ASSIGNMENT( ( #104 ) );
#52 = ADVANCED_FACE( '', ( #105, #106 ), #107, .T. );
#53 = PRESENTATION_STYLE_ASSIGNMENT( ( #108 ) );
#54 = ADVANCED_FACE( '', ( #109, #110 ), #111, .T. );
#55 = PRESENTATION_STYLE_ASSIGNMENT( ( #112 ) );
#56 = ADVANCED_FACE( '', ( #113, #114 ), #115, .T. );
#57 = PRESENTATION_STYLE_ASSIGNMENT( ( #116 ) );
#58 = ADVANCED_FACE( '', ( #117, #118 ), #119, .T. );
#59 = PRESENTATION_STYLE_ASSIGNMENT( ( #120 ) );
#60 = ADVANCED_FACE( '', ( #121 ), #122, .T. );
#61 = PRESENTATION_STYLE_ASSIGNMENT( ( #123 ) );
#62 = ADVANCED_FACE( '', ( #124, #125 ), #126, .T. );
#63 = PRESENTATION_STYLE_ASSIGNMENT( ( #127 ) );
#64 = ADVANCED_FACE( '', ( #128 ), #129, .T. );
#65 = PRODUCT( '1', '1', 'PART-1-DESC', ( #130 ) );
#66 = PRODUCT_DEFINITION( 'NONE', 'NONE', #131, #2 );
#67 = MANIFOLD_SOLID_BREP( '1', #132 );
#68 = AXIS2_PLACEMENT_3D( '', #133, #134, #135 );
#71 = LENGTH_MEASURE_WITH_UNIT( LENGTH_MEASURE( 1.00000000000000 ), #136 );
#74 = DIMENSIONAL_EXPONENTS( 1.00000000000000, 0.000000000000000, 0.000000000000000, 0.000000000000000, 0.000000000000000, 0.000000000000000, 0.000000000000000 );
#76 = DIMENSIONAL_EXPONENTS( 0.000000000000000, 0.000000000000000, 0.000000000000000, 0.000000000000000, 0.000000000000000, 0.000000000000000, 0.000000000000000 );
#82 = SURFACE_STYLE_USAGE( .BOTH., #137 );
#83 = FACE_OUTER_BOUND( '', #138, .T. );
#84 = PLANE( '', #139 );
#85 = SURFACE_STYLE_USAGE( .BOTH., #140 );
#86 = FACE_OUTER_BOUND( '', #141, .T. );
#87 = CONICAL_SURFACE( '', #142, 8.50000000000000, 0.785398163397448 );
#88 = SURFACE_STYLE_USAGE( .BOTH., #143 );
#89 = FACE_OUTER_BOUND( '', #144, .T. );
#90 = PLANE( '', #145 );
#91 = SURFACE_STYLE_USAGE( .BOTH., #146 );
#92 = FACE_OUTER_BOUND( '', #147, .T. );
#93 = PLANE( '', #148 );
#94 = SURFACE_STYLE_USAGE( .BOTH., #149 );
#95 = FACE_OUTER_BOUND( '', #150, .T. );
#96 = CONICAL_SURFACE( '', #151, 8.50000000000000, 0.785398163397448 );
#97 = SURFACE_STYLE_USAGE( .BOTH., #152 );
#98 = FACE_OUTER_BOUND( '', #153, .T. );
#99 = SPHERICAL_SURFACE( '', #154, 4.00000000000000 );
#100 = SURFACE_STYLE_USAGE( .BOTH., #155 );
#101 = FACE_OUTER_BOUND( '', #156, .T. );
#102 = FACE_OUTER_BOUND( '', #157, .T. );
#103 = CYLINDRICAL_SURFACE( '', #158, 5.50000000000000 );
#104 = SURFACE_STYLE_USAGE( .BOTH., #159 );
#105 = FACE_BOUND( '', #160, .T. );
#106 = FACE_OUTER_BOUND( '', #161, .T. );
#107 = PLANE( '', #162 );
#108 = SURFACE_STYLE_USAGE( .BOTH., #163 );
#109 = FACE_OUTER_BOUND( '', #164, .T. );
#110 = FACE_OUTER_BOUND( '', #165, .T. );
#111 = CYLINDRICAL_SURFACE( '', #166, 9.00000000000000 );
#112 = SURFACE_STYLE_USAGE( .BOTH., #167 );
#113 = FACE_BOUND( '', #168, .T. );
#114 = FACE_OUTER_BOUND( '', #169, .T. );
#115 = CONICAL_SURFACE( '', #170, 6.00000000000000, 0.785398163397448 );
#116 = SURFACE_STYLE_USAGE( .BOTH., #171 );
#117 = FACE_OUTER_BOUND( '', #172, .T. );
#118 = FACE_OUTER_BOUND( '', #173, .T. );
#119 = CYLINDRICAL_SURFACE( '', #174, 6.00000000000000 );
#120 = SURFACE_STYLE_USAGE( .BOTH., #175 );
#121 = FACE_OUTER_BOUND( '', #176, .T. );
#122 = PLANE( '', #177 );
#123 = SURFACE_STYLE_USAGE( .BOTH., #178 );
#124 = FACE_BOUND( '', #179, .T. );
#125 = FACE_OUTER_BOUND( '', #180, .T. );
#126 = PLANE( '', #181 );
#127 = SURFACE_STYLE_USAGE( .BOTH., #182 );
#128 = FACE_OUTER_BOUND( '', #183, .T. );
#129 = PLANE( '', #184 );
#130 = PRODUCT_CONTEXT( '', #24, 'mechanical' );
#131 = PRODUCT_DEFINITION_FORMATION_WITH_SPECIFIED_SOURCE( ' ', 'NONE', #65, .NOT_KNOWN. );
#132 = CLOSED_SHELL( '', ( #42, #56, #54, #44, #60, #64, #46, #40, #48, #38, #62, #58, #50, #52 ) );
#133 = CARTESIAN_POINT( '', ( 0.000000000000000, 0.000000000000000, 0.000000000000000 ) );
#134 = DIRECTION( '', ( 0.000000000000000, 0.000000000000000, 1.00000000000000 ) );
#135 = DIRECTION( '', ( 1.00000000000000, 0.000000000000000, 0.000000000000000 ) );
#136 =  ( LENGTH_UNIT(  )NAMED_UNIT( #74 )SI_UNIT( .MILLI., .METRE. ) );
#137 = SURFACE_SIDE_STYLE( '', ( #186 ) );
#138 = EDGE_LOOP( '', ( #187, #188 ) );
#139 = AXIS2_PLACEMENT_3D( '', #189, #190, #191 );
#140 = SURFACE_SIDE_STYLE( '', ( #192 ) );
#141 = EDGE_LOOP( '', ( #193, #194, #195, #196 ) );
#142 = AXIS2_PLACEMENT_3D( '', #197, #198, #199 );
#143 = SURFACE_SIDE_STYLE( '', ( #200 ) );
#144 = EDGE_LOOP( '', ( #201, #202 ) );
#145 = AXIS2_PLACEMENT_3D( '', #203, #204, #205 );
#146 = SURFACE_SIDE_STYLE( '', ( #206 ) );
#147 = EDGE_LOOP( '', ( #207, #208, #209, #210 ) );
#148 = AXIS2_PLACEMENT_3D( '', #211, #212, #213 );
#149 = SURFACE_SIDE_STYLE( '', ( #214 ) );
#150 = EDGE_LOOP( '', ( #215, #216, #217, #218 ) );
#151 = AXIS2_PLACEMENT_3D( '', #219, #220, #221 );
#152 = SURFACE_SIDE_STYLE( '', ( #222 ) );
#153 = EDGE_LOOP( '', ( #223 ) );
#154 = AXIS2_PLACEMENT_3D( '', #224, #225, #226 );
#155 = SURFACE_SIDE_STYLE( '', ( #227 ) );
#156 = EDGE_LOOP( '', ( #228 ) );
#157 = EDGE_LOOP( '', ( #229 ) );
#158 = AXIS2_PLACEMENT_3D( '', #230, #231, #232 );
#159 = SURFACE_SIDE_STYLE( '', ( #233 ) );
#160 = EDGE_LOOP( '', ( #234 ) );
#161 = EDGE_LOOP( '', ( #235 ) );
#162 = AXIS2_PLACEMENT_3D( '', #236, #237, #238 );
#163 = SURFACE_SIDE_STYLE( '', ( #239 ) );
#164 = EDGE_LOOP( '', ( #240 ) );
#165 = EDGE_LOOP( '', ( #241, #242, #243, #244, #245, #246, #247, #248 ) );
#166 = AXIS2_PLACEMENT_3D( '', #249, #250, #251 );
#167 = SURFACE_SIDE_STYLE( '', ( #252 ) );
#168 = EDGE_LOOP( '', ( #253 ) );
#169 = EDGE_LOOP( '', ( #254 ) );
#170 = AXIS2_PLACEMENT_3D( '', #255, #256, #257 );
#171 = SURFACE_SIDE_STYLE( '', ( #258 ) );
#172 = EDGE_LOOP( '', ( #259 ) );
#173 = EDGE_LOOP( '', ( #260 ) );
#174 = AXIS2_PLACEMENT_3D( '', #261, #262, #263 );
#175 = SURFACE_SIDE_STYLE( '', ( #264 ) );
#176 = EDGE_LOOP( '', ( #265, #266, #267, #268, #269, #270 ) );
#177 = AXIS2_PLACEMENT_3D( '', #271, #272, #273 );
#178 = SURFACE_SIDE_STYLE( '', ( #274 ) );
#179 = EDGE_LOOP( '', ( #275 ) );
#180 = EDGE_LOOP( '', ( #276 ) );
#181 = AXIS2_PLACEMENT_3D( '', #277, #278, #279 );
#182 = SURFACE_SIDE_STYLE( '', ( #280 ) );
#183 = EDGE_LOOP( '', ( #281, #282, #283, #284, #285, #286 ) );
#184 = AXIS2_PLACEMENT_3D( '', #287, #288, #289 );
#186 = SURFACE_STYLE_FILL_AREA( #290 );
#187 = ORIENTED_EDGE( '', *, *, #291, .F. );
#188 = ORIENTED_EDGE( '', *, *, #292, .T. );
#189 = CARTESIAN_POINT( '', ( 0.000000000000000, 0.000000000000000, 24.5000000000000 ) );
#190 = DIRECTION( '', ( 0.000000000000000, 0.000000000000000, 1.00000000000000 ) );
#191 = DIRECTION( '', ( 1.00000000000000, 0.000000000000000, 0.000000000000000 ) );
#192 = SURFACE_STYLE_FILL_AREA( #293 );
#193 = ORIENTED_EDGE( '', *, *, #294, .F. );
#194 = ORIENTED_EDGE( '', *, *, #295, .F. );
#195 = ORIENTED_EDGE( '', *, *, #296, .F. );
#196 = ORIENTED_EDGE( '', *, *, #292, .F. );
#197 = CARTESIAN_POINT( '', ( 0.000000000000000, 0.000000000000000, 24.5000000000000 ) );
#198 = DIRECTION( '', ( -0.000000000000000, 0.000000000000000, -1.00000000000000 ) );
#199 = DIRECTION( '', ( -1.00000000000000, 0.000000000000000, 0.000000000000000 ) );
#200 = SURFACE_STYLE_FILL_AREA( #297 );
#201 = ORIENTED_EDGE( '', *, *, #298, .T. );
#202 = ORIENTED_EDGE( '', *, *, #299, .T. );
#203 = CARTESIAN_POINT( '', ( 0.000000000000000, 0.000000000000000, 24.5000000000000 ) );
#204 = DIRECTION( '', ( 0.000000000000000, 0.000000000000000, 1.00000000000000 ) );
#205 = DIRECTION( '', ( 1.00000000000000, 0.000000000000000, 0.000000000000000 ) );
#206 = SURFACE_STYLE_FILL_AREA( #300 );
#207 = ORIENTED_EDGE( '', *, *, #301, .T. );
#208 = ORIENTED_EDGE( '', *, *, #302, .F. );
#209 = ORIENTED_EDGE( '', *, *, #303, .F. );
#210 = ORIENTED_EDGE( '', *, *, #304, .F. );
#211 = CARTESIAN_POINT( '', ( -1.00000000000000, -10.0000000000000, 23.0000000000000 ) );
#212 = DIRECTION( '', ( 0.000000000000000, 0.000000000000000, 1.00000000000000 ) );
#213 = DIRECTION( '', ( 1.00000000000000, 0.000000000000000, 0.000000000000000 ) );
#214 = SURFACE_STYLE_FILL_AREA( #305 );
#215 = ORIENTED_EDGE( '', *, *, #306, .F. );
#216 = ORIENTED_EDGE( '', *, *, #307, .F. );
#217 = ORIENTED_EDGE( '', *, *, #308, .F. );
#218 = ORIENTED_EDGE( '', *, *, #299, .F. );
#219 = CARTESIAN_POINT( '', ( 0.000000000000000, 0.000000000000000, 24.5000000000000 ) );
#220 = DIRECTION( '', ( -0.000000000000000, 0.000000000000000, -1.00000000000000 ) );
#221 = DIRECTION( '', ( -1.00000000000000, 0.000000000000000, 0.000000000000000 ) );
#222 = SURFACE_STYLE_FILL_AREA( #309 );
#223 = ORIENTED_EDGE( '', *, *, #310, .F. );
#224 = CARTESIAN_POINT( '', ( 0.000000000000000, 0.000000000000000, 4.00000000000000 ) );
#225 = DIRECTION( '', ( 0.000000000000000, 0.000000000000000, 1.00000000000000 ) );
#226 = DIRECTION( '', ( 1.00000000000000, 0.000000000000000, 0.000000000000000 ) );
#227 = SURFACE_STYLE_FILL_AREA( #311 );
#228 = ORIENTED_EDGE( '', *, *, #312, .T. );
#229 = ORIENTED_EDGE( '', *, *, #313, .F. );
#230 = CARTESIAN_POINT( '', ( 0.000000000000000, 0.000000000000000, 57.1500000000000 ) );
#231 = DIRECTION( '', ( -0.000000000000000, -0.000000000000000, -1.00000000000000 ) );
#232 = DIRECTION( '', ( 1.00000000000000, 0.000000000000000, 0.000000000000000 ) );
#233 = SURFACE_STYLE_FILL_AREA( #314 );
#234 = ORIENTED_EDGE( '', *, *, #310, .T. );
#235 = ORIENTED_EDGE( '', *, *, #312, .F. );
#236 = CARTESIAN_POINT( '', ( 5.50000000000000, 0.000000000000000, 2.50000000000000 ) );
#237 = DIRECTION( '', ( 0.000000000000000, 0.000000000000000, -1.00000000000000 ) );
#238 = DIRECTION( '', ( -1.00000000000000, 0.000000000000000, 0.000000000000000 ) );
#239 = SURFACE_STYLE_FILL_AREA( #315 );
#240 = ORIENTED_EDGE( '', *, *, #316, .T. );
#241 = ORIENTED_EDGE( '', *, *, #317, .T. );
#242 = ORIENTED_EDGE( '', *, *, #307, .T. );
#243 = ORIENTED_EDGE( '', *, *, #318, .T. );
#244 = ORIENTED_EDGE( '', *, *, #302, .T. );
#245 = ORIENTED_EDGE( '', *, *, #319, .T. );
#246 = ORIENTED_EDGE( '', *, *, #295, .T. );
#247 = ORIENTED_EDGE( '', *, *, #320, .T. );
#248 = ORIENTED_EDGE( '', *, *, #304, .T. );
#249 = CARTESIAN_POINT( '', ( 0.000000000000000, 0.000000000000000, 57.1500000000000 ) );
#250 = DIRECTION( '', ( -0.000000000000000, -0.000000000000000, -1.00000000000000 ) );
#251 = DIRECTION( '', ( 1.00000000000000, 0.000000000000000, 0.000000000000000 ) );
#252 = SURFACE_STYLE_FILL_AREA( #321 );
#253 = ORIENTED_EDGE( '', *, *, #313, .T. );
#254 = ORIENTED_EDGE( '', *, *, #322, .F. );
#255 = CARTESIAN_POINT( '', ( 0.000000000000000, 0.000000000000000, 4.00000000000000 ) );
#256 = DIRECTION( '', ( -0.000000000000000, -0.000000000000000, 1.00000000000000 ) );
#257 = DIRECTION( '', ( 1.00000000000000, 0.000000000000000, 0.000000000000000 ) );
#258 = SURFACE_STYLE_FILL_AREA( #323 );
#259 = ORIENTED_EDGE( '', *, *, #322, .T. );
#260 = ORIENTED_EDGE( '', *, *, #324, .F. );
#261 = CARTESIAN_POINT( '', ( 0.000000000000000, 0.000000000000000, 57.1500000000000 ) );
#262 = DIRECTION( '', ( -0.000000000000000, -0.000000000000000, -1.00000000000000 ) );
#263 = DIRECTION( '', ( 1.00000000000000, 0.000000000000000, 0.000000000000000 ) );
#264 = SURFACE_STYLE_FILL_AREA( #325 );
#265 = ORIENTED_EDGE( '', *, *, #291, .T. );
#266 = ORIENTED_EDGE( '', *, *, #296, .T. );
#267 = ORIENTED_EDGE( '', *, *, #319, .F. );
#268 = ORIENTED_EDGE( '', *, *, #301, .F. );
#269 = ORIENTED_EDGE( '', *, *, #320, .F. );
#270 = ORIENTED_EDGE( '', *, *, #294, .T. );
#271 = CARTESIAN_POINT( '', ( 1.00000000000000, -10.0000000000000, 23.0000000000000 ) );
#272 = DIRECTION( '', ( -1.00000000000000, 0.000000000000000, 4.04768811061255E-015 ) );
#273 = DIRECTION( '', ( 4.04768811061255E-015, 0.000000000000000, 1.00000000000000 ) );
#274 = SURFACE_STYLE_FILL_AREA( #326 );
#275 = ORIENTED_EDGE( '', *, *, #324, .T. );
#276 = ORIENTED_EDGE( '', *, *, #316, .F. );
#277 = CARTESIAN_POINT( '', ( 9.00000000000000, 0.000000000000000, 17.3000000000000 ) );
#278 = DIRECTION( '', ( 0.000000000000000, 0.000000000000000, -1.00000000000000 ) );
#279 = DIRECTION( '', ( -1.00000000000000, 0.000000000000000, 0.000000000000000 ) );
#280 = SURFACE_STYLE_FILL_AREA( #327 );
#281 = ORIENTED_EDGE( '', *, *, #298, .F. );
#282 = ORIENTED_EDGE( '', *, *, #308, .T. );
#283 = ORIENTED_EDGE( '', *, *, #317, .F. );
#284 = ORIENTED_EDGE( '', *, *, #303, .T. );
#285 = ORIENTED_EDGE( '', *, *, #318, .F. );
#286 = ORIENTED_EDGE( '', *, *, #306, .T. );
#287 = CARTESIAN_POINT( '', ( -1.00000000000000, -10.0000000000000, 24.5000000000000 ) );
#288 = DIRECTION( '', ( 1.00000000000000, 0.000000000000000, 4.04768811061255E-015 ) );
#289 = DIRECTION( '', ( 4.04768811061255E-015, 0.000000000000000, -1.00000000000000 ) );
#290 = FILL_AREA_STYLE( '', ( #328 ) );
#291 = EDGE_CURVE( '', #329, #330, #331, .T. );
#292 = EDGE_CURVE( '', #329, #330, #332, .T. );
#293 = FILL_AREA_STYLE( '', ( #333 ) );
#294 = EDGE_CURVE( '', #334, #329, #335, .T. );
#295 = EDGE_CURVE( '', #336, #334, #337, .F. );
#296 = EDGE_CURVE( '', #330, #336, #338, .T. );
#297 = FILL_AREA_STYLE( '', ( #339 ) );
#298 = EDGE_CURVE( '', #340, #341, #342, .T. );
#299 = EDGE_CURVE( '', #341, #340, #343, .T. );
#300 = FILL_AREA_STYLE( '', ( #344 ) );
#301 = EDGE_CURVE( '', #345, #346, #347, .T. );
#302 = EDGE_CURVE( '', #348, #346, #349, .F. );
#303 = EDGE_CURVE( '', #350, #348, #351, .T. );
#304 = EDGE_CURVE( '', #345, #350, #352, .F. );
#305 = FILL_AREA_STYLE( '', ( #353 ) );
#306 = EDGE_CURVE( '', #354, #341, #355, .T. );
#307 = EDGE_CURVE( '', #356, #354, #357, .F. );
#308 = EDGE_CURVE( '', #340, #356, #358, .T. );
#309 = FILL_AREA_STYLE( '', ( #359 ) );
#310 = EDGE_CURVE( '', #360, #360, #361, .T. );
#311 = FILL_AREA_STYLE( '', ( #362 ) );
#312 = EDGE_CURVE( '', #363, #363, #364, .T. );
#313 = EDGE_CURVE( '', #365, #365, #366, .T. );
#314 = FILL_AREA_STYLE( '', ( #367 ) );
#315 = FILL_AREA_STYLE( '', ( #368 ) );
#316 = EDGE_CURVE( '', #369, #369, #370, .T. );
#317 = EDGE_CURVE( '', #350, #356, #371, .T. );
#318 = EDGE_CURVE( '', #354, #348, #372, .F. );
#319 = EDGE_CURVE( '', #346, #336, #373, .T. );
#320 = EDGE_CURVE( '', #334, #345, #374, .F. );
#321 = FILL_AREA_STYLE( '', ( #375 ) );
#322 = EDGE_CURVE( '', #376, #376, #377, .F. );
#323 = FILL_AREA_STYLE( '', ( #378 ) );
#324 = EDGE_CURVE( '', #379, #379, #380, .T. );
#325 = FILL_AREA_STYLE( '', ( #381 ) );
#326 = FILL_AREA_STYLE( '', ( #382 ) );
#327 = FILL_AREA_STYLE( '', ( #383 ) );
#328 = FILL_AREA_STYLE_COLOUR( '', #384 );
#329 = VERTEX_POINT( '', #385 );
#330 = VERTEX_POINT( '', #386 );
#331 = LINE( '', #387, #388 );
#332 = CIRCLE( '', #389, 8.50000000000000 );
#333 = FILL_AREA_STYLE_COLOUR( '', #390 );
#334 = VERTEX_POINT( '', #391 );
#335 = B_SPLINE_CURVE_WITH_KNOTS( '', 3, ( #392, #393, #394, #395 ), .UNSPECIFIED., .F., .F., ( 4, 4 ), ( 0.000000000000000, 0.000709444356228862 ), .UNSPECIFIED. );
#336 = VERTEX_POINT( '', #396 );
#337 = CIRCLE( '', #397, 9.00000000000000 );
#338 = B_SPLINE_CURVE_WITH_KNOTS( '', 3, ( #398, #399, #400, #401 ), .UNSPECIFIED., .F., .F., ( 4, 4 ), ( 0.000000000000000, 0.000709444356228861 ), .UNSPECIFIED. );
#339 = FILL_AREA_STYLE_COLOUR( '', #402 );
#340 = VERTEX_POINT( '', #403 );
#341 = VERTEX_POINT( '', #404 );
#342 = LINE( '', #405, #406 );
#343 = CIRCLE( '', #407, 8.50000000000000 );
#344 = FILL_AREA_STYLE_COLOUR( '', #408 );
#345 = VERTEX_POINT( '', #409 );
#346 = VERTEX_POINT( '', #410 );
#347 = LINE( '', #411, #412 );
#348 = VERTEX_POINT( '', #413 );
#349 = CIRCLE( '', #414, 9.00000000000000 );
#350 = VERTEX_POINT( '', #415 );
#351 = LINE( '', #416, #417 );
#352 = CIRCLE( '', #418, 9.00000000000000 );
#353 = FILL_AREA_STYLE_COLOUR( '', #419 );
#354 = VERTEX_POINT( '', #420 );
#355 = B_SPLINE_CURVE_WITH_KNOTS( '', 3, ( #421, #422, #423, #424 ), .UNSPECIFIED., .F., .F., ( 4, 4 ), ( 0.000000000000000, 0.000709444356228862 ), .UNSPECIFIED. );
#356 = VERTEX_POINT( '', #425 );
#357 = CIRCLE( '', #426, 9.00000000000000 );
#358 = B_SPLINE_CURVE_WITH_KNOTS( '', 3, ( #427, #428, #429, #430 ), .UNSPECIFIED., .F., .F., ( 4, 4 ), ( 0.000000000000000, 0.000709444356228861 ), .UNSPECIFIED. );
#359 = FILL_AREA_STYLE_COLOUR( '', #431 );
#360 = VERTEX_POINT( '', #432 );
#361 = CIRCLE( '', #433, 3.70809924354783 );
#362 = FILL_AREA_STYLE_COLOUR( '', #434 );
#363 = VERTEX_POINT( '', #435 );
#364 = CIRCLE( '', #436, 5.50000000000000 );
#365 = VERTEX_POINT( '', #437 );
#366 = CIRCLE( '', #438, 5.50000000000000 );
#367 = FILL_AREA_STYLE_COLOUR( '', #439 );
#368 = FILL_AREA_STYLE_COLOUR( '', #440 );
#369 = VERTEX_POINT( '', #441 );
#370 = CIRCLE( '', #442, 9.00000000000000 );
#371 = LINE( '', #443, #444 );
#372 = LINE( '', #445, #446 );
#373 = LINE( '', #447, #448 );
#374 = LINE( '', #449, #450 );
#375 = FILL_AREA_STYLE_COLOUR( '', #451 );
#376 = VERTEX_POINT( '', #452 );
#377 = CIRCLE( '', #453, 6.00000000000000 );
#378 = FILL_AREA_STYLE_COLOUR( '', #454 );
#379 = VERTEX_POINT( '', #455 );
#380 = CIRCLE( '', #456, 6.00000000000000 );
#381 = FILL_AREA_STYLE_COLOUR( '', #457 );
#382 = FILL_AREA_STYLE_COLOUR( '', #458 );
#383 = FILL_AREA_STYLE_COLOUR( '', #459 );
#384 = COLOUR_RGB( '', 0.800000011920929, 0.800000011920929, 0.800000011920929 );
#385 = CARTESIAN_POINT( '', ( 1.00000000000000, -8.44097150806707, 24.5000000000000 ) );
#386 = CARTESIAN_POINT( '', ( 1.00000000000000, 8.44097150806707, 24.5000000000000 ) );
#387 = CARTESIAN_POINT( '', ( 1.00000000000000, -10.0000000000000, 24.5000000000000 ) );
#388 = VECTOR( '', #460, 1000.00000000000 );
#389 = AXIS2_PLACEMENT_3D( '', #461, #462, #463 );
#390 = COLOUR_RGB( '', 0.800000011920929, 0.800000011920929, 0.800000011920929 );
#391 = CARTESIAN_POINT( '', ( 1.00000000000013, -8.94427190999914, 24.0000000000000 ) );
#392 = CARTESIAN_POINT( '', ( 1.00000000000013, -8.94427190999914, 24.0000000000000 ) );
#393 = CARTESIAN_POINT( '', ( 1.00000000000013, -8.77653576606167, 24.1666975200568 ) );
#394 = CARTESIAN_POINT( '', ( 0.999999999999999, -8.60877077477949, 24.3333660200713 ) );
#395 = CARTESIAN_POINT( '', ( 1.00000000000000, -8.44097150806707, 24.5000000000000 ) );
#396 = CARTESIAN_POINT( '', ( 1.00000000000013, 8.94427190999914, 24.0000000000000 ) );
#397 = AXIS2_PLACEMENT_3D( '', #464, #465, #466 );
#398 = CARTESIAN_POINT( '', ( 1.00000000000000, 8.44097150806707, 24.5000000000000 ) );
#399 = CARTESIAN_POINT( '', ( 0.999999999999999, 8.60877077477949, 24.3333660200713 ) );
#400 = CARTESIAN_POINT( '', ( 1.00000000000000, 8.77653576606168, 24.1666975200568 ) );
#401 = CARTESIAN_POINT( '', ( 1.00000000000000, 8.94427190999915, 24.0000000000000 ) );
#402 = COLOUR_RGB( '', 0.800000011920929, 0.800000011920929, 0.800000011920929 );
#403 = CARTESIAN_POINT( '', ( -1.00000000000000, -8.44097150806707, 24.5000000000000 ) );
#404 = CARTESIAN_POINT( '', ( -1.00000000000000, 8.44097150806707, 24.5000000000000 ) );
#405 = CARTESIAN_POINT( '', ( -1.00000000000000, -10.0000000000000, 24.5000000000000 ) );
#406 = VECTOR( '', #467, 1000.00000000000 );
#407 = AXIS2_PLACEMENT_3D( '', #468, #469, #470 );
#408 = COLOUR_RGB( '', 0.800000011920929, 0.800000011920929, 0.800000011920929 );
#409 = CARTESIAN_POINT( '', ( 1.00000000000000, -8.94427190999914, 23.0000000000000 ) );
#410 = CARTESIAN_POINT( '', ( 1.00000000000000, 8.94427190999914, 23.0000000000000 ) );
#411 = CARTESIAN_POINT( '', ( 1.00000000000000, -10.0000000000000, 23.0000000000000 ) );
#412 = VECTOR( '', #471, 1000.00000000000 );
#413 = CARTESIAN_POINT( '', ( -1.00000000000000, 8.94427190999916, 23.0000000000000 ) );
#414 = AXIS2_PLACEMENT_3D( '', #472, #473, #474 );
#415 = CARTESIAN_POINT( '', ( -1.00000000000000, -8.94427190999916, 23.0000000000000 ) );
#416 = CARTESIAN_POINT( '', ( -1.00000000000000, -10.0000000000000, 23.0000000000000 ) );
#417 = VECTOR( '', #475, 1000.00000000000 );
#418 = AXIS2_PLACEMENT_3D( '', #476, #477, #478 );
#419 = COLOUR_RGB( '', 0.800000011920929, 0.800000011920929, 0.800000011920929 );
#420 = CARTESIAN_POINT( '', ( -1.00000000000013, 8.94427190999914, 24.0000000000000 ) );
#421 = CARTESIAN_POINT( '', ( -1.00000000000013, 8.94427190999914, 24.0000000000000 ) );
#422 = CARTESIAN_POINT( '', ( -1.00000000000013, 8.77653576606167, 24.1666975200568 ) );
#423 = CARTESIAN_POINT( '', ( -0.999999999999999, 8.60877077477949, 24.3333660200713 ) );
#424 = CARTESIAN_POINT( '', ( -1.00000000000000, 8.44097150806707, 24.5000000000000 ) );
#425 = CARTESIAN_POINT( '', ( -1.00000000000013, -8.94427190999914, 24.0000000000000 ) );
#426 = AXIS2_PLACEMENT_3D( '', #479, #480, #481 );
#427 = CARTESIAN_POINT( '', ( -1.00000000000000, -8.44097150806707, 24.5000000000000 ) );
#428 = CARTESIAN_POINT( '', ( -0.999999999999999, -8.60877077477949, 24.3333660200713 ) );
#429 = CARTESIAN_POINT( '', ( -1.00000000000000, -8.77653576606168, 24.1666975200568 ) );
#430 = CARTESIAN_POINT( '', ( -1.00000000000000, -8.94427190999915, 24.0000000000000 ) );
#431 = COLOUR_RGB( '', 0.800000011920929, 0.800000011920929, 0.800000011920929 );
#432 = CARTESIAN_POINT( '', ( 3.70809924354783, 0.000000000000000, 2.50000000000000 ) );
#433 = AXIS2_PLACEMENT_3D( '', #482, #483, #484 );
#434 = COLOUR_RGB( '', 0.800000011920929, 0.800000011920929, 0.800000011920929 );
#435 = CARTESIAN_POINT( '', ( 5.50000000000000, 0.000000000000000, 2.50000000000000 ) );
#436 = AXIS2_PLACEMENT_3D( '', #485, #486, #487 );
#437 = CARTESIAN_POINT( '', ( 5.50000000000000, 0.000000000000000, 3.50000000000000 ) );
#438 = AXIS2_PLACEMENT_3D( '', #488, #489, #490 );
#439 = COLOUR_RGB( '', 0.800000011920929, 0.800000011920929, 0.800000011920929 );
#440 = COLOUR_RGB( '', 0.800000011920929, 0.800000011920929, 0.800000011920929 );
#441 = CARTESIAN_POINT( '', ( 9.00000000000000, 0.000000000000000, 17.3000000000000 ) );
#442 = AXIS2_PLACEMENT_3D( '', #491, #492, #493 );
#443 = CARTESIAN_POINT( '', ( -1.00000000000013, -8.94427190999914, 57.1500000000000 ) );
#444 = VECTOR( '', #494, 1000.00000000000 );
#445 = CARTESIAN_POINT( '', ( -1.00000000000013, 8.94427190999914, 57.1500000000000 ) );
#446 = VECTOR( '', #495, 1000.00000000000 );
#447 = CARTESIAN_POINT( '', ( 1.00000000000013, 8.94427190999914, 57.1500000000000 ) );
#448 = VECTOR( '', #496, 1000.00000000000 );
#449 = CARTESIAN_POINT( '', ( 1.00000000000013, -8.94427190999914, 57.1500000000000 ) );
#450 = VECTOR( '', #497, 1000.00000000000 );
#451 = COLOUR_RGB( '', 0.800000011920929, 0.800000011920929, 0.800000011920929 );
#452 = CARTESIAN_POINT( '', ( -6.00000000000000, 0.000000000000000, 4.00000000000000 ) );
#453 = AXIS2_PLACEMENT_3D( '', #498, #499, #500 );
#454 = COLOUR_RGB( '', 0.752941191196442, 0.752941191196442, 0.752941191196442 );
#455 = CARTESIAN_POINT( '', ( 6.00000000000000, 0.000000000000000, 17.3000000000000 ) );
#456 = AXIS2_PLACEMENT_3D( '', #501, #502, #503 );
#457 = COLOUR_RGB( '', 0.800000011920929, 0.800000011920929, 0.800000011920929 );
#458 = COLOUR_RGB( '', 0.800000011920929, 0.800000011920929, 0.800000011920929 );
#459 = COLOUR_RGB( '', 0.800000011920929, 0.800000011920929, 0.800000011920929 );
#460 = DIRECTION( '', ( 0.000000000000000, 1.00000000000000, 0.000000000000000 ) );
#461 = CARTESIAN_POINT( '', ( 0.000000000000000, 0.000000000000000, 24.5000000000000 ) );
#462 = DIRECTION( '', ( 0.000000000000000, 0.000000000000000, 1.00000000000000 ) );
#463 = DIRECTION( '', ( 1.00000000000000, 0.000000000000000, 0.000000000000000 ) );
#464 = CARTESIAN_POINT( '', ( 0.000000000000000, 0.000000000000000, 24.0000000000000 ) );
#465 = DIRECTION( '', ( 0.000000000000000, 0.000000000000000, 1.00000000000000 ) );
#466 = DIRECTION( '', ( 1.00000000000000, 0.000000000000000, 0.000000000000000 ) );
#467 = DIRECTION( '', ( 0.000000000000000, 1.00000000000000, 0.000000000000000 ) );
#468 = CARTESIAN_POINT( '', ( 0.000000000000000, 0.000000000000000, 24.5000000000000 ) );
#469 = DIRECTION( '', ( 0.000000000000000, 0.000000000000000, 1.00000000000000 ) );
#470 = DIRECTION( '', ( 1.00000000000000, 0.000000000000000, 0.000000000000000 ) );
#471 = DIRECTION( '', ( 0.000000000000000, 1.00000000000000, 0.000000000000000 ) );
#472 = CARTESIAN_POINT( '', ( 0.000000000000000, 0.000000000000000, 23.0000000000000 ) );
#473 = DIRECTION( '', ( 0.000000000000000, 0.000000000000000, 1.00000000000000 ) );
#474 = DIRECTION( '', ( 1.00000000000000, 0.000000000000000, 0.000000000000000 ) );
#475 = DIRECTION( '', ( 0.000000000000000, 1.00000000000000, 0.000000000000000 ) );
#476 = CARTESIAN_POINT( '', ( 0.000000000000000, 0.000000000000000, 23.0000000000000 ) );
#477 = DIRECTION( '', ( 0.000000000000000, 0.000000000000000, 1.00000000000000 ) );
#478 = DIRECTION( '', ( 1.00000000000000, 0.000000000000000, 0.000000000000000 ) );
#479 = CARTESIAN_POINT( '', ( 0.000000000000000, 0.000000000000000, 24.0000000000000 ) );
#480 = DIRECTION( '', ( 0.000000000000000, 0.000000000000000, 1.00000000000000 ) );
#481 = DIRECTION( '', ( 1.00000000000000, 0.000000000000000, 0.000000000000000 ) );
#482 = CARTESIAN_POINT( '', ( 0.000000000000000, 0.000000000000000, 2.50000000000000 ) );
#483 = DIRECTION( '', ( 0.000000000000000, 0.000000000000000, 1.00000000000000 ) );
#484 = DIRECTION( '', ( 1.00000000000000, 0.000000000000000, 0.000000000000000 ) );
#485 = CARTESIAN_POINT( '', ( 0.000000000000000, 0.000000000000000, 2.50000000000000 ) );
#486 = DIRECTION( '', ( 0.000000000000000, 0.000000000000000, 1.00000000000000 ) );
#487 = DIRECTION( '', ( 1.00000000000000, 0.000000000000000, 0.000000000000000 ) );
#488 = CARTESIAN_POINT( '', ( 0.000000000000000, 0.000000000000000, 3.50000000000000 ) );
#489 = DIRECTION( '', ( 0.000000000000000, 0.000000000000000, 1.00000000000000 ) );
#490 = DIRECTION( '', ( 1.00000000000000, 0.000000000000000, 0.000000000000000 ) );
#491 = CARTESIAN_POINT( '', ( 0.000000000000000, 0.000000000000000, 17.3000000000000 ) );
#492 = DIRECTION( '', ( 0.000000000000000, 0.000000000000000, 1.00000000000000 ) );
#493 = DIRECTION( '', ( 1.00000000000000, 0.000000000000000, 0.000000000000000 ) );
#494 = DIRECTION( '', ( 0.000000000000000, 0.000000000000000, 1.00000000000000 ) );
#495 = DIRECTION( '', ( 0.000000000000000, 0.000000000000000, 1.00000000000000 ) );
#496 = DIRECTION( '', ( 0.000000000000000, 0.000000000000000, 1.00000000000000 ) );
#497 = DIRECTION( '', ( 0.000000000000000, 0.000000000000000, 1.00000000000000 ) );
#498 = CARTESIAN_POINT( '', ( 0.000000000000000, 0.000000000000000, 4.00000000000000 ) );
#499 = DIRECTION( '', ( 0.000000000000000, 0.000000000000000, -1.00000000000000 ) );
#500 = DIRECTION( '', ( -1.00000000000000, 0.000000000000000, 0.000000000000000 ) );
#501 = CARTESIAN_POINT( '', ( 0.000000000000000, 0.000000000000000, 17.3000000000000 ) );
#502 = DIRECTION( '', ( 0.000000000000000, 0.000000000000000, 1.00000000000000 ) );
#503 = DIRECTION( '', ( 1.00000000000000, 0.000000000000000, 0.000000000000000 ) );
ENDSEC;
END-ISO-10303-21;
